Oops, an error
Loading. Please wait.

Careful Tab

ver7
ver7
More versions @911Tabs.com
3,166 views 6 this week
2 commentsread comments
1 2 3 4 5
accurate
x 5
Autoscroll
+/-
esc
set tempo
stop
Difficulty
Tuning
intermediate
C# G# C# F# A# D#
Hey! There's an official Ultimate Guitar app which is ideal
for learning songs when you're away from computer. Get the app
WARNING: You are trying to view
                                    content from Ultimate-Guitar.com
                                    in an unauthorized application,
                                    which is prohibited.

                                    Please use an official Ultimate
                                    Guitar Tabs application for iPhone,
                                    iPad or Android to access legitimate
                                    chords, guitar, bass, and drum tabs
                                    from Ultimate-Guitar.com database.

                                    Type "ultimate guitar tabs" in Apple
                                    App Store's or Android Market's
                                    search to find the application.
i saw a tab that looked close to the song with a few mistakes. the tuning is in c# like this
d#
a#
f#
c#
g#
c#      the song is awesome and is my first tab an i hope you like it have fun and 
just for no confusion ive seperated the rythm and lead guitars hehe have fun (again)


Intro

d#|-----------------------------------17---------------------------------|
A#|-----------------------14-15-14-17------------------------------------|
F#|13-14-13-14-13--------------------------13-14-13-14-13----------------|
C#|---------------16-14-----------------------------------16-14----------|
G#|--------------------------------------------------------------14-12-11|
C#|----------------------------------------------------------------------|

d#|-----------------------------------17-----------------------------|
A#|-----------------------14-15-14-17--------------------------------|
F#|13-14-13-14-13--------------------------13-14-13-14-13------------|
C#|---------------16-14-----------------------------------14-12-11-12|
G#|------------------------------------------------------------------|
C#|------------------------------------------------------------------|

Verse

d#|-------12-----12----12-----12-----12-----12-------|
A#|----10-----10-----10----10-----10-----10------14--|(let ring)
F#|-11-----11-----------11-----11--------------------|
C#|--------------------------------------------------|
C#|--------------------------------------------------|
C#|--------------------------------------------------|

Really hit the open upper strings on this bit

d#|-0----------12-----12----12-----12-----12---|
A#|-0-------10-----10-----10----10-----10------|
F#|-0----11-----11-----------11-----11---------|
C#|--------------------------------------------|
G#|--------------------------------------------|
C#|--------------------------------------------|

Then directly after:

d#|-----------------------------------------------------------------------|
A#|-----------------------------------------------------------------------|
F#|-----------------------------------------------------------------------|
C#|-----------------------------------------------------------------------|
G#|-----------------------------------------------------------------------|
C#|-4-4-4-4-4-4-4-4-7-7-7-7-7-7-7-7-2-2-2-2-2-2-2-2-0-0-0-0-0-0-0-0-------|
    * * * * * * * * * * * * * * * * * * * * * * * * * * * * * * * *
d#|------------------------------------------------------------|
A#|------------------------------------------------------------|
F#|------------------------------------------------------------|
C#|-------------------------------------------------7----------|
G#|-------------------------------------------------7----------|
C#|-4-4-4-4-4-4-4-4-7-7-7-7-7-7-7-7-2-2-2-2-2-2-2-2-7----------|
    * * * * * * * * * * * * * * * * * * * * * * * * 











Chorus

d#|-----------------------------------------------------------------------|
A#|-----------------------------------------------------------------------|
F#|-11-11-11-6-6-6-9-9-9-9-9-9-9-9-9-9-11-11-11-6-6-6-4-4-4-4-4-4-4-4-4-4-|
C#|-x--x--x--x-x-x-x-x-x-x-x-x-x-x-x-x-x--x--x--x-x-x-x-x-x-x-x-x-x-x-x-x-|
G#|-9--9--9--4-4-4-7-7-7-7-7-7-7-7-7-7-9--9--9--4-4-4-2-2-2-2-2-2-2-2-2-2-|
C#|-----------------------------------------------------------------------|

d#|-----------------------------------------------------------------------|
A#|-----------------------------------------------------------------------|
F#|-11-11-11-6-6-6-9-9-9-9-9-9-9-9-9-9-11-11-11-6-6-6-4-4-4-4-4-4-4-4-4-4-|
C#|-x--x--x--x-x-x-x-x-x-x-x-x-x-x-x-x-x--x--x--x-x-x-x-x-x-x-x-x-x-x-x-x-|
G#|-9--9--9--4-4-4-7-7-7-7-7-7-7-7-7-7-9--9--9--4-4-4-2-2-2-2-2-2-2-2-2-2-|
C#|-----------------------------------------------------------------------|

d#|-------9--------------7------------------9---------------7------|
A#|-----7--------7-10--7----7-10--7-------7---------7-10--7---7-9^-|
F#|-7/9------7/9----------------------7/9-------7/9----------------|
C#|----------------------------------------------------------------|
G#|----------------------------------------------------------------|
C#|----------------------------------------------------------------|

d#|-----------------------------------17---------------------------------|
A#|-----------------------14-15-14-17------------------------------------|
F#|13-14-13-14-13--------------------------13-14-13-14-13----------------|
C#|---------------16-14-----------------------------------16-14----------|
G#|--------------------------------------------------------------14-12-11|
C#|----------------------------------------------------------------------|

d#|-----------------------------------17-----------------------------|
A#|-----------------------14-15-14-17--------------------------------|
F#|13-14-13-14-13--------------------------13-14-13-14-13------------|
C#|---------------16-14-----------------------------------14-12-11-12|
G#|------------------------------------------------------------------|
C#|------------------------------------------------------------------|

Verse

d#|-------12-----12----12-----12-----12-----12-------|
A#|----10-----10-----10----10-----10-----10------14--|(let ring)
F#|-11-----11-----------11-----11--------------------|
C#|--------------------------------------------------|
C#|--------------------------------------------------|
C#|--------------------------------------------------|

d#|--------12-----12----12-----12-----12-------|
A#|-----10-----10-----10----10-----10----------|
F#|--11-----11-----------11-----11-------------|
C#|--------------------------------------------|
G#|--------------------------------------------|
C#|--------------------------------------------|







Then directly after:

d#|-----------------------------------------------------------------------|
A#|-----------------------------------------------------------------------|
F#|-----------------------------------------------------------------------|
C#|-----------------------------------------------------------0-0-0-------|
G#|-----------------------------------------------------------0-0-0-------|
C#|-4-4-4-4-4-4-4-4-7-7-7-7-7-7-7-7-2-2-2-2-2-2-2-2-0-0-0-0-0-0-0-0-------|
    * * * * * * * * * * * * * * * * * * * * * * * * * * * * * 
d#|------------------------------------------------------------|
A#|------------------------------------------------------------|
F#|------------------------------------------------------------|
C#|-------------------------------------------------7----------|
G#|-------------------------------------------------7----------|
C#|-4-4-4-4-4-4-4-4-7-7-7-7-7-7-7-7-2-2-2-2-2-2-2-2-7----------|
    * * * * * * * * * * * * * * * * * * * * * * * * 


Chorus

d#|-----------------------------------------------------------------------|
A#|-----------------------------------------------------------------------|
F#|-11-11-11-6-6-6-9-9-9-9-9-9-9-9-9-9-11-11-11-6-6-6-4-4-4-4-4-4-4-4-4-4-|
C#|-x--x--x--x-x-x-x-x-x-x-x-x-x-x-x-x-x--x--x--x-x-x-x-x-x-x-x-x-x-x-x-x-|
G#|-9--9--9--4-4-4-7-7-7-7-7-7-7-7-7-7-9--9--9--4-4-4-2-2-2-2-2-2-2-2-2-2-|
C#|-----------------------------------------------------------------------|

d#|-----------------------------------------------------------------------|
A#|-----------------------------------------------------------------------|
F#|-11-11-11-6-6-6-9-9-9-9-9-9-9-9-9-9-11-11-11-6-6-6-4-4-4-4-4-4-4-4-4-4-|
C#|-x--x--x--x-x-x-x-x-x-x-x-x-x-x-x-x-x--x--x--x-x-x-x-x-x-x-x-x-x-x-x-x-|
G#|-9--9--9--4-4-4-7-7-7-7-7-7-7-7-7-7-9--9--9--4-4-4-2-2-2-2-2-2-2-2-2-2-|
C#|-----------------------------------------------------------------------|

d#|-------9--------------7------------------9---------------7-|
A#|-----7--------7-10--7----7-10--7-------7---------7-10--7---|
F#|-7/9------7/9----------------------7/9-------7/9-----------|
C#|-----------------------------------------------------------|
G#|-----------------------------------------------------------|
C#|-----------------------------------------------------------|

Solo/Bridge

d#|--------------------17-16--------------------------17-16--------------|
A#|--------------14-17--------------------------14-17--------------------|
F#|-13-14-------------------------13-14----------------------------------|
C#|-------16-14-------------------------16-14----------------------------|
G#|----------------------------------------------------------------------|
C#|----------------------------------------------------------------------|



d#|------------------------------------------------------------|
A#|------------------------------------------------------------|
F#|-11-11-14-14-14-6-6-6-13-4---11-11-14-14-14-14-6-6-6-13-4-4-|
C#|-x--x--x--x--x--x-x-x-x--x---x--x--x--x--x--x--x-x-x-x--x-x-|
G#|-9--9--12-12-12-4-4-4-11-2---9--9--12-12-12-12-4-4-4-11-2-2-|
C#|------------------------------------------------------------|






D#|-------------------------------------------------|
A#|-------------------------------------------------|
F#|-------------------------------------------------| ----|
C#|-11-11-11-11-11-12-14-14-------------------------|     |  
G#|-------------------------12-12-12-14-14-14-14-14-|     | 
C#|-------------------------------------------------|     |      
    *  *  *  *  *  *  *  *  *  *  *  *  *  *  *  *        |    
                                                          | x3         
                                                          |           
d#|-------------------------------------------------|     |        
A#|-------------------------------------------------|     |            
F#|-------------------------------------------------|     |             
C#|-11-11-11-11-11-12-14-14-------------------------| ----|         
G#|-------------------------12-12-12-11-11-11-11-11-|
C#|-------------------------------------------------|
    *  *  *  *  *  *  *  *  *  *  *  *  *  *  *  *  

(Clean)
d#|------------------------|
A#|------------------------|
F#|-11------------11-------|
C#|-----11-14---------11-9-|
G#|------------------------|
C#|------------------------|

Chorus


d#|-----------------------------------------------------------------------|
A#|-----------------------------------------------------------------------|
F#|-11-11-11-6-6-6-9-9-9-9-9-9-9-9-9-9-11-11-11-6-6-6-4-4-4-4-4-4-4-4-4-4-|
C#|-x--x--x--x-x-x-x-x-x-x-x-x-x-x-x-x-x--x--x--x-x-x-x-x-x-x-x-x-x-x-x-x-|
G#|-9--9--9--4-4-4-7-7-7-7-7-7-7-7-7-7-9--9--9--4-4-4-2-2-2-2-2-2-2-2-2-2-|
C#|-----------------------------------------------------------------------|

d#|-----------------------------------------------------------------------|
A#|-----------------------------------------------------------------------|
F#|-11-11-11-6-6-6-9-9-9-9-9-9-9-9-9-9-11-11-11-6-6-6-4-4-4-4-4-4-4-4-----|
C#|-x--x--x--x-x-x-x-x-x-x-x-x-x-x-x-x-x--x--x--x-x-x-x-x-x-x-x-x-x-x-----|
G#|-9--9--9--4-4-4-7-7-7-7-7-7-7-7-7-7-9--9--9--4-4-4-2-2-2-2-2-2-2-2-----|
C#|-----------------------------------------------------------------------|

d#|-----------------------------------------------------------------------|
A#|-----------------------------------------------------------------------|
F#|-11-11-11-6-6-6-9-9-9-9-9-9-9-9-9-9-11-11-11-6-6-6-4-4-4-4-4-4-4-4-4-4-|
C#|-x--x--x--x-x-x-x-x-x-x-x-x-x-x-x-x-x--x--x--x-x-x-x-x-x-x-x-x-x-x-x-x-|
G#|-9--9--9--4-4-4-7-7-7-7-7-7-7-7-7-7-9--9--9--4-4-4-2-2-2-2-2-2-2-2-2-2-|
C#|-----------------------------------------------------------------------|

d#|-----------------------------------------------------------------------|
A#|-----------------------------------------------------------------------|
F#|-11-11-11-6-6-6-9-9-9-9-9-9-9-9-9-9-11-11-11-6-6-6-4-4-4-4-4-4-4-4-4-4-|
C#|-x--x--x--x-x-x-x-x-x-x-x-x-x-x-x-x-x--x--x--x-x-x-x-x-x-x-x-x-x-x-x-x-|
G#|-9--9--9--4-4-4-7-7-7-7-7-7-7-7-7-7-9--9--9--4-4-4-2-2-2-2-2-2-2-2-2-2-|
C#|-----------------------------------------------------------------------|

d#|-------9--------------7------------------9---------------7------|
A#|-----7--------7-10--7----7-10--7-------7---------7-10--7---7-9^-|
F#|-7/9------7/9----------------------7/9-------7/9----------------|
C#|----------------------------------------------------------------|
G#|----------------------------------------------------------------|
C#|----------------------------------------------------------------|

d#|-----------------------------------17----------------------------------|
A#|-----------------------14-15-14-17-------------------------------------|
F#|13-14-13-14-13--------------------------13-14-13-14-13-----------------|
C#|---------------16-14-----------------------------------16-14-----------|
G#|-------------------------------------------------------------14-12-11-4|
C#|-----------------------------------------------------------------------|



RHYTHM GUITAR

Intro

d#|---------------------------------------------------|
A#|---------------------------------------------------|
F#|----6-6/7/9------------------6--6-7-9--------------|
C#|--4-x-x-x-x--4--7-9--9-----4-x--x-x-x---4--9--2--2-|
G#|--4-4-4/5/7--4--7-9--9-----4-4--4/5/7---4--9--2--2-|
C#|--4----------4--7-9--9-----4------------4--9--2--2-|

d#|----------------------------------------------------|
A#|----------------------------------------------------|
F#|---6-6/7/9-----------------6--6-7-9-----------------|
C#|-4-x-x-x-x--4--7-9--9----4-x--x-x-x--4--9--2--2--4--|
G#|-4-4-4/5/7--4--7-9--9----4-4--4/5/7--4--9--2--2--4--|(let ring)
C#|-4----------4--7-9--9----4-----------4--9--2—-2--4--|



Verse

d#|-----------------------------------|
A#|-----------------------------------|
F#|-----------------------------------|
C#|-0-0-0-0-0-0-0-0-2-2-2-2-2-2-2-2-4-|
G#|-0-0-0-0-0-0-0-0-2-2-2-2-2-2-2-2-4-|
C#|-0-0-0-0-0-0-0-0-2-2-2-2-2-2-2-2-4-|

Again play the first strings with a nice sharp ping noise

d#|-3-------------------------------------|
A#|-3-------------------------------------|
F#|---------------------------------------|
C#|-----0-0-0-0-0-0-0-0-2-2-2-2-2-2-2-2-4-| (let ring)
G#|-----0-0-0-0-0-0-0-0-2-2-2-2-2-2-2-2-4-|
C#|-----0-0-0-0-0-0-0-0-2-2-2-2-2-2-2-2-4-|






d#|-----------------------------------------------------------------|
A#|-----------------------------------------------------------------|
F#|-----------------------------------------------------------------|
C#|-----------------------------------------------------------------|
G#|-----------------------------------------------------------------|
C#|-4-4-4-4-4-4-4-4-7-7-7-7-7-7-7-7-2-2-2-2-2-2-2-2-0-0-0-0-0-0-0-0-|
    * * * * * * * * * * * * * * * * * * * * * * * * * * * * * * * * 


(at the end the 077 bit, as soon as you play it stop it so it doesn’t ring)
d#|---------------------------------------------------|
A#|---------------------------------------------------|
F#|---------------------------------------------------|
C#|-------------------------------------------------7-|
G#|-------------------------------------------------7-|
C#|-4-4-4-4-4-4-4-4-7-7-7-7-7-7-7-7-2-2-2-2-2-2-2-2-0-|
    * * * * * * * * * * * * * * * * * * * * * * * *  

Chorus

d#|-----------------------------------------------------------------|
A#|-----------------------------------------------------------------|
F#|-----------------------------------------------------------------|
C#|-4-4-4-4-4-4-4-4-0-0-0-0-0-0-0-0-7-7-7-7-7-7-7-7-9-9-9-9-9-9-9-9-|
G#|-4-4-4-4-4-4-4-4-0-0-0-0-0-0-0-0-7-7-7-7-7-7-7-7-9-9-9-9-9-9-9-9-|
C#|-4-4-4-4-4-4-4-4-0-0-0-0-0-0-0-0-7-7-7-7-7-7-7-7-9-9-9-9-9-9-9-9-|

d#|-----------------------------------------------------------------|
A#|-----------------------------------------------------------------|
F#|-----------------------------------------------------------------|
C#|-4-4-4-4-4-4-4-4-0-0-0-0-0-0-0-0-7-7-7-7-7-7-7-7-2-2-2-2-2-2-2-2-|
G#|-4-4-4-4-4-4-4-4-0-0-0-0-0-0-0-0-7-7-7-7-7-7-7-7-2-2-2-2-2-2-2-2-|
C#|-4-4-4-4-4-4-4-4-0-0-0-0-0-0-0-0-7-7-7-7-7-7-7-7-2-2-2-2-2-2-2-2-|

d#|-----------------------------------------------------------------------|
A#|-----------------------------------------------------------------------|
F#|--------------------------------------------------------------6/7\6----|
C#|-9---9---9---9---4---4---7---7---9---9---9---9---4---4---2----x/x\x----|
G#|-9-9-9---9-9-9---4-4-4---7-7-7---9-9-9---9-9-9---4-4-4---2----4/5\4----|
C#|-9-9-9---9-9-9---4-4-4---7-7-7---9-9-9---9-9-9---4-4-4---2-------------|

d#|----------------------------------------------------|
A#|----------------------------------------------------|
F#|---6-6/7/9-----------------6--6-7-9-----------------|
C#|-4-x-x-x-x--4--7-9--9----4-x--x-x-x--4--9--2--2--4--|
G#|-4-4-4/5/7--4--7-9--9----4-4--4/5/7--4--9--2--2--4--|(let ring)
C#|-4----------4--7-9--9----4-----------4--9--2—-2--4--|













Verse

d#|----------------------------------------------------------------------|
A#|----------------------------------------------------------------------|
F#|----------------------------------------------------------------------|
C#|-0-0-0-0-0-0-0-0-2-2-2-2-2-2-2-2-4----0-0-0-0-0-0-0-0-2-2-2-2-2-2-2-2-|
G#|-0-0-0-0-0-0-0-0-2-2-2-2-2-2-2-2-4----0-0-0-0-0-0-0-0-2-2-2-2-2-2-2-2-|
C#|-0-0-0-0-0-0-0-0-2-2-2-2-2-2-2-2-4----0-0-0-0-0-0-0-0-2-2-2-2-2-2-2-2-|

d#|-----------------------------------------------------------------|
A#|-----------------------------------------------------------------|
F#|-----------------------------------------------------------------|
C#|-----------------------------------------------------------------|
G#|-----------------------------------------------------------------|
C#|-4-4-4-4-4-4-4-4-7-7-7-7-7-7-7-7-2-2-2-2-2-2-2-2-0-0-0-0-0-0-0-0-|
    * * * * * * * * * * * * * * * * * * * * * * * * * * * * * * * * 


(at the end the 077 bit, as soon as you play it stop it so it doesn’t ring)
d#|---------------------------------------------------|
A#|---------------------------------------------------|
F#|---------------------------------------------------|
C#|-------------------------------------------------7-|
G#|-------------------------------------------------7-|
C#|-4-4-4-4-4-4-4-4-7-7-7-7-7-7-7-7-2-2-2-2-2-2-2-2-0-|
    * * * * * * * * * * * * * * * * * * * * * * * *  

Chorus

d#|-----------------------------------------------------------------|
A#|-----------------------------------------------------------------|
F#|-----------------------------------------------------------------|
C#|-4-4-4-4-4-4-4-4-0-0-0-0-0-0-0-0-7-7-7-7-7-7-7-7-9-9-9-9-9-9-9-9-|
G#|-4-4-4-4-4-4-4-4-0-0-0-0-0-0-0-0-7-7-7-7-7-7-7-7-9-9-9-9-9-9-9-9-|
C#|-4-4-4-4-4-4-4-4-0-0-0-0-0-0-0-0-7-7-7-7-7-7-7-7-9-9-9-9-9-9-9-9-|

d#|-----------------------------------------------------------------|
A#|-----------------------------------------------------------------|
F#|-----------------------------------------------------------------|
C#|-4-4-4-4-4-4-4-4-0-0-0-0-0-0-0-0-7-7-7-7-7-7-7-7-2-2-2-2-2-2-2-2-|
G#|-4-4-4-4-4-4-4-4-0-0-0-0-0-0-0-0-7-7-7-7-7-7-7-7-2-2-2-2-2-2-2-2-|
C#|-4-4-4-4-4-4-4-4-0-0-0-0-0-0-0-0-7-7-7-7-7-7-7-7-2-2-2-2-2-2-2-2-|

d#|------------------------------------------------------------------|
A#|------------------------------------------------------------------|
F#|------------------------------------------------------------------|
C#|-9---9---9---9---4---4---7---7---9---9---9---9---4---4---2--------|
G#|-9-9-9---9-9-9---4-4-4---7-7-7---9-9-9---9-9-9---4-4-4---2--------|
C#|-9-9-9---9-9-9---4-4-4---7-7-7---9-9-9---9-9-9---4-4-4---2--------|












Solo/Bridge

d#|-----------------------------------------------------------------------|
A#|-----------------------------------------------------------------------|
F#|-----------------------------------------------------------------------|
C#|-4-4-4---0-0-0---7-7-7---2-2-2---9-9-9---0-0-0---7-7-7---2-2-2---------|
G#|-4-4-4---0-0-0---7-7-7---2-2-2---9-9-9---0-0-0---7-7-7---2-2-2---------|
C#|-4-4-4---0-0-0---7-7-7---2-2-2---9-9-9---0-0-0---7-7-7---2-2-2---------|

d#|------------------------------------|
A#|------------------------------------|
F#|------------------------------------|
C#|-9--9---0--0--0---7--7--7---2--2--2-|
G#|-9--9---0--0--0---7--7--7---2--2--2-|
C#|-9--9---0--0--0---7--7--7---2--2--2-|

d#|------------------------------------|
A#|------------------------------------|
F#|------------------------------------|
C#|-9--9---0-0-0-0---7--7--7---2--2--2-|
G#|-9--9---0-0-0-0---7--7--7---2--2--2-|
C#|-9--9---0-0-0-0---7--7--7---2--2--2-|

d#|-----------------------------------------------------------------|
A#|-----------------------------------------------------------------|
F#|-----------------------------------------------------------------|
C#|-----------------------------------------------------------------|
G#|-----------------------------------------------------------------|
C#|-4-4-4-4-4-4-4-4-7-7-7-9-9-9-9-9-4-4-4-4-4-4-4-4-7-7-7-6-6-6-6-6-|
    * * * * * * * * * * * * * * * * * * * * * * * * * * * * * * * *
d#|---------------------------------------------------------|
A#|---------------------------------------------------------|
F#|---------------------------------------------------------|
C#|---------------------------------------------------------|
G#|---------------------------------------------------------|
C#|-4-4-4-4-4-4-4-4-7-7-7-9-9-9-9-9-4-4-4-4-4-4-4-4-7-7-7-6-|
    * * * * * * * * * * * * * * * * * * * * * * * * * * * * 
(Clean)
d#|-------------------|
A#|-7---3---10--5-----|
F#|-6---2---9---4-----|
C#|-4---0---7---2-----|
G#|-4---0---7---2-----|
C#|-------------------|















Final Chorus

d#|-----------------------------------------------------------------|
A#|-----------------------------------------------------------------|
F#|-----------------------------------------------------------------|
C#|-4-4-4-4-4-4-4-4-0-0-0-0-0-0-0-0-7-7-7-7-7-7-7-7-9-9-9-9-9-9-9-9-|
G#|-4-4-4-4-4-4-4-4-0-0-0-0-0-0-0-0-7-7-7-7-7-7-7-7-9-9-9-9-9-9-9-9-|\
C#|-4-4-4-4-4-4-4-4-0-0-0-0-0-0-0-0-7-7-7-7-7-7-7-7-9-9-9-9-9-9-9-9-| \
                                                                      (x2)
d#|-----------------------------------------------------------------| /
A#|-----------------------------------------------------------------|/
F#|-----------------------------------------------------------------|
C#|-4-4-4-4-4-4-4-4-0-0-0-0-0-0-0-0-7-7-7-7-7-7-7-7-2-2-2-2-2-2-2-2-|
G#|-4-4-4-4-4-4-4-4-0-0-0-0-0-0-0-0-7-7-7-7-7-7-7-7-2-2-2-2-2-2-2-2-|
C#|-4-4-4-4-4-4-4-4-0-0-0-0-0-0-0-0-7-7-7-7-7-7-7-7-2-2-2-2-2-2-2-2-|

d#|-----------------------------------------------------------------------|
A#|-----------------------------------------------------------------------|
F#|--------------------------------------------------------------6/7\6----|
C#|-9---9---9---9---4---4---7---7---9---9---9---9---4---4---2----x/x\x----|
G#|-9-9-9---9-9-9---4-4-4---7-7-7---9-9-9---9-9-9---4-4-4---2----4/5\4----|
C#|-9-9-9---9-9-9---4-4-4---7-7-7---9-9-9---9-9-9---4-4-4---2-------------|



d#|----------------------------------------------------|
A#|----------------------------------------------------|
F#|---6-6/7/9-----------------6--6-7-9-----------------|
C#|-4-x-x-x-x--4--7-9--9----4-x--x-x-x--4--9--2--2--4--|
G#|-4-4-4/5/7--4--7-9--9----4-4--4/5/7--4--9--2--2--4--|(hold)
C#|-4----------4--7-9--9----4-----------4--9--2—-2--4--|
comments
print report bad tab
2 comments total.
0 reply
guitar-girl21 wrote on April 25 2011, 08:05 pm

pretty much perfect, I find it easier to play the intro like this though:

e-----------------------------------17-
b-----------------------14-15-14-17----
g13-14-13-14---------------------------
d------------11/12-14------------------

e-------------------------------------
b-------------------------------------
g13-14-13-14--------------------------
d------------11/12-14--14-14-14-12-11~

that's just personal preference though, thanks so much for posting this!

0 reply
guitar-girl21 wrote on April 25 2011, 08:07 pm

oops, the last section is supposed to be played like this:

e-------------------------------------
b-------------------------------------
g13-14-13-14--------------------------
d-----------11/12-14------------------
a----------------------14-14-14-12-11~

sorry (=

I want to post or [tab]
guest
You may want to rate the tab now too:
select rating
Please do not post tabs as comments. Select "correction" instead!