Oops, an error
Loading. Please wait.

Conspiracy Tab

ver1
ver1

Whole song

Interactive

More versions @911Tabs.com
35,808 views 48 this week
6 commentsread comments
1 2 3 4 5
accurate
x 11
Autoscroll
+/-
esc
set tempo
stop
Contributor
Difficulty
novice
Hey! There's an official Ultimate Guitar app which is ideal
for learning songs when you're away from computer. Get the app
WARNING: You are trying to view
                                    content from Ultimate-Guitar.com
                                    in an unauthorized application,
                                    which is prohibited.

                                    Please use an official Ultimate
                                    Guitar Tabs application for iPhone,
                                    iPad or Android to access legitimate
                                    chords, guitar, bass, and drum tabs
                                    from Ultimate-Guitar.com database.

                                    Type "ultimate guitar tabs" in Apple
                                    App Store's or Android Market's
                                    search to find the application.
---------------------------------------------------------------------------
                             CONSPIRACY - PARAMORE                         
----------------------------------------------------------------------------
Tabbed by: MNBZ
Email: who_lies@hotmail.com

Guitar 1
--------

Intro   0:07
(CLEAN)
e|-151515121212-------------------|-------------|
b|-------------101010101010h11p10-|-11-10-------|
g|--------------------------------|-------10~---|
d|--------------------------------|-------------|
a|--------------------------------|-------------|
d|--------------------------------|-------------|

(DISTORTION)  0:13
e|------------------------10101010-------------------------------------------|
b|--------1010101010101010-8-8-8-8101010-10/13\555555555-5~------------------|
g|--------101010101010101010101010101010-10/12\555555555-5~-141414\99-9/10\5-|
d|-XXX(5)--8-8-8-8-8-8-8-8-8-8-8-8-8-8-8--8/10\333333333-0~--x-x-x-xx-x--x-x-|
a|-XXX(5)--8-8-8-8-8-8-8-8-8-8-8-8-8-8-8--8/10\333333333-0~-121212\77-7/-8\3-|
d|-XXX(5)--8-8-8-8-8-8-8-8-8-8-8-8-8-8-8--8/10\333333333-0~------------------|
                                                       .
Verse 1   0:40
(CLEAN)
e|-12-------12-------12-------12-------12-|-13-------13-------13-------13-------13-|
b|----13-------13-------13-------13-------|----13-------13-------13-------13-------|
g|-------10-------10-------10-------10----|-------10-------10-------10-------10----|
d|----------------------------------------|----------------------------------------|
a|----------------------------------------|----------------------------------------|
d|----------------------------------------|----------------------------------------|

e|-15-------15-------15-------15-------12-|-17-------17-------17-------17-------17-|
b|----13-------13-------13-------13-------|----15-------15-------15-------15-------|
g|-------10-------10-------10-------10----|-------14-------14-------14-------14----|
d|----------------------------------------|----------------------------------------|
a|----------------------------------------|----------------------------------------|
d|----------------------------------------|----------------------------------------|

Chorus 1    0:54
(DISTORTION)
e|-----------------10101010-------------------------------------------|
b|-1010101010101010-8-8-8-8101010-10/13\555555555-5~------------------|
g|-101010101010101010101010101010-10/12\555555555-5~-141414\99-9/10\5-|
d|--8-8-8-8-8-8-8-8-8-8-8-8-8-8-8--8/10\333333333-0~--x-x-x-xx-x--x-x-|
a|--8-8-8-8-8-8-8-8-8-8-8-8-8-8-8--8/10\333333333-0~-121212\77-7/-8\3-|
d|--8-8-8-8-8-8-8-8-8-8-8-8-8-8-8--8/10\333333333-0~------------------|
                                                .

e|-----------------10101010--------------------------------------------|
b|-1010101010101010-8-8-8-8101010-10/13\555555555-5~-------------------|
g|-101010101010101010101010101010-10/12\555555555-5~-141414\99-9/10\13-|
d|--8-8-8-8-8-8-8-8-8-8-8-8-8-8-8--8/10\333333333-0~--x-x-x-xx-x--x-x--|
a|--8-8-8-8-8-8-8-8-8-8-8-8-8-8-8--8/10\333333333-0~-121212\77-7/-8\11-|
d|--8-8-8-8-8-8-8-8-8-8-8-8-8-8-8--8/10\333333333-0~-------------------|
                                                .

Verse 2    1:20
(CLEAN)                                                                         x2
e|-12-------12-------12-------12-------12-|-13-------13-------13-------13-------13-|
b|----13-------13-------13-------13-------|----13-------13-------13-------13-------|
g|-------10-------10-------10-------10----|-------10-------10-------10-------10----|
d|----------------------------------------|----------------------------------------|
a|----------------------------------------|----------------------------------------|
d|----------------------------------------|----------------------------------------|

e|-15-------15-------15-------15-------12-|-17-------17-------17-------17-------17-|
b|----13-------13-------13-------13-------|----15-------15-------15-------15-------|
g|-------10-------10-------10-------10----|-------14-------14-------14-------14----|
d|----------------------------------------|----------------------------------------|
a|----------------------------------------|----------------------------------------|
d|----------------------------------------|----------------------------------------|


Guitar 3     1:33
(DISTORTION)
e|---------------------------------------------------|
b|---------------------------------------------------|
g|-10101010-5-/10101010-5-/--12121212/12/14-14-15-14-|
d|--x-x-x-x-x—--x-x-x-x-x-----x-x-x-x-—x—-x—-x—-x--x-|
a|--8-8-8-8\3-/-8-8-8-8\3-/--10101010-10/12-12-13-12-|
d|---------------------------------------------------|

e|---------------------------------------------------|
b|---------------------------------------------------|
g|-10101010-5-/10101010-5-/--12121212/12/14-15-14-12-|
d|--x-x-x-x-x—--x-x-x-x-x-----x-x-x-x-—x—-x—-x—-x--x-|
a|--8-8-8-8\3-/-8-8-8-8\3-/--10101010-10/12-13-12-10-|
d|---------------------------------------------------|

NOTE ABOUT 2ND VERSE: IN RECORDING BOTH 2ND GUITAR ‘VERSE’ AND ‘3RD GUITAR’ IS PLAYED TOGETHER.
                      BUT IN LIVE ONLY 3RD GUITAR IS PLAYED. 2ND GUITAR ‘VERSE’ IS NOT PLAYED.  

Chorus 2      1:46
(DISTORTION)
e|-----------------10101010-------------------------------------------|
b|-1010101010101010-8-8-8-8101010-10/13\555555555-5~------------------|
g|-101010101010101010101010101010-10/12\555555555-5~-141414\99-9/10\5-|
d|--8-8-8-8-8-8-8-8-8-8-8-8-8-8-8--8/10\333333333-0~--x-x-x-xx-x--x-x-|
a|--8-8-8-8-8-8-8-8-8-8-8-8-8-8-8--8/10\333333333-0~-121212\77-7/-8\3-|
d|--8-8-8-8-8-8-8-8-8-8-8-8-8-8-8--8/10\333333333-0~------------------|
                                                .

e|-----------------10101010--------------------------------------------|
b|-1010101010101010-8-8-8-8101010-10/13\555555555-5~-------------------|
g|-101010101010101010101010101010-10/12\555555555-5~-141414\99-9/10\9--|
d|--8-8-8-8-8-8-8-8-8-8-8-8-8-8-8--8/10\333333333-0~--x-x-x-xx-x--x-x--|
a|--8-8-8-8-8-8-8-8-8-8-8-8-8-8-8--8/10\333333333-0~-121212\77-7/-8\7--|
d|--8-8-8-8-8-8-8-8-8-8-8-8-8-8-8--8/10\333333333-0~-------------------|
                                                .
Interlude      2:26
(DISTORTION)
e|-151515--------------------------151515---------------------------|
b|-------171717--------------------------171717---------------------|
g|-------------141414141414h15p1414------------141414141414h15p1414-|
d|------------------------------------------------------------------|
a|------------------------------------------------------------------|
d|------------------------------------------------------------------|

e|-151515------------151515------------171717------------171717-------------|
b|-------171717------------171717------------151515------------151515-------|
g|-------------141414------------141414------------141414------------141414-|
d|--------------------------------------------------------------------------|
a|--------------------------------------------------------------------------|
d|--------------------------------------------------------------------------|

e|-151515------------151515------------151515------------151515-------------|
b|-------171717------------171717------------171717------------171717-------|
g|-------------141414------------141414------------141414------------141414-|
d|--------------------------------------------------------------------------|
a|--------------------------------------------------------------------------|
d|--------------------------------------------------------------------------|


e|-151515------------151515--------------|-17------------|
b|-------171717------------171717--------|----15-----15\-|
g|-------------141414------------141414--|-------14~-14\-|
d|---------------------------------------|---------------|
a|---------------------------------------|---------------|
d|---------------------------------------|---------------|

Chorus 3     2:53
(DISTORTION)
e|-----------------10101010-------------------------------------------|
b|-1010101010101010-8-8-8-8101010-10/13\555555555-5~------------------|
g|-101010101010101010101010101010-10/12\555555555-5~-141414\99-9/10\5-|
d|--8-8-8-8-8-8-8-8-8-8-8-8-8-8-8--8/10\333333333-0~--x-x-x-xx-x--x-x-|
a|--8-8-8-8-8-8-8-8-8-8-8-8-8-8-8--8/10\333333333-0~-121212\77-7/-8\3-|
d|--8-8-8-8-8-8-8-8-8-8-8-8-8-8-8--8/10\333333333-0~------------------|
                                                .

e|-----------------10101010------------------------------------|
b|-1010101010101010-8-8-8-8101010-10/13\555555555-5~-----------|
g|-101010101010101010101010101010-10/12\555555555-5~-141414\99-|
d|--8-8-8-8-8-8-8-8-8-8-8-8-8-8-8--8/10\333333333-0~--x-x-x-xx-|
a|--8-8-8-8-8-8-8-8-8-8-8-8-8-8-8--8/10\333333333-0~-121212\77-|
d|--8-8-8-8-8-8-8-8-8-8-8-8-8-8-8--8/10\333333333-0~-----------|
                                                .

Outro    3:26
(CLEAN)
e|-151515121212-------------------|-------------|
b|-------------101010101010h11p10-|-11-10-------|
g|--------------------------------|-------10~---|
d|--------------------------------|-------------|
a|--------------------------------|-------------|
d|--------------------------------|-------------|


Guitar 2
--------
Intro    0:01
(CLEAN)
e|------8-------8----------------|------0-------0----------------|
b|--------10------10----10----10-|--------10------10----10----10-|
g|---10------10------10----10----|---10------10------10----10----|
d|-8-----------------------------|-0-----------------------------|
a|-------------------------------|-------------------------------|
d|-------------------------------|-------------------------------|

------8-------8----------------|--------8~---|
--------10------10----10----10-|-11-10-10~---|
---10------10------10----10----|-------10~---|
-8-----------------------------|-------10~---|
-------------------------------|--------8~---|
-------------------------------|-------------|

(DISTORTION)  0:14
e|-----------------10101010--------------------------------|
b|-1010101010101010-8-8-8-8101010-10/13\555555555-55555555-|
g|-101010101010101010101010101010-10/12\555555555-55555555-|
d|--8-8-8-8-8-8-8-8-8-8-8-8-8-8-8--8/10\333333333-00000000-|
a|--8-8-8-8-8-8-8-8-8-8-8-8-8-8-8--8/10\333333333-00000000-|
d|--8-8-8-8-8-8-8-8-8-8-8-8-8-8-8--8/10\333333333-00000000-|
                                                .
Verse 1    0:27
(DISTORTION)
e|------------------------------------------------------------|
b|-1010101010--101010101010--101010101010--101010101010101010-|
g|-1010101010--101010101010--101010101010--101010101010101010-|
d|--8-8-8-8-8---8-8-8-8-8-8---8-0-0-0-0-0---0-0-0-0-0-0-0-0-0-|
a|--8-8-8-8-8---8-8-8-8-8-8---8-0-0-0-0-0---0-0-0-0-0-0-0-0-0-|
d|--8-8-8-8-8---8-8-8-8-8-8---8-0-0-0-0-0---0-0-0-0-0-0-0-0-0-|
    . . . .       . . . .       . . . .       . . . .

e|------------------------------------------------------------|
b|-1010101010--101010101010--101010101010--101010101010101010-|
g|-1010101010--101010101010--101010101010--101010101010101010-|
d|--8-8-8-8-8---8-8-8-8-8-8---8-0-0-0-0-0---0-0-0-0-0-0-0-0-0-|
a|--8-8-8-8-8---8-8-8-8-8-8---8-0-0-0-0-0---0-0-0-0-0-0-0-0-0-|
d|--8-8-8-8-8---8-8-8-8-8-8---8-0-0-0-0-0---0-0-0-0-0-0-0-0-0-|
    . . . .       . . . .       . . . .       . . . . . . . . 

Chorus 1     0:54
(DISTORTION)                                                x2
e|-----------------10101010--------------------------------|
b|-1010101010101010-8-8-8-8101010-10/13\555555555-55555555-|
g|-101010101010101010101010101010-10/12\555555555-55555555-|
d|--8-8-8-8-8-8-8-8-8-8-8-8-8-8-8--8/10\333333333-00000000-|
a|--8-8-8-8-8-8-8-8-8-8-8-8-8-8-8--8/10\333333333-00000000-|
d|--8-8-8-8-8-8-8-8-8-8-8-8-8-8-8--8/10\333333333-00000000-|
                                                .

Verse 2      1:20
(DISTORTION)
e|-------------------------------------------------------------
b|-1010101010--101010101010--101010101010--101010101010101010--
g|-1010101010--101010101010--101010101010--101010101010101010--
d|--8-8-8-8-8---8-8-8-8-8-8---8-0-0-0-0-0---0-0-0-0-0-0-0-0-0--
a|--8-8-8-8-8---8-8-8-8-8-8---8-0-0-0-0-0---0-0-0-0-0-0-0-0-0--
d|--8-8-8-8-8---8-8-8-8-8-8---8-0-0-0-0-0---0-0-0-0-0-0-0-0-0--
    . . . .       . . . .       . . . .       . . . .

------------------------------------------------------------|
-1010101010--101010101010--101010101010--101010101010101010-|
-1010101010--101010101010--101010101010--101010101010101010-|
--8-8-8-8-8---8-8-8-8-8-8---8-0-0-0-0-0---0-0-0-0-0-0-0-0-0-|
--8-8-8-8-8---8-8-8-8-8-8---8-0-0-0-0-0---0-0-0-0-0-0-0-0-0-|
--8-8-8-8-8---8-8-8-8-8-8---8-0-0-0-0-0---0-0-0-0-0-0-0-0-0-|
  . . . .       . . . .       . . . .       . . . . . . . . 

Chorus 2      1:46
(DISTORTION)                                                x2
e|-----------------10101010--------------------------------|
b|-1010101010101010-8-8-8-8101010-10/13\555555555-55555555-|
g|-101010101010101010101010101010-10/12\555555555-55555555-|
d|--8-8-8-8-8-8-8-8-8-8-8-8-8-8-8--8/10\333333333-00000000-|
a|--8-8-8-8-8-8-8-8-8-8-8-8-8-8-8--8/10\333333333-00000000-|
d|--8-8-8-8-8-8-8-8-8-8-8-8-8-8-8--8/10\333333333-00000000-|
                                                .
Interlude     2:13
(CLEAN)
e|------------------------------8-8-8-8-8-8-8-8-8-8---------
b|-----------------1010101010101010101010101010101010101010-
g|-77777777777777771010101010101010101010101010101010101010-
d|-5555555555555555-8-8-8-8-8-8-8-8-8-8-8-8-8-8-8-8-0-0-0-0-
a|-5555555555555555-8-8-8-8-8-8-8-8-8-8-8-8-8-8-8-8-0-0-0-0-
d|-5555555555555555-8-8-8-8-8-8-8-8-8-8-8-8-8-8-8-8-0-0-0-0-

--8-8-8-8-8-8-8-8-------------------------8-8-8-8-8-8-8-8-
-10101010101010101010101010101010101010101010101010101010-
-10101010101010101010101010101010101010101010101010101010-
--0-0-0-0-0-0-0-0-0-0-0-0-8-8-8-8-8-8-8-8-8-8-8-8-8-8-8-8-
--0-0-0-0-0-0-0-0-0-0-0-0-8-8-8-8-8-8-8-8-8-8-8-8-8-8-8-8-
--0-0-0-0-0-0-0-0-0-0-0-0-8-8-8-8-8-8-8-8-8-8-8-8-8-8-8-8-

(DISTORTION)    2:26   
-------------------------------------------------------------------
-------------------------------------------------------------------
-------------------------------------------------------------------
-5555555555555555888888888888888800000000000000008888888888888888--
-5555555555555555888888888888888800000000000000008888888888888888--
-5555555555555555888888888888888800000000000000008888888888888888--
 ................................................................

-------------------------------------------------10~-1010~-\--|
-------------------------------------------------10~-1010~-\--|
-------------------------------------------------10~-1010~-\--|
-555555555555555588888888888888880000000000000000-8~--8-8~-\--|
-555555555555555588888888888888880000000000000000-8~--8-8~-\--|
-555555555555555588888888888888880000000000000000-8~--8-8~-\--|
 ................................................     .

Chorus 3       2:53
(DISTORTION)                                           
e|-----------------10101010--------------------------------
b|-1010101010101010-8-8-8-8101010-10/13\555555555-55555555-
g|-101010101010101010101010101010-10/12\555555555-55555555-
d|--8-8-8-8-8-8-8-8-8-8-8-8-8-8-8--8/10\333333333-00000000-
a|--8-8-8-8-8-8-8-8-8-8-8-8-8-8-8--8/10\333333333-00000000-
d|--8-8-8-8-8-8-8-8-8-8-8-8-8-8-8--8/10\333333333-00000000-
                                                .
-----------------10101010--------------------------------|
-1010101010101010-8-8-8-8101010-10/13\555555555----------|
-101010101010101010101010101010-10/12\555555555----------|
--8-8-8-8-8-8-8-8-8-8-8-8-8-8-8--8/10\333333333-00-------|
--8-8-8-8-8-8-8-8-8-8-8-8-8-8-8--8/10\333333333-00-------|
--8-8-8-8-8-8-8-8-8-8-8-8-8-8-8--8/10\333333333-00-------|
                                              . ..
Outro     3:20
(CLEAN)
e|------8-------8----------------|------0-------0----------------|
b|--------10------10----10----10-|--------10------10----10----10-|
g|---10------10------10----10----|---10------10------10----10----|
d|-8-----------------------------|-0-----------------------------|
a|-------------------------------|-------------------------------|
d|-------------------------------|-------------------------------|

------8-------8----------------|--------8~---|
--------10------10----10----10-|-11-10-10~---|
---10------10------10----10----|-------10~---|
-8-----------------------------|-------10~---|
-------------------------------|--------8~---|
-------------------------------|-------------|
| /  slide up
| \  slide down
| h  hammer-on
| p  pull-off
| ~  let it ring
| .  Mute note
| X  scratchy sound
============================================================================
comments
print report bad tab
6 comments total. Showing first comments.
0 reply
Profesorhawk wrote on November 9 2006, 04:22 am

good job!

0 reply
cmoltedo wrote on November 29 2006, 10:50 pm

Whats the second chord of the background part on the verses. is it
12-12-12-10-10-10(

0 reply
lackofcolor wrote on July 7 2007, 10:12 pm

very nice.

I want to post or [tab]
guest
You may want to rate the tab now too:
select rating
Please do not post tabs as comments. Select "correction" instead!