Oops, an error
Loading. Please wait.

Decode Tab

ver3
ver3
More versions @911Tabs.com
35,505 views 6 this week
2 commentsread comments
1 2 3 4 5
worth learning
x 9
Autoscroll
+/-
esc
set tempo
stop
Contributor
Hey! There's an official Ultimate Guitar app which is ideal
for learning songs when you're away from computer. Get the app
WARNING: You are trying to view
                                    content from Ultimate-Guitar.com
                                    in an unauthorized application,
                                    which is prohibited.

                                    Please use an official Ultimate
                                    Guitar Tabs application for iPhone,
                                    iPad or Android to access legitimate
                                    chords, guitar, bass, and drum tabs
                                    from Ultimate-Guitar.com database.

                                    Type "ultimate guitar tabs" in Apple
                                    App Store's or Android Market's
                                    search to find the application.
Paramore
Decode
Drop D Half Step

(I know that Paramore plays most, if not all, their songs in Drop D Half step so thats 
my tabs like so. This was a pretty easy song to tab out so here it is set up so even a 
guitarist/band could play it.)

-Intro-
 Gtr.1 (clean)
|-------------------------1010----------------------------1010-----|
|-1212----1212----1212--------12--1212----1212----1212--------12---|
|-----1111----1111----1111------11----1111----1111----1111------11-|
|------------------------------------------------------------------|
|------------------------------------------------------------------|
|------------------------------------------------------------------|
|Gtr.2 (clean)                                                     |
|------------------------------------------------------------------|
|------------------------------------------------------------------|
|------------------------------------------------------------------|
|-0-0-0-0-0-0-0-0-0-0-0-0-0-0-0-0-0-0-0-0-0-0-0-0-0-0-0-0-0-0-0-0--|
|------------------------------------------------------------------|
|------------------------------------------------------------------|

|-------------------------1414------------------------12~-|
|-1212----1212----1212--------12--1212----1212----1212----|
|-----1414----1414----1414------14----1414----1414--------|
|---------------------------------------------------------|
|---------------------------------------------------------|
|---------------------------------------------------------|
|                                                         |
|---------------------------------------------------------|
|---------------------------------------------------------|
|---------------------------------------------------------|
|-0-0-0-0-0-0-0-0-0-0-0-0-0-0-0-0-0-0-0-0-0-0-0-0-0-0-0~--|
|---------------------------------------------------------|
|---------------------------------------------------------|

-Verse 1-
 Gtr.1 (clean)
|-------------------------1010----------------------------1010-----|
|-1212----1212----1212--------12--1212----1212----1212--------12---|
|-----1111----1111----1111------11----1111----1111----1111------11-|
|------------------------------------------------------------------|
|------------------------------------------------------------------|
|------------------------------------------------------------------|
|Gtr.2 (w/dist.)                                                   |
|------------------------------------------------------------------|
|------------------------------------------------------------------|
|------------------------------------------------------------------|
|------------------------------------------------------------------|
|-9-9-9-9-9-9-9-9-9-9-9-9-9-9-9-9-4-4-4-4-4-4-4-4-4-4-4-4-4-4-4-4--|
|-9-9-9-9-9-9-9-9-9-9-9-9-9-9-9-9-4-4-4-4-4-4-4-4-4-4-4-4-4-4-4-4--|
  * * * * * * * * * * * * * * * * * * * * * * * * * * * * * * * *

|-------------------------1414------------------------12~----------|
|-1212----1212----1212--------12--1212----1212----1212-------------|
|-----1414----1414----1414------14----1414----1414-----------------|
|------------------------------------------------------------------|
|------------------------------------------------------------------|
|------------------------------------------------------------------|
|                                                                  |
|------------------------------------------------------------------|
|------------------------------------------------------------------|
|------------------------------------------------------------------|
|------------------------------------------------------------------|
|-9-9-9-9-9-9-9-9-9-9-9-9-9-9-9-9-4-4-4-4-4-4-4-4-4-4-4-4-4-4-4-4--|
|-9-9-9-9-9-9-9-9-9-9-9-9-9-9-9-9-4-4-4-4-4-4-4-4-4-4-4-4-4-4-4-4--|
  * * * * * * * * * * * * * * * * * * * * * * * * * * * * * * * *

|-------------------------1010----------------------------1010-----|
|-1212----1212----1212--------12--1212----1212----1212--------12---|
|-----1111----1111----1111------11----1111----1111----1111------11-|
|------------------------------------------------------------------|
|------------------------------------------------------------------|
|------------------------------------------------------------------|
|                                                                  |
|------------------------------------------------------------------|
|------------------------------------------------------------------|
|------------------------------------------------------------------|
|------------------------------------------------------------------|
|-5-5-5-5-5-5-5-5-5-5-5-5-5-5-5-5-2-2-2-2-2-2-2-2-2-2-2-2-2-2-2-2--|
|-5-5-5-5-5-5-5-5-5-5-5-5-5-5-5-5-2-2-2-2-2-2-2-2-2-2-2-2-2-2-2-2--|
  * * * * * * * * * * * * * * * * * * * * * * * * * * * * * * * *

|-------------------------1414------------------------12~----------|
|-1212----1212----1212--------12--1212----1212----1212-------------|
|-----1414----1414----1414------14----1414----1414-----------------|
|------------------------------------------------------------------|
|------------------------------------------------------------------|
|------------------------------------------------------------------|
|                                                                  |
|------------------------------------------------------------------|
|------------------------------------------------------------------|
|------------------------------------------------------------------|
|------------------------------------------------------------------|
|-9-9-9-9-9-9-9-9-9-9-9-9-9-9-9-9-4-4-4-4-4-4-4-4-4-4-4-4-4-4-4-4--|
|-9-9-9-9-9-9-9-9-9-9-9-9-9-9-9-9-4-4-4-4-4-4-4-4-4-4-4-4-4-4-4-4--|
  * * * * * * * * * * * * * * * * * * * * * * * * * * * * * * * *

-Pre-Chorus-
 Gtr.1 (clean)
|-------------------------1010----------------------------1010-----|
|-1212----1212----1212--------12--1212----1212----1212--------12---|
|-----1111----1111----1111------11----1111----1111----1111------11-|
|------------------------------------------------------------------|
|------------------------------------------------------------------|
|------------------------------------------------------------------|
|Gtr.2 (w/dist.)                                                   |
|------------------------------------------------------------------|
|------------------------------------------------------------------|
|-7~------------------------------4~-------------------------------|
|-5~------------------------------2~-------------------------------|
|-5~------------------------------2~-------------------------------|
|-5~------------------------------2~-------------------------------|

|-------------------------1414----12121212121212121212121212121212-|
|-1212----1212----1212--------12--12121212121212121212121212121212-|
|-----1414----1414----1414------1414141414141414141414141414141414-|
|------------------------------------------------------------------|
|------------------------------------------------------------------|
|------------------------------------------------------------------|
|                                                                  |
|------------------------------------------------------------------|
|------------------------------------------------------------------|
|-11~-----------------------------6-6-6-6-6-6-6-6-6-6-6-6-6-6-6-6--|
|-9~------------------------------4-4-4-4-4-4-4-4-4-4-4-4-4-4-4-4--|
|-9~------------------------------4-4-4-4-4-4-4-4-4-4-4-4-4-4-4-4--|
|-9~------------------------------4-4-4-4-4-4-4-4-4-4-4-4-4-4-4-4--|

-Chorus-
 Gtr.1 (clean)
|-------------------------10------------------------------9--------|
|-12------12------12----------12--12------12------12----------12---|
|-----11------11------11--------11----11------11------11--------11-|
|------------------------------------------------------------------|
|------------------------------------------------------------------|
|------------------------------------------------------------------|
|                                                                  |
|------------------------------------------------------------------|
|------------------------------------------------------------------|
|------------------------------------------------------------------|
|-5-5-5-5-5-5-5-5-5-5-5-5-5-5-5-5-2-2-2-2-2-2-2-2-2-2-2-2-2-2-2-2--|
|-5-5-5-5-5-5-5-5-5-5-5-5-5-5-5-5-2-2-2-2-2-2-2-2-2-2-2-2-2-2-2-2--|
|-5-5-5-5-5-5-5-5-5-5-5-5-5-5-5-5-2-2-2-2-2-2-2-2-2-2-2-2-2-2-2-2--|

|-------------------------14-------12~-----------------------------|
|-12------12------12----------12-----------------------------------|
|-----14------14------14--------14---------------------------------|
|------------------------------------------------------------------|
|------------------------------------------------------------------|
|------------------------------------------------------------------|
|                                                                  |
|------------------------------------------------------------------|
|------------------------------------------------------------------|
|------------------------------------------------------------------|
|-9-9-9-9-9-9-9-9-9-9-9-9-9-9-9-9-4-4-4-4-4-4-4-4-4-4-4-4-4-4-4-4--|
|-9-9-9-9-9-9-9-9-9-9-9-9-9-9-9-9-4-4-4-4-4-4-4-4-4-4-4-4-4-4-4-4--|
|-9-9-9-9-9-9-9-9-9-9-9-9-9-9-9-9-4-4-4-4-4-4-4-4-4-4-4-4-4-4-4-4--|

-Pre-Verse 2-
 Gtr.1 (w/delay)
|------------------------------14-|
|-12--12--12--12---10--10--10-----|
|---11--11--11--11---11--11--11---|
|---------------------------------|
|---------------------------------|
|---------------------------------|
|Gtr.2 (clean)                    |
|---------------------------------|
|---------------------------------|
|---------------------------------|
|------------------------------9--|
|------------------------------9--|
|-9~---------------7~----------9--|

-Verse 2-

-Pre-Chorus 2-

-Chorus 2-

-Solo-
 Gtr.1 (w/dist.)
|---------------------14-----------------------14---------------------|
|-14h15p141214h15p1412--12-14h15p141214h15p1412--1214h1512121010~355~-|
|---------------------------------------------------------------------|
|---------------------------------------------------------------------|
|---------------------------------------------------------------------|
|---------------------------------------------------------------------|
|Gtr.2 (w/dist.)                                                      |
|---------------------------------------------------------------------|
|---------------------------------------------------------------------|
|---------------------------------------------------------------------|
|-5555555555555555-2222222222222222-9999999999999999-4444444444444444-|
|-5555555555555555-2222222222222222-9999999999999999-4444444444444444-|
|-5555555555555555-2222222222222222-9999999999999999-4444444444444444-|

|---------------------14-----------------------14----------------19------|
|-14h15p141214h15p1412--12-14h15p141214h15p1412--1214~1415~15/-17--1514~-|
|------------------------------------------------------------------------|
|------------------------------------------------------------------------|
|------------------------------------------------------------------------|
|------------------------------------------------------------------------|
|                                                                     |
|---------------------------------------------------------------------|
|---------------------------------------------------------------------|
|---------------------------------------------------------------------|
|-5555555555555555-2222222222222222-9999999999999999-4444444444444444-|
|-5555555555555555-2222222222222222-9999999999999999-4444444444444444-|
|-5555555555555555-2222222222222222-9999999999999999-4444444444444444-|

-Pre-Chorus 3-
 Gtr.1 (clean)
|-10---------------9----------------14---------------12---------------|
|-12---------------12---------------12---------------12---------------|
|-11---------------11---------------14---------------14---------------|
|---------------------------------------------------------------------|
|---------------------------------------------------------------------|
|---------------------------------------------------------------------|
|Gtr.2 (clean)                                                        |
|---------------------------------------------------------------------|
|---------------------------------------------------------------------|
|-7~---------------4~---------------11~--------------6~---------------|
|-5~---------------2~---------------9~---------------4~---------------|
|-5~---------------2~---------------9~---------------4~---------------|
|-5~---------------2~---------------9~---------------4~---------------|

-Chorus 3-

-Outro-
 Gtr.1 (w/dist.)
|----------14-------------|
|-15-14-12----12-15-17----|
|----------------------14-|
|-------------------------|
|-------------------------|
|-------------------------|
|Gtr.2 (w/dist.)          |
|-------------------------|
|-------------------------|
|-------------------------|
|-5--9--2--9--4--5--9--2--|
|-5--9--2--9--4--5--9--2--|
|-5--9--2--9--4--5--9--2--|

|--------------|
|-15-15-15h14~-|
|--------------|
|--------------|
|--------------|
|--------------|
|              |
|--------------|
|--------------|
|--------------|
|-2--2--2~-----|
|-2--2--2~-----|
|-2--2--2~-----|
comments
print report bad tab
2 comments total.
-2 reply
desorvited wrote on December 23 2008, 09:19 pm

2 numbers noo¡¡¡

-1 reply
765 wrote on April 18 2010, 09:35 pm

NO NO NO!!! WRONG!!!!!!

I want to post or [tab]
guest
You may want to rate the tab now too:
select rating
Please do not post tabs as comments. Select "correction" instead!