Oops, an error
Loading. Please wait.

Decode Tab

ver7
ver7
More versions @911Tabs.com
3,401 views 21 this week
no commentswrite comment
1 2 3 4 5
please rate
Autoscroll
+/-
esc
set tempo
stop
Contributor
Difficulty
Tuning
advanced
D A D G B E
NEW! There's an official Ultimate Guitar app which is ideal
for learning songs when you're away from computer. Get the app
WARNING: You are trying to view
                                    content from Ultimate-Guitar.com
                                    in an unauthorized application,
                                    which is prohibited.

                                    Please use an official Ultimate
                                    Guitar Tabs application for iPhone,
                                    iPad or Android to access legitimate
                                    chords, guitar, bass, and drum tabs
                                    from Ultimate-Guitar.com database.

                                    Type "ultimate guitar tabs" in Apple
                                    App Store's or Android Market's
                                    search to find the application.
***LEAD GUITAR***

Intro: Clean *Delay Effect* Rhythm Pickup

e|----------------------9------------------------9--------------------|
B|----11----11----11-----------11----11----11-------------------------|
G|-------10----10----10-----10----10----10----10----------------------|
D|--------------------------------------------------------------------|
A|--------------------------------------------------------------------|
D|--------------------------------------------------------------------|

e|----------------------11-----------------------11-------------------|
B|----13----13----13-----------13----13----13-------------------------|
G|-------12----12----12-----12----12----12----12----------------------|
D|--------------------------------------------------------------------|
A|--------------------------------------------------------------------|
D|--------------------------------------------------------------------|

Verse: Clean *Delay Effect* Rhythm Pickup

e|----------------------9------------------------9--------------------|
B|----11----11----11-----------11----11----11-------------------------|
G|-------10----10----10-----10----10----10----10----------------------|
D|--------------------------------------------------------------------|
A|--------------------------------------------------------------------|
D|--------------------------------------------------------------------|

e|----------------------11-----------------------11-------------------|
B|----13----13----13-----------13----13----13-------------------------|
G|-------12----12----12-----12----12----12----12----------------------|
D|--------------------------------------------------------------------|
A|--------------------------------------------------------------------|
D|--------------------------------------------------------------------|

e|----------------------9------------------------9--------------------|
B|----11----11----11-----------11----11----11-------------------------|
G|-------10----10----10-----10----10----10----10----------------------|
D|--------------------------------------------------------------------|
A|--------------------------------------------------------------------|
D|--------------------------------------------------------------------|

e|----------------------11-----------------------11-------------------|
B|----13----13----13-----------13----13----13-------------------------|
G|-------12----12----12-----12----12----12----12----------------------|
D|--------------------------------------------------------------------|
A|--------------------------------------------------------------------|
D|--------------------------------------------------------------------|

Pre-Chorus: Overdrive *No Effect* Rhythm Pickup

e|----------------7--------------7------------------------------------|
B|----9---9---9-------9---9---9---------------------------------------|
G|------8---8---8---8---8---8---8-------------------------------------|
D|--------------------------------------------------------------------|
A|--------------------------------------------------------------------|
D|--------------------------------------------------------------------|


e|----------------------9-----------------------9---------------------|
B|----11----11----11----------11----11----11--------------------------|
G|-------10----10----10----10----10----10----10-----------------------|
D|--------------------------------------------------------------------|
A|--------------------------------------------------------------------|
D|--------------------------------------------------------------------|

Chorus: Overdrive *No Effect* Treble Pickup

e|------------------7---------------7---------------------------------|
B|----9----9----9-------9---9---9-------------------------------------|
G|------8----8----8---8---8---8---8-----------------------------------|
D|--------------------------------------------------------------------|
A|--------------------------------------------------------------------|
D|--------------------------------------------------------------------|

e|----------------------9-----------------------9---------------------|
B|----10----10----10----------10----10----10--------------------------|
G|-------11----11----11----11----11----11----11-----------------------|
D|--------------------------------------------------------------------|
A|--------------------------------------------------------------------|
D|--------------------------------------------------------------------|

e|------------------7---------------7---------------------------------|
B|----9----9----9-------9---9---9-------------------------------------|
G|------8----8----8---8---8---8---8-----------------------------------|
D|--------------------------------------------------------------------|
A|--------------------------------------------------------------------|
D|--------------------------------------------------------------------|

e|----------------------9-----------------------9---------------------|
B|----10----10----10----------10----10----10--------------------------|
G|-------11----11----11----11----11----11----11-----------------------|
D|--------------------------------------------------------------------|
A|--------------------------------------------------------------------|
D|--------------------------------------------------------------------|

Bridge: Clean *Delay Effect* Rhythm Pickup

e|--------------------------------------------------------------------|
B|----10---10---10---10----7---7---7---7------------------------------|
G|-------9----9----9----9----6---6---6---6----------------------------|
D|--------------------------------------------------------------------|
A|--------------------------------------------------------------------|
D|--------------------------------------------------------------------|

Verse 2: Clean *Delay* Rhythm Pickup
e|----------------------9------------------------9--------------------|
B|----11----11----11-----------11----11----11-------------------------|
G|-------10----10----10-----10----10----10----10----------------------|
D|--------------------------------------------------------------------|
A|--------------------------------------------------------------------|
D|--------------------------------------------------------------------|

e|----------------------11-----------------------11-------------------|
B|----13----13----13-----------13----13----13-------------------------|
G|-------12----12----12-----12----12----12----12----------------------|
D|--------------------------------------------------------------------|
A|--------------------------------------------------------------------|
D|--------------------------------------------------------------------|

e|----------------------9------------------------9--------------------|
B|----11----11----11-----------11----11----11-------------------------|
G|-------10----10----10-----10----10----10----10----------------------|
D|--------------------------------------------------------------------|
A|--------------------------------------------------------------------|
D|--------------------------------------------------------------------|

e|----------------------11-----------------------11-------------------|
B|----13----13----13-----------13----13----13-------------------------|
G|-------12----12----12-----12----12----12----12----------------------|
D|--------------------------------------------------------------------|
A|--------------------------------------------------------------------|
D|--------------------------------------------------------------------|

Pre-Chorus 2: Overdrive *No Effecct* Rhythm Pickup

e|----------------7--------------7------------------------------------|
B|----9---9---9-------9---9---9---------------------------------------|
G|------8---8---8---8---8---8---8-------------------------------------|
D|--------------------------------------------------------------------|
A|--------------------------------------------------------------------|
D|--------------------------------------------------------------------|

e|----------------------9-----------------------9---------------------|
B|----11----11----11----------11----11----11--------------------------|
G|-------10----10----10----10----10----10----10-----------------------|
D|--------------------------------------------------------------------|
A|--------------------------------------------------------------------|
D|--------------------------------------------------------------------|

Chorus 2: Overdrive *No Effects* Treble Pickup

e|------------------7---------------7---------------------------------|
B|----9----9----9-------9---9---9-------------------------------------|
G|------8----8----8---8---8---8---8-----------------------------------|
D|--------------------------------------------------------------------|
A|--------------------------------------------------------------------|
D|--------------------------------------------------------------------|

e|----------------------9-----------------------9---------------------|
B|----10----10----10----------10----10----10--------------------------|
G|-------11----11----11----11----11----11----11-----------------------|
D|--------------------------------------------------------------------|
A|--------------------------------------------------------------------|
D|--------------------------------------------------------------------|

e|------------------7---------------7---------------------------------|
B|----9----9----9-------9---9---9-------------------------------------|
G|------8----8----8---8---8---8---8-----------------------------------|
D|--------------------------------------------------------------------|
A|--------------------------------------------------------------------|
D|--------------------------------------------------------------------|

e|----------------------9-----------------------9---------------------|
B|----10----10----10----------10----10----10--------------------------|
G|-------11----11----11----11----11----11----11-----------------------|
D|--------------------------------------------------------------------|
A|--------------------------------------------------------------------|
D|--------------------------------------------------------------------|

Solo: Overdrive *Octave Effect* Treble Pickup (WHEN NO --- IN IT JUST PULL YOUR FINGER 
DOWN TO THE FRET)

e|----------------------------13-------------------------------13-----|
B|--13h14p13-11--13h14p13-11-----11--13h14p13-11--13h14p13-11-----11--|
G|--------------------------------------------------------------------|
D|--------------------------------------------------------------------|
A|--------------------------------------------------------------------|
D|--------------------------------------------------------------------|

e|--------------------------------------------------------------------|
B|--13h14p13-11---11   9---9------------------------------------------|
G|----------------------------10--11--13------------------------------|
D|--------------------------------------------------------------------|
A|--------------------------------------------------------------------|
D|--------------------------------------------------------------------|

e|----------------------------13-------------------------------13-----|
B|--13h14p13-11--13h14p13-11-----11--13h14p13-11--13h14p13-11-----11--|
G|--------------------------------------------------------------------|
D|--------------------------------------------------------------------|
A|--------------------------------------------------------------------|
D|--------------------------------------------------------------------|

e|--------------------------------------------------------------------|
B|--13--13--14--14--16--18--14   13-----------------------------------|
G|--------------------------------------------------------------------|
D|--------------------------------------------------------------------|
A|--------------------------------------------------------------------|
D|--------------------------------------------------------------------|

Bridge 2: Clean *Octave Effect* Treble Pickup

e|-10--------------------9----------------------13-----------------11-|
B|-11-------------------11----------------------11-----------------11-|
G|-10-------------------10----------------------13------------------8-|
D|--------------------------------------------------------------------|
A|--------------------------------------------------------------------|
D|--------------------------------------------------------------------|

e|-10--------------------9----------------------13-----------------11-|
B|-11-------------------11----------------------11-----------------11-|
G|-10-------------------10----------------------13------------------8-|
D|--------------------------------------------------------------------|
A|--------------------------------------------------------------------|
D|--------------------------------------------------------------------|

Pre-Chorus 3: Overdrive *No Effects* Rhythm Pickup

e|------------------7---------------7---------------------------------|
B|----9----9----9-------9---9---9-------------------------------------|
G|------8----8----8---8---8---8---8-----------------------------------|
D|--------------------------------------------------------------------|
A|--------------------------------------------------------------------|
D|--------------------------------------------------------------------|

e|----------------------11-----------------------11-------------------|
B|----13----13----13-----------13----13----13-------------------------|
G|-------12----12----12-----12----12----12----12----------------------|
D|--------------------------------------------------------------------|
A|--------------------------------------------------------------------|
D|--------------------------------------------------------------------|

Chorus 3: Overdrive *No Effect* Treble Pickup

e|------------------7---------------7---------------------------------|
B|----9----9----9-------9---9---9-------------------------------------|
G|------8----8----8---8---8---8---8-----------------------------------|
D|--------------------------------------------------------------------|
A|--------------------------------------------------------------------|
D|--------------------------------------------------------------------|

e|----------------------11-----------------------11-------------------|
B|----13----13----13-----------13----13----13-------------------------|
G|-------12----12----12-----12----12----12----12----------------------|
D|--------------------------------------------------------------------|
A|--------------------------------------------------------------------|
D|--------------------------------------------------------------------|

e|------------------7---------------7---------------------------------|
B|----9----9----9-------9---9---9-------------------------------------|
G|------8----8----8---8---8---8---8-----------------------------------|
D|--------------------------------------------------------------------|
A|--------------------------------------------------------------------|
D|--------------------------------------------------------------------|

e|----------------------11-----------------------11-------------------|
B|----13----13----13-----------13----13----13-------------------------|
G|-------12----12----12-----12----12----12----12----------------------|
D|--------------------------------------------------------------------|
A|--------------------------------------------------------------------|
D|--------------------------------------------------------------------|

Outro: Overdrive *Octave Effect* Treble Pickup

e|------------13----------------------------13------------------------|
B|-14-13--11----11---14---16-----14-13--11----11---14---16--18--------|
G|---------------------------13~--------------------------------------|
D|--------------------------------------------------------------------|
A|--------------------------------------------------------------------|
D|--------------------------------------------------------------------|

e|------------13----------------------------13------------------------|
B|-14-13--11----11---14---16-----14-13--11----11---14---16--18--------|
G|---------------------------13~--------------------------------------|
D|--------------------------------------------------------------------|
A|--------------------------------------------------------------------|
D|--------------------------------------------------------------------|

e|--------------------------------------------------------------------|
B|-14-14-14~------p13-------------------------------------------------|
G|--------------------------------------------------------------------|
D|--------------------------------------------------------------------|
A|--------------------------------------------------------------------|
D|--------------------------------------------------------------------|






***RHYTHM GUITAR***

INTRO PLAYS LEAD GUITAR
..::ON THE WHOLE SING THE GUITAR PLAYS IN THE OVERDRIVE CHANNEL WITH NO EFFECTS AND WITH 
THE RHYTHM PICKUP::..


VERSE
e|--------------------------------------------------------------------|
B|--------------------------------------------------------------------|
G|-----------------------------------3333333333333333-----------------|
D|-4444444444444444-1111111111111111-3333333333333333-3333333333333333|
A|-4444444444444444-1111111111111111-1111111111111111-3333333333333333|
D|-4444444444444444-1111111111111111------------------3333333333333333|
   xxxxxxxxxxxxxxxx xxxxxxxxxxxxxxxx xxxxxxxxxxxxxxxx xxxxxxxxxxxxxxxx

e|--------------------------------------------------------------------|
B|--------------------------------------------------------------------|
G|-----------------------------------3333333333333333-----------------|
D|-4444444444444444-1111111111111111-3333333333333333-3333333333333333|
A|-4444444444444444-1111111111111111-1111111111111111-3333333333333333|
D|-4444444444444444-1111111111111111------------------3333333333333333|
   xxxxxxxxxxxxxxxx xxxxxxxxxxxxxxxx xxxxxxxxxxxxxxxx xxxxxxxxxxxxxxxx

PRE-CHORUS
e|--------------------------------------------------------------------|
B|--------------------------------------------------------------------|
G|-----------------------------------3--------------------------------|
D|-4----------------1----------------3----------------3333333333333333|
A|-4----------------1----------------1----------------3333333333333333|
D|-4----------------1---------------------------------3333333333333333|
                                                      xxxxxxxxx

CHORUS
e|--------------------------------------------------------------------|
B|--------------------------------------------------------------------|
G|-----------------------------------3-3-3-3-3-3-3-3------------------|
D|-4-4-4-4-4-4-4-4—-1-1-1-1-1-1-1-1—-3-3-3-3-3-3-3-3—-3-3-3-3-3-3-3-3-|
A|-4-4-4-4-4-4-4-4—-1-1-1-1-1-1-1-1—-1-1-1-1-1-1-1-1--3-3-3-3-3-3-3-3-|
D|-4-4-4-4-4-4-4-4—-1-1-1-1-1-1-1-1—----------------—-3-3-3-3-3-3-3-3-|

e|--------------------------------------------------------------------|
B|--------------------------------------------------------------------|
G|-----------------------------------3-3-3-3-3-3-3-3------------------|
D|-4-4-4-4-4-4-4-4—-1-1-1-1-1-1-1-1—-3-3-3-3-3-3-3-3—-3-3-3-3-3-3-3-3-|
A|-4-4-4-4-4-4-4-4—-1-1-1-1-1-1-1-1—-1-1-1-1-1-1-1-1--3-3-3-3-3-3-3-3-|
D|-4-4-4-4-4-4-4-4—-1-1-1-1-1-1-1-1—----------------—-3-3-3-3-3-3-3-3-|

BRIDGE
e|-------------------------------------|
B|-------------------------------------|
G|-3----------------6------------------|
D|-3----------------6-----6----------3-|
A|-1----------------4-----6----------3-|
D|------------------------6----------3-|

VERSE 2
e|--------------------------------------------------------------------|
B|--------------------------------------------------------------------|
G|-----------------------------------3333333333333333-----------------|
D|-4444444444444444-1111111111111111-3333333333333333-3333333333333333|
A|-4444444444444444-1111111111111111-1111111111111111-3333333333333333|
D|-4444444444444444-1111111111111111------------------3333333333333333|
   xxxxxxxxxxxxxxxx xxxxxxxxxxxxxxxx xxxxxxxxxxxxxxxx xxxxxxxxxxxxxxxx

e|--------------------------------------------------------------------|
B|--------------------------------------------------------------------|
G|-----------------------------------3333333333333333-----------------|
D|-4444444444444444-1111111111111111-3333333333333333-3333333333333333|
A|-4444444444444444-1111111111111111-1111111111111111-3333333333333333|
D|-4444444444444444-1111111111111111------------------3333333333333333|
   xxxxxxxxxxxxxxxx xxxxxxxxxxxxxxxx xxxxxxxxxxxxxxxx xxxxxxxxxxxxxxxx

PRE-CHORUS 2
e|--------------------------------------------------------------------|
B|--------------------------------------------------------------------|
G|-----------------------------------3--------------------------------|
D|-4----------------1----------------3----------------3333333333333333|
A|-4----------------1----------------1----------------3333333333333333|
D|-4----------------1---------------------------------3333333333333333|
                                                      xxxxxxxxx

CHORUS 2
e|--------------------------------------------------------------------|
B|--------------------------------------------------------------------|
G|-----------------------------------3-3-3-3-3-3-3-3------------------|
D|-4-4-4-4-4-4-4-4—-1-1-1-1-1-1-1-1—-3-3-3-3-3-3-3-3—-3-3-3-3-3-3-3-3-|
A|-4-4-4-4-4-4-4-4—-1-1-1-1-1-1-1-1—-1-1-1-1-1-1-1-1--3-3-3-3-3-3-3-3-|
D|-4-4-4-4-4-4-4-4—-1-1-1-1-1-1-1-1—----------------—-3-3-3-3-3-3-3-3-|

e|--------------------------------------------------------------------|
B|--------------------------------------------------------------------|
G|-----------------------------------3-3-3-3-3-3-3-3------------------|
D|-4-4-4-4-4-4-4-4—-1-1-1-1-1-1-1-1—-3-3-3-3-3-3-3-3—-3-3-3-3-3-3-3-3-|
A|-4-4-4-4-4-4-4-4—-1-1-1-1-1-1-1-1—-1-1-1-1-1-1-1-1--3-3-3-3-3-3-3-3-|
D|-4-4-4-4-4-4-4-4—-1-1-1-1-1-1-1-1—----------------—-3-3-3-3-3-3-3-3-|


SOLO
e|--------------------------------------------------------------------|
B|--------------------------------------------------------------------|
G|-----------------------------------3--------------------------------|
D|-4----------------1----------------3----------------3---------------|
A|-4----------------1----------------1----------------3---------------|
D|-4----------------1---------------------------------3---------------|

BRIDGE 2
e|-10--------------------9----------------------13-----------------11-|
B|-11-------------------11----------------------11-----------------11-|
G|-10-------------------10----------------------13------------------8-|
D|--------------------------------------------------------------------|
A|--------------------------------------------------------------------|
D|--------------------------------------------------------------------|

PRE-CHORUS 3
e|--------------------------------------------------------------------|
B|--------------------------------------------------------------------|
G|-----------------------------------3-3-3-3-3-3-3-3------------------|
D|-4-4-4-4-4-4-4-4—-1-1-1-1-1-1-1-1—-3-3-3-3-3-3-3-3—-3-3-3-3-3-3-3-3-|
A|-4-4-4-4-4-4-4-4—-1-1-1-1-1-1-1-1—-1-1-1-1-1-1-1-1--3-3-3-3-3-3-3-3-|
D|-4-4-4-4-4-4-4-4—-1-1-1-1-1-1-1-1—----------------—-3-3-3-3-3-3-3-3-|

CHORUS 3
e|--------------------------------------------------------------------|
B|--------------------------------------------------------------------|
G|-----------------------------------3-3-3-3-3-3-3-3------------------|
D|-4-4-4-4-4-4-4-4—-1-1-1-1-1-1-1-1—-3-3-3-3-3-3-3-3—-3-3-3-3-3-3-3-3-|
A|-4-4-4-4-4-4-4-4—-1-1-1-1-1-1-1-1—-1-1-1-1-1-1-1-1--3-3-3-3-3-3-3-3-|
D|-4-4-4-4-4-4-4-4—-1-1-1-1-1-1-1-1—----------------—-3-3-3-3-3-3-3-3-|

e|--------------------------------------------------------------------|
B|--------------------------------------------------------------------|
G|-----------------------------------3-3-3-3-3-3-3-3------------------|
D|-4-4-4-4-4-4-4-4—-1-1-1-1-1-1-1-1—-3-3-3-3-3-3-3-3—-3-3-3-3-3-3-3-3-|
A|-4-4-4-4-4-4-4-4—-1-1-1-1-1-1-1-1—-1-1-1-1-1-1-1-1--3-3-3-3-3-3-3-3-|
D|-4-4-4-4-4-4-4-4—-1-1-1-1-1-1-1-1—----------------—-3-3-3-3-3-3-3-3-|

OUTRO
e|--------------------------------------------------------------------|
B|--------------------------------------------------------------------|
G|-------------3--------3-----------------------3--------3------------|
D|-4---6---1---3-3--4---3---3---6---4---6---1---3-3--4---3---3---1-1-1|
A|-4---6---1---1-3--4---1---3---6---4---6---1---1-3--4---1---3---1-1-1|
D|-4---6---1-----3--4-------3---6---4---6---1-----3--4-------3---1-1-1|


***LEAD GUITAR TAB WAS ORIGINALLY BY ME, BY EAR. RHYTHM GUITAR WAS MADE BY The
Crimson Dawn, HERE'S A VIDEO OF A GOOD COVER ENJOY***

http://www.youtube.com/watch?v=qOfm0khz20c

***If any mistakes outta place, please e-mail me to: cquinonescastro12@live.com.
Thanks. Also if you make a video for youtube with mah tabs, (if you dont wanna do
it, dont do it its not obligatory!) dont be afraid to send me the vid to any of
these accounts: alixxqc13 or nomnomsaurgoesRAWR ,thanks again ^^
comments
We did not receive enough feedback on this tab! Please rate:
print report bad tab
1 2 3 4 5
I want to post or [tab]
guest
You may want to rate the tab now too:
select rating
Please do not post tabs as comments. Select "correction" instead!