Oops, an error
Loading. Please wait.

Hello Cold World Tab

ver5
ver5

Whole song

More versions @911Tabs.com
13,936 views 27 this week
2 commentsread comments
1 2 3 4 5
excellent!
x 10
Autoscroll
+/-
esc
set tempo
stop
Contributor
Difficulty
Tuning
novice
C# G# C# F# A# D#
WARNING: You are trying to view
                                    content from Ultimate-Guitar.com
                                    in an unauthorized application,
                                    which is prohibited.

                                    Please use an official Ultimate
                                    Guitar Tabs application for iPhone,
                                    iPad or Android to access legitimate
                                    chords, guitar, bass, and drum tabs
                                    from Ultimate-Guitar.com database.

                                    Type "ultimate guitar tabs" in Apple
                                    App Store's or Android Market's
                                    search to find the application.
-----------------------------------------------------------------------------
                         Paramore - Hello Cold World
-----------------------------------------------------------------------------
Tabbed by : ArnoMusicTv  ( http://www.youtube.com/user/ArnoMusicTv )

Tuning: Drop C#  =  C#        Db   
                    G#        Ab
                    C#   Or   Db   
                    F#        Gb
                    A#        Bb
                    D#        eb



          /!\        If you need help, go watch my video :        /!\
          /!\      http://www.youtube.com/watch?v=S0UvRG9IixY     /!\   




---[ Intro ]---



Rhythm Guitar

eb|-------------------------------------------------------------------------|
Bb|-------------------------------------------------------------------------|
Gb|-9-9-9-9-9-9-9-9---------------------------------------------------------| 2x
Db|-9-9-9-9-9-9-9-9-11-11-11-11-9-9-9-9-7-7-7-7-7-7-7-7-11-11-11-11-9-9-9-9-|
Ab|-7-7-7-7-7-7-7-7-11-11-11-11-9-9-9-9-7-7-7-7-7-7-7-7-11-11-11-11-9-9-9-9-|
Db|-----------------11-11-11-11-9-9-9-9-7-7-7-7-7-7-7-7-11-11-11-11-9-9-9-9-|


Lead Guitar

eb|----------7-----------------------------------7---------------------|
Bb|-------9------9----7----9---7----9---------9------9--7--------------|
Gb|-9---------------------------------9---------------------9---8---9--| 2x
Db|--------------------------------------------------------------------|
Ab|--------------------------------------------------------------------|
Db|--------------------------------------------------------------------|





---[ Verse ]---



Rhythm Guitar

eb|-----------------------------|
Bb|-----------------------------|
Gb|-----------------------------|  2x
Db|-9---------6-----------------|
Ab|-7-(32x)---4-(8x)---7-(8x)---|
Db|--------------------7--------|



Lead Guitar (2nd part of the verse)

eb|-----------------------------------------------------------------|
Bb|-----9-------9-------9-------9-10-9---9-------9-------9-------9--|
Gb|-----9-------9-------9-------9--9-9---9-------9-------9-------9--|
Db|-----------------------------------------------------------------|
Ab|-----------------------------------------------------------------|
Db|-----------------------------------------------------------------|
    . .     . .     . .     . .             . .     . .     . .

eb|---------------------------------|
Bb|-----5-------5-------------------|
Gb|-----6-------6-------6-------6---|
Db|---------------------7-------7---|
Ab|---------------------------------|
Db|---------------------------------|
    . .     . .     . .     . . 




---[ Pre-Chorus }---



Rhythm

eb|-----------------------------------------------------------------|
Bb|-----------------------------------------------------------------|
Gb|-----------------------------------------------------------------|
Db|-6-6-----6-6-----7-7-----7-7-----6-6-----6-6-----9-9-9-9-9-------|
Ab|-6-6-----6-6-----7-7-----7-7-----6-6-----6-6-----9-9-9-9-9-------|
Db|-6-6-----6-6-----7-7-----7-7-----6-6-----6-6-----9-9-9-9-9-------|



Lead

eb|-----------------------------------------------------------------|
Bb|-----------------------------------------------------------------|
Gb|-4-4-----4-4-----6-6-----6-6-----4-4-----4-4-----8-8-8-8-8-------|
Db|-6-6-----6-6-----7-7-----7-7-----6-6-----6-6-----9-9-9-9-9-------|
Ab|-6-6-----6-6-----7-7-----7-7-----6-6-----6-6-----9-9-9-9-9-------|
Db|-----------------------------------------------------------------|




---[ Chorus ]---



Rhythm

eb|-----------------------------------------------------------------|
Bb|-----------------------------------------------------------------|
Gb|-9-9-9-9-9-9-9-9-------------------------------------------------|
Db|-9-9-9-9-9-9-9-9-9-9-9-9-9-9-9-9-7-7-7-7-7-7-7-7-7-7-7-7-7-7-7-7-|
Ab|-7-7-7-7-7-7-7-7-9-9-9-9-9-9-9-9-7-7-7-7-7-7-7-7-7-7-7-7-7-7-7-7-|
Db|-----------------9-9-9-9-9-9-9-9-7-7-7-7-7-7-7-7-7-7-7-7-7-7-7-7-|

eb|-----------------------------------------------------------------|
Bb|-----------------------------------------------------------------|
Gb|-9-9-9-9-9-9-9-9-------------------------------------------------|
Db|-9-9-9-9-9-9-9-9-6-6-6-6-6-6-6-6-7-7-7-7-7-7-7-7-7-7-7-7-7-7-7-7-|
Ab|-7-7-7-7-7-7-7-7-6-6-6-6-6-6-6-6-7-7-7-7-7-7-7-7-7-7-7-7-7-7-7-7-|
Db|-----------------6-6-6-6-6-6-6-6-7-7-7-7-7-7-7-7-7-7-7-7-7-7-7-7-|

eb|-------------------------------------------------------------------------|
Bb|-------------------------------------------------------------------------|
Gb|-----------------------------------------9-9-9-9-9-9-9-9-----------------|
Db|-11-11-11-11-11-11-11-11-9-9-9-9-9-9-9-9-9-9-9-9-9-9-9-9-7-7-7-7-7-7-7-7-|
Ab|-11-11-11-11-11-11-11-11-9-9-9-9-9-9-9-9-7-7-7-7-7-7-7-7-7-7-7-7-7-7-7-7-|
Db|-11-11-11-11-11-11-11-11-9-9-9-9-9-9-9-9-----------------7-7-7-7-7-7-7-7-|

eb|-------------------------------------------------------------------------|
Bb|-------------------------------------------------------------------------|
Gb|-------------------------------------------------------------------------|
Db|-11-11-11-11-11-11-11-11-9-9-9-9-9-9-9-9-7-7-7-7-7-7-7-7-----------------|
Ab|-11-11-11-11-11-11-11-11-9-9-9-9-9-9-9-9-7-7-7-7-7-7-7-7-----------------|
Db|-11-11-11-11-11-11-11-11-9-9-9-9-9-9-9-9-7-7-7-7-7-7-7-7-----------------|



Lead Guitar

eb|-------------------------------------------------------------|
Bb|-9---9---9---9---9---9---9---10--10--10--10--10--10--10--10--|
Gb|---9---9---9---9---9---9---9---9---9---9---9---9---9---9---9-|
Db|-------------------------------------------------------------|
Ab|-------------------------------------------------------------|
Db|-------------------------------------------------------------|

eb|-----------------------------------------------------------------|
Bb|-9---9---9---9---7---7---7---7---9---9---9---9---10--10--10--10--|
Gb|---9---9---9---9---9---9---9---9---9---9---9---9---9---9---9---9-|
Db|-----------------------------------------------------------------|
Ab|-----------------------------------------------------------------|
Db|-----------------------------------------------------------------|

eb|-16-16-16-16-16-16-16-16-19-19-19-19-17-17-17-17-16-16-16-16-16-16-16-16-17-17-17-17-|
Bb|-------------------------------------------------------------------------------------|
Gb|-------------------------------------------------------------------------------------|
Db|-------------------------------------------------------------------------------------|
Ab|-------------------------------------------------------------------------------------|
Db|-------------------------------------------------------------------------------------|

eb|17-17-17-17-16-16-16-16-16-16-16-16-19-19-19-19-19-19-19-19-16-16-16-16-16-16-16-16--|
Bb|-------------------------------------------------------------------------------------|
Gb|-------------------------------------------------------------------------------------|
Db|-------------------------------------------------------------------------------------|
Ab|-------------------------------------------------------------------------------------|
Db|-------------------------------------------------------------------------------------|



---[ Intro ]---  


---[ Verse ]---


---[ Chorus ]---





---[ Bridge ]---



Rhythm Guitar

eb|---------------|---------------|---------|-----------------|---------|-----------------|
Bb|---------------|---------------|---------|-----------------|---------|-----------------|
Gb|-9-------------|-9-9-9---------|-9-------|-----------------|---------|-----------------|
Db|-9-------------|-9-9-9---------|-9-------|-11-------9------|-7-------|-11-------9------|
Ab|-7-------------|-7-7-7---------|-7-(x16)-|-11-------9------|-7-------|-11-------9------|
Db|---------------|---------------|---------|-11-(x8)--9-(x8)-|-7-(x16)-|-11-(x8)--9-(x8)-|



Lead Guitar

eb|-16~-----------|---------------|---------|-----------------|---------|-----------------|
Bb|---------------|---------------|---------|-----------------|---------|-----------------|
Gb|---------------|---------------|---------|-----------------|---------|-----------------|
Db|---------------|---------------|---------|-----------------|---------|-----------------|
Ab|---------------|---------------|---------|-----------------|---------|-----------------|
Db|---------------|---------------|---------|-----------------|---------|-----------------|




---[ Solo ]---



Rhythm

eb|---------------------------------------------------------------------|
Bb|---------------------------------------------------------------------|
Gb|-9-9-9-9---------------------9-9-9-9---------------------------------|
Db|-9-9-9-9-9-9-9-9-11-11-11-11-9-9-9-9-7-7-7-7-7-7-7-7-7-7-7-7-7-7-7-7-|
Ab|-7-7-7-7-9-9-9-9-11-11-11-11-7-7-7-7-7-7-7-7-7-7-7-7-7-7-7-7-7-7-7-7-|
Db|---------9-9-9-9-11-11-11-11---------7-7-7-7-7-7-7-7-7-7-7-7-7-7-7-7-|

eb|---------------------------------------------------------------------|
Bb|---------------------------------------------------------------------|
Gb|-9-9-9-9-------------------------------------------------------------|
Db|-9-9-9-9-9-9-9-9-11-11-11-11-6-6-6-6-7-7-7-7-7-7-7-7-7-7-7-7-7-7-7-7-|
Ab|-7-7-7-7-9-9-9-9-11-11-11-11-6-6-6-6-7-7-7-7-7-7-7-7-7-7-7-7-7-7-7-7-|
Db|---------9-9-9-9-11-11-11-11-6-6-6-6-7-7-7-7-7-7-7-7-7-7-7-7-7-7-7-7-|



Lead Guitar

eb|--------12-11-9----9-----------------|--------12-11-9----9-------------------|
Bb|---9-12---------12---9---12---9---12-|---9-12---------12---9---12------------|
Gb|-9-----------------------------------|-9----------------------------11---9---|
Db|-------------------------------------|---------------------------------------|
Ab|-------------------------------------|---------------------------------------|
Db|-------------------------------------|---------------------------------------|

eb| -------12-11-9----9-----------------|---------------------------------9-12/-|
Bb|---9-12---------12---9---12---9---12-|--------------------------9-10-12------|
Gb|-9-----------------------------------|-------------8-8-8-8-9-11--------------|
Db|-------------------------------------|-11-11-11-11---------------------------|
Ab|-------------------------------------|---------------------------------------|
Db|-------------------------------------|---------------------------------------|




---[ Chorus ]---


---[ The End ]---



Rhythm Guitar

eb|-------------------------------------------------------------------------|
Bb|-------------------------------------------------------------------------|
Gb|-9-9-9-9-9-9-9-9---------------------------------------------------------| 
Db|-9-9-9-9-9-9-9-9-11-11-11-11-9-9-9-9-7-7-7-7-7-7-7-7-11-11-11-11-9-9-9-9-|
Ab|-7-7-7-7-7-7-7-7-11-11-11-11-9-9-9-9-7-7-7-7-7-7-7-7-11-11-11-11-9-9-9-9-|
Db|-----------------11-11-11-11-9-9-9-9-7-7-7-7-7-7-7-7-11-11-11-11-9-9-9-9-|
                                                                        
eb|-------------------------------------------------------------------------|
Bb|-------------------------------------------------------------------------|
Gb|-9-9-9-9-9-9-9-9-----------------------------------------------------9---| 
Db|-9-9-9-9-9-9-9-9-11-11-11-11-9-9-9-9-7-7-7-7-7-7-7-7-11--11---9--9---9---|
Ab|-7-7-7-7-7-7-7-7-11-11-11-11-9-9-9-9-7-7-7-7-7-7-7-7-11--11---9--9---7---|
Db|-----------------11-11-11-11-9-9-9-9-7-7-7-7-7-7-7-7-11--11---9--9-------|


Lead Guitar

eb|----------7-----------------------------------7---------------------|
Bb|-------9------9----7----9---7----9---------9------9--7--------------|
Gb|-9---------------------------------9---------------------9---8---9--| 
Db|--------------------------------------------------------------------|
Ab|--------------------------------------------------------------------|
Db|--------------------------------------------------------------------|

eb|----------7-----------------------------------7---------------------|
Bb|-------9------9----7----9---7----9---------9------9--7--------------|
Gb|-9---------------------------------9---------------------9---8--9-9-| 
Db|--------------------------------------------------------------------|
Ab|--------------------------------------------------------------------|
Db|--------------------------------------------------------------------|



Have Fun ! :)
Arno.
comments
print report bad tab
2 comments total.
+1 reply
comment639 wrote on November 16 2011, 12:55 pm

This one is PERFECT ! Thank you.

0 reply
cocopunk1486 wrote on April 22 2012, 03:34 pm

Awesome tab man, please do more!!!

I want to post or [tab]
guest
You may want to rate the tab now too:
select rating
Please do not post tabs as comments. Select "correction" instead!