Oops, an error
Loading. Please wait.

Looking Up Live Tab

1,168 views 1 this week
no commentswrite comment
1 2 3 4 5
accurate
x 4
Autoscroll
+/-
esc
set tempo
stop
Contributor
Difficulty
Tuning
intermediate
C# G# C# F# A# D#
Hey! There's an official Ultimate Guitar app which is ideal
for learning songs when you're away from computer. Get the app
WARNING: You are trying to view
                                    content from Ultimate-Guitar.com
                                    in an unauthorized application,
                                    which is prohibited.

                                    Please use an official Ultimate
                                    Guitar Tabs application for iPhone,
                                    iPad or Android to access legitimate
                                    chords, guitar, bass, and drum tabs
                                    from Ultimate-Guitar.com database.

                                    Type "ultimate guitar tabs" in Apple
                                    App Store's or Android Market's
                                    search to find the application.
-------------------------------------------------------------------------------
                             LOOKING UP - Paramore
-------------------------------------------------------------------------------
Tabbd#d by: rockett97
Email: rockett97@hotmail.com

This is the LIVE VERSION, with the intro as played on the Spring Tour in 2010 
(aswell as on some festivals)

For questions, just send me a message via the comments or via email.

I tabbed both guitar parts for this song.


Tuning: Drop C#


Guitar 1 (formerly Josh)

Live Intro

d#|-----------------------------------------------------------------|
A#|-------7---------------7---------------9---------------9---------|
F#|---9-------9---9---9-------9---9---9-------9---9---9-------9---9-|
C#|-6---6---6---6---6---6---6---6---7---7---7---7---7---7---7---7---|
D#|-----------------------------------------------------------------|
C#|-----------------------------------------------------------------|

d#|-----------------------------------------------------------------|
A#|-------7---------------7---------------9---------------9---------|
F#|---9-------9---9---9-------9---9---9-------9---9---9-------9---9-|
C#|-6---6---6---6---6---6---6---6---7---7---7---7---7---7---7---7---|
D#|-----------------------------------------------------------------|
C#|-----------------------------------------------------------------|

d#|-----------------------------------------------------------------|
A#|-------7---------------7---------------9---------------9---------|
F#|---9-------9---9---9-------9---9---9-------9---9---9-------9---9-|
C#|-6---6---6---6---6---6---6---6---7---7---7---7---7---7---7---7---|
D#|-----------------------------------------------------------------|
C#|-----------------------------------------------------------------|

d#|-------------------------------------------------------7---------|
A#|-------7---------------7---------------9-------------------9-----|
F#|---9-------9---9---9-------9---9---9-------9---9---9-----------9-|
C#|-6---6---6---6---6---6---6---6---7---7---7---7---7---7---7---7---|
D#|-----------------------------------------------------------------|
C#|-----------------------------------------------------------------|

d#|------------------------------------------------------------------|
A#|-------7---------------7---------------9-----9/10-------9---------|
F#|---9-------9---9---9-------9---9---9-------9--------9-------9---9-|
C#|-6---6---6---6---6---6---6---6---7---7---7--------7---7---7---7---|
D#|------------------------------------------------------------------|
C#|------------------------------------------------------------------|

d#|-------------------------------------------------------7---------|
A#|-------7---------------7---------------9-------------------9-----|
F#|---9-------9---9---9-------9---9---9-------9---9---9-----------9-|
C#|-6---6---6---6---6---6---6---6---7---7---7---7---7---7---7---7---|
D#|-----------------------------------------------------------------|
C#|-----------------------------------------------------------------|

d#|------------------------------------------------------------------|
A#|-------7---------------7---------------9-----9/10-------9---------|
F#|---9-------9---9---9-------9---9---9-------9--------9-------9---9-|
C#|-6---6---6---6---6---6---6---6---7---7---7--------7---7---7---7---|
D#|------------------------------------------------------------------|
C#|------------------------------------------------------------------|

d#|------------------------------------------------------------------------------------------------|
A#|------------------------------------------------------------------------------------------------|
F#|-13-13-13-13-13-13-13-13/14-14-14-14-14-14-14-14/16-16-16-16-16-16-16-16-16-16-16-16-16-16-16-16|
C#|-x--x--x--x--x--x--x--x--x--x--x--x--x--x--x--x--x--x--x--x--x--x--x--x--x--x--x--x--x--x--x--x-|
D#|-11-11-11-11-11-11-11-11/12-12-12-12-12-12-12-12/14-14-14-14-14-14-14-14-14-14-14-14-14-14-14-14|
C#|------------------------------------------------------------------------------------------------|
 
d#|------------------------------------------------------------------------|
A#|------------------------------------------------------------------------|
F#|-13-13-13-13-13-13-13-13\9--9--9-9-9-/13-13-13-13-13-13-13-13-13--13-13-|
C#|-x--x--x--x--x--x--x--x--x--x--x-x-x--x--x--x--x--x--x--x--x--x---x--x--|
D#|-11-11-11-11-11-11-11-11\7--7--7-7-7-/11-11-11-11-11-11-11-11-11--11-11-|
C#|------------------------------------------------------------------------|

d#|------------------------------------------------------------------------------------------------|
A#|------------------------------------------------------------------------------------------------|
F#|-13-13-13-13-13-13-13-13/14-14-14-14-14-14-14-14/16-16-16-16-16-16-16-16-16-16-16-16-16-16-16-16|
C#|-x--x--x--x--x--x--x--x--x--x--x--x--x--x--x--x--x--x--x--x--x--x--x--x--x--x--x--x--x--x--x--x-|
D#|-11-11-11-11-11-11-11-11/12-12-12-12-12-12-12-12/14-14-14-14-14-14-14-14-14-14-14-14-14-14-14-14|
C#|------------------------------------------------------------------------------------------------|
 
d#|------------------------------------------------------------------------------------------|
A#|------------------------------------------------------------------------------------------|
F#|-13-13-13-13-13-13-13-13\14--14--14-14-14/13-13-13-13-13-13-13-13-13--13--13-13-13--13\11-|
C#|-x--x--x--x--x--x--x--x--x---x---x--x--x--x--x--x--x--x--x--x--x--x---x---x--x--x---x--x--|
D#|-11-11-11-11-11-11-11-11\12--12--12-12-12/11-11-11-11-11-11-11-11-11--11--11-11-11--11\9--|
C#|------------------------------------------------------------------------------------------|
                                                                                  (let ring)

(end live intro)

Intro (Looking up)

d#|------------x-(0)-(0)(0)-(0)(0)-|
A#|------------x--x---x--x---x--x--|
F#|---------11-x--9---9--9---9--9--| (x3)
C#|---------x--x--11--11-11--11-11-|
D#|-9h11-11-11-x--11--11-11--11-11-|
C#|-x-x--x--x--x--x---x--x---x--x--|

d#|-x---x---x---x---x---x---x---x---x---x---|
A#|-x---x---x---x---x---x---x---x---x---x---|
F#|-6---x---8---x---9---x--(16)(16)(16)(16)-|
C#|-x---x---x---x---x---x---16--16--16--16--|
D#|-7---x---9---x---11--x---14--14--14--14--|
C#|-x---x---x---x---x---x---x---x---x---x---|

Verse

"Things are looking up, oh finally!"

d#|------------------------------------------------|
A#|------------------------------------------------|
F#|-------------------------6-6-6-6--6--4-4-4-4--4-| (x4)
C#|-2-2-2-2--2--2-2-2-2--2--6-6-6-6--6--4-4-4-4--4-|
D#|-2-2-2-2--2--2-2-2-2--2--4-4-4-4--4--2-2-2-2--2-|
C#|-2-2-2-2--2--2-2-2-2--2-------------------------|
   x x x x  x  x x x x  x  x x x x  x  x x x x  x

d#|------0-0-0------|
A#|------0-0-0------|
F#|-----------------|
C#|-2--2-------2--2-|
D#|-2--2-------2--2-|
C#|-2--2-------2--2-|

Chorus

"Honestly, can you Believe.."

d#|----------------------------------------------------------------------------|
A#|----------------------------------------------------------------------------|
F#|---------------------------------4-4-4-4-4-4-4-4-11-11-11-11-11-11-11-11-11-|
C#|-7-7-7-7-7-7-7-7-2-2-2-2-2-2-2-2-4-4-4-4-4-4-4-4-11-11-11-11-11-11-11-11-11-|
D#|-7-7-7-7-7-7-7-7-2-2-2-2-2-2-2-2-2-2-2-2-2-2-2-2-9--9--9--9--9--9--9--9--9--|
C#|-7-7-7-7-7-7-7-7-2-2-2-2-2-2-2-2--------------------------------------------|

d#|---------------------------------------------------------|
A#|---------------------------------------------------------|
F#|-9-9-9-9-9-9-9-9-----------------11-11-11-11-11-11-11-11-|
C#|-9-9-9-9-9-9-9-9-9-9-9-9-9-9-9-9-11-11-11-11-11-11-11-11-|
D#|-7-7-7-7-7-7-7-7-9-9-9-9-9-9-9-9-9--9--9--9--9--9--9--9--|
C#|-----------------9-9-9-9-9-9-9-9-------------------------|

"It's not a dream anymore..."

d#|-----------------------------------------------------------------------------|
A#|--------------------------------9--9--9--9---9--9--9-------------------------|
F#|-9-9-9-9--9-9-9-9-9-9-9--9-9-9--x--x--x--x---x--x--x---11-11-11-11--11-11-11-| 
C#|-9-9-9-9--9-9-9-9-9-9-9--9-9-9--11-11-11-11--11-11-11--11-11-11-11--11-11-11-|
D#|-7-7-7-7--7-7-7-7-7-7-7--7-7-7--11-11-11-11--11-11-11--9--9--9--9---9--9--9--|
C#|-----------------------------------------------------------------------------|

d#|------------------------------------------------------------------|
A#|--------------------------------9--9--9--9---9--9--9--------------|
F#|-9-9-9-9--9-9-9-9-9-9-9--9-9-9--x--x--x--x---x--x--x---11--11--11-| 
C#|-9-9-9-9--9-9-9-9-9-9-9--9-9-9--11-11-11-11--11-11-11--11--11--11-|
D#|-7-7-7-7--7-7-7-7-7-7-7--7-7-7--11-11-11-11--11-11-11--9---9---9--|
C#|------------------------------------------------------------------|

d#|------------x-(0)-(0)(0)-(0)(0)-|
A#|------------x--x---x--x---x--x--|
F#|---------11-x--9---9--9---9--9--| (x3)
C#|---------x--x--11--11-11--11-11-|
D#|-9h11-11-11-x--11--11-11--11-11-|
C#|-x-x--x--x--x--x---x--x---x--x--|

d#|-x---x---x---x---x---x---x---x---x---x---|
A#|-x---x---x---x---x---x---x---x---x---x---|
F#|-6---x---8---x---9---x--(16)(16)(16)(16)-|
C#|-x---x---x---x---x---x---16--16--16--16--|
D#|-7---x---9---x---11--x---14--14--14--14--|
C#|-x---x---x---x---x---x---x---x---x---x---|

Verse

"Could've given up so easily"

d#|------------------------------------------------|
A#|------------------------------------------------|
F#|-------------------------6-6-6-6--6--4-4-4-4--4-| (x4)
C#|-2-2-2-2--2--2-2-2-2--2--6-6-6-6--6--4-4-4-4--4-|
D#|-2-2-2-2--2--2-2-2-2--2--4-4-4-4--4--2-2-2-2--2-|
C#|-2-2-2-2--2--2-2-2-2--2-------------------------|
   x x x x  x  x x x x  x  x x x x  x  x x x x  x

d#|-----------|
A#|-----------|
F#|-----------|
C#|-2---2---2-|
D#|-2---2---2-|
C#|-2---2---2-|

Chorus

"Honestly, can you believe.."

d#|----------------------------------------------------------------------------|
A#|----------------------------------------------------------------------------|
F#|---------------------------------4-4-4-4-4-4-4-4-11-11-11-11-11-11-11-11-11-|
C#|-7-7-7-7-7-7-7-7-2-2-2-2-2-2-2-2-4-4-4-4-4-4-4-4-11-11-11-11-11-11-11-11-11-|
D#|-7-7-7-7-7-7-7-7-2-2-2-2-2-2-2-2-2-2-2-2-2-2-2-2-9--9--9--9--9--9--9--9--9--|
C#|-7-7-7-7-7-7-7-7-2-2-2-2-2-2-2-2--------------------------------------------|

d#|---------------------------------------------------------|
A#|---------------------------------------------------------|
F#|-9-9-9-9-9-9-9-9-----------------11-11-11-11-11-11-11-11-|
C#|-9-9-9-9-9-9-9-9-9-9-9-9-9-9-9-9-11-11-11-11-11-11-11-11-|
D#|-7-7-7-7-7-7-7-7-9-9-9-9-9-9-9-9-9--9--9--9--9--9--9--9--|
C#|-----------------9-9-9-9-9-9-9-9-------------------------|

"It's not a dream anymore..."

d#|-----------------------------------------------------------------------------|
A#|--------------------------------9--9--9--9---9--9--9-------------------------|
F#|-9-9-9-9--9-9-9-9-9-9-9--9-9-9--x--x--x--x---x--x--x---11-11-11-11--11-11-11-| 
C#|-9-9-9-9--9-9-9-9-9-9-9--9-9-9--11-11-11-11--11-11-11--11-11-11-11--11-11-11-|
D#|-7-7-7-7--7-7-7-7-7-7-7--7-7-7--11-11-11-11--11-11-11--9--9--9--9---9--9--9--|
C#|-----------------------------------------------------------------------------|

d#|-----------------------------------------------------------------------------------------------|
A#|--------------------------------9--9--9--9---9--9--9-------------------------------------------|
F#|-9-9-9-9--9-9-9-9-9-9-9--9-9-9--x--x--x--x---x--x--x---11-11-11-11--11-11-11--9--9--9--9-9-9-9-| 
C#|-9-9-9-9--9-9-9-9-9-9-9--9-9-9--11-11-11-11--11-11-11--11-11-11-11--11-11-11--9--9--9--9-9-9-9-|
D#|-7-7-7-7--7-7-7-7-7-7-7--7-7-7--11-11-11-11--11-11-11--9--9--9--9---9--9--9---7--7--7--7-7-7-7-|
C#|-----------------------------------------------------------------------------------------------|

Bridge

"God knows the world doesn't need another band.."

d#|-----------------------------------------------------------------|
A#|-----------------------------------------------------------------|
F#|-----------------------------------------------------------------| (x2)
C#|-----------------------------------------------------------------|
D#|-----------------------------------------------------------------|
C#|-2-2-2-2-2-2-2-2-2-2-2-2-2-2-2-2/6-6-6-6-6-6-6-6/7-7-7-7-7-7-7-7-|

"I can't believe we almost hung it up, whoa"

d#|-------x-x--x--------x-x--x--------x-x--x--------x-x--x-|
A#|-------x-x--x--------x-x--x--------x-x--x--------x-x--x-|
F#|-------x-x--x--------x-x--x--------x-x--x--------x-x--x-|
C#|-2--2--x-x--x--2--2--x-x--x--6--6--x-x--x--7--7--x-x--x-|
D#|-2--2--x-x--x--2--2--x-x--x--6--6--x-x--x--7--7--x-x--x-|
C#|-2--2--x-x--x--2--2--x-x--x--6--6--x-x--x--7--7--x-x--x-|

d#|-----------------------------------------|
A#|-----------------------------------------|
F#|-------------------------------4---4---4-|
C#|-2-2-2-2-2-2-2--2--2-2--2--2---4---4---4-|
D#|-2-2-2-2-2-2-2--2--2-2--2--2---2---2---2-|
C#|-2-2-2-2-2-2-2--2--2-2--2--2-------------|

Chorus

"Honestly, can you believe.."

d#|----------------------------------------------------------------------------|
A#|----------------------------------------------------------------------------|
F#|---------------------------------4-4-4-4-4-4-4-4-11-11-11-11-11-11-11-11-11-|
C#|-7-7-7-7-7-7-7-7-2-2-2-2-2-2-2-2-4-4-4-4-4-4-4-4-11-11-11-11-11-11-11-11-11-|
D#|-7-7-7-7-7-7-7-7-2-2-2-2-2-2-2-2-2-2-2-2-2-2-2-2-9--9--9--9--9--9--9--9--9--|
C#|-7-7-7-7-7-7-7-7-2-2-2-2-2-2-2-2--------------------------------------------|

d#|---------------------------------------------------------|
A#|---------------------------------------------------------|
F#|-9-9-9-9-9-9-9-9-----------------11-11-11-11-11-11-11-11-|
C#|-9-9-9-9-9-9-9-9-9-9-9-9-9-9-9-9-11-11-11-11-11-11-11-11-|
D#|-7-7-7-7-7-7-7-7-9-9-9-9-9-9-9-9-9--9--9--9--9--9--9--9--|
C#|-----------------9-9-9-9-9-9-9-9-------------------------|

"It's not a dream anymore..."

d#|-----------------------------------------------------------------------------|
A#|--------------------------------9--9--9--9---9--9--9-------------------------|
F#|-9-9-9-9--9-9-9-9-9-9-9--9-9-9--x--x--x--x---x--x--x---11-11-11-11--11-11-11-| 
C#|-9-9-9-9--9-9-9-9-9-9-9--9-9-9--11-11-11-11--11-11-11--11-11-11-11--11-11-11-|
D#|-7-7-7-7--7-7-7-7-7-7-7--7-7-7--11-11-11-11--11-11-11--9--9--9--9---9--9--9--|
C#|-----------------------------------------------------------------------------|

d#|-----------------------------------------------------------------------------|
A#|--------------------------------9--9--9--9---9--9--9-------------------------|
F#|-9-9-9-9--9-9-9-9-9-9-9--9-9-9--x--x--x--x---x--x--x---11-11-11-11--11-11-11-| (x3)
C#|-9-9-9-9--9-9-9-9-9-9-9--9-9-9--11-11-11-11--11-11-11--11-11-11-11--11-11-11-|
D#|-7-7-7-7--7-7-7-7-7-7-7--7-7-7--11-11-11-11--11-11-11--9--9--9--9---9--9--9--|
C#|-----------------------------------------------------------------------------|

"It's worth fighting for"

d#|--------------|
A#|--------------|
F#|-9------------|
C#|-9-(let ring)-|
D#|-7------------|
C#|--------------|

Chorus

"(I can't believe we almost hung it up) Whoa, Whoa"

d#|-------x-x--x--------x-x--x--------x-x--x--------x-x--x--------x-x--x--------x-x--x-|
A#|-------x-x--x--------x-x--x--------x-x--x--------x-x--x--------x-x--x--------x-x--x-|
F#|-------x-x--x--------x-x--x--------x-x--x--------x-x--x--------x-x--x--------x-x--x-|
C#|-2--2--x-x--x--7--7--x-x--x--2--2--x-x--x--2--2--x-x--x--6--6--x-x--x--7--7--x-x--x-|
D#|-2--2--x-x--x--7--7--x-x--x--2--2--x-x--x--2--2--x-x--x--6--6--x-x--x--7--7--x-x--x-|
C#|-2--2--x-x--x--7--7--x-x--x--2--2--x-x--x--2--2--x-x--x--6--6--x-x--x--7--7--x-x--x-|

d#|-------x-x--x--------x-x--x--------x-x--x--------x-x--x-|
A#|-------x-x--x--------x-x--x--------x-x--x--------x-x--x-|
F#|-------x-x--x--------x-x--x--------x-x--x--------x-x--x-|
C#|-2--2--x-x--x--2--2--x-x--x--6--6--x-x--x--7--7--x-x--x-|
D#|-2--2--x-x--x--2--2--x-x--x--6--6--x-x--x--7--7--x-x--x-|
C#|-2--2--x-x--x--2--2--x-x--x--6--6--x-x--x--7--7--x-x--x-|

d#|-------x-x--x--------x-x--x--------x-x--x------x-----------|
A#|-------x-x--x--------x-x--x--------x-x--x------x-----------|
F#|-------x-x--x--------x-x--x--------x-x--x------x-----------|
C#|-2--2--x-x--x--2--2--x-x--x--6--6--x-x--x--7-7-x-7-7-7-7\2-|
D#|-2--2--x-x--x--2--2--x-x--x--6--6--x-x--x--7-7-x-7-7-7-7\2-| (let ring)
C#|-2--2--x-x--x--2--2--x-x--x--6--6--x-x--x--7-7-x-7-7-7-7\2-|


Guitar 2 (Taylor)

Live Intro

Taylor plays along notes from the lead, to get a thicker sound on those notes. 
When listening to the live recording, you can spot where he does this, 
and just copy the notes from the Guitar 1 intro tab. 
That's why these aren't in the tab here.

Guitar 1 keeps playing the same loop, and in between, 
Guitar 2 plays the following:

d#|------------------------|
A#|------------------------|
F#|-9-9-9-9-9--9-9--9-9-9--| (x3)
C#|-x-x-x-x-x--x-x--x-x-x--|
D#|-7-7-7-7-7--7-7--7-7-7--|
C#|------------------------|

d#|-----------------------------------------------|
A#|-----------------------------------------------|
F#|-9-9-9-9-9--9-9--9-9-9---9-9-9-9-9--9-9--9-9-9-| 
C#|-x-x-x-x-x--x-x--x-x-x---x-x-x-x-x--x-x--x-x-x-|
D#|-7-7-7-7-7--7-7--7-7-7---7-7-7-7-7--7-7--7-7-7-|
C#|-----------------------------------------------|

d#|------------------------------------------------------------------------------------------------|
A#|------------------------------------------------------------------------------------------------|
F#|-13-13-13-13-13-13-13-13/14-14-14-14-14-14-14-14/16-16-16-16-16-16-16-16-16-16-16-16-16-16-16-16|
C#|-x--x--x--x--x--x--x--x--x--x--x--x--x--x--x--x--x--x--x--x--x--x--x--x--x--x--x--x--x--x--x--x-|
D#|-11-11-11-11-11-11-11-11/12-12-12-12-12-12-12-12/14-14-14-14-14-14-14-14-14-14-14-14-14-14-14-14|
C#|------------------------------------------------------------------------------------------------|
 
d#|------------------------------------------------------------------------|
A#|------------------------------------------------------------------------|
F#|-13-13-13-13-13-13-13-13\9--9--9-9-9-/13-13-13-13-13-13-13-13-13--13-13-|
C#|-x--x--x--x--x--x--x--x--x--x--x-x-x--x--x--x--x--x--x--x--x--x---x--x--|
D#|-11-11-11-11-11-11-11-11\7--7--7-7-7-/11-11-11-11-11-11-11-11-11--11-11-|
C#|------------------------------------------------------------------------|

d#|------------------------------------------------------------------------------------------------|
A#|------------------------------------------------------------------------------------------------|
F#|-13-13-13-13-13-13-13-13/14-14-14-14-14-14-14-14/16-16-16-16-16-16-16-16-16-16-16-16-16-16-16-16|
C#|-x--x--x--x--x--x--x--x--x--x--x--x--x--x--x--x--x--x--x--x--x--x--x--x--x--x--x--x--x--x--x--x-|
D#|-11-11-11-11-11-11-11-11/12-12-12-12-12-12-12-12/14-14-14-14-14-14-14-14-14-14-14-14-14-14-14-14|
C#|------------------------------------------------------------------------------------------------|
 
d#|------------------------------------------------------------------------------------------|
A#|------------------------------------------------------------------------------------------|
F#|-13-13-13-13-13-13-13-13\14--14--14-14-14/13-13-13-13-13-13-13-13-13--13--13-13-13--13\11-|
C#|-x--x--x--x--x--x--x--x--x---x---x--x--x--x--x--x--x--x--x--x--x--x---x---x--x--x---x--x--|
D#|-11-11-11-11-11-11-11-11\12--12--12-12-12/11-11-11-11-11-11-11-11-11--11--11-11-11--11\9--|
C#|------------------------------------------------------------------------------------------|
                                                                              (let ring)

(end live intro)

Intro (Looking Up)

First, Guitar 1 plays its part. At 00.09 mins (9 seconds) guitar 2 comes in:

d#|------------------------------------------------------------------|
A#|------------------------------------------------------------------|
F#|-13/16-16-16-16\13--13-13--13-13--13/16-16-16-16\13--13-13--13-13-|
C#|-x--x--x--x--x--x---x--x---x--x---x--x--x--x--x--x---x--x---x--x--|
D#|-11/14-14-14-14\11--11-11--11-11--11-14-14-14-14-11--11-11--11-11-|
C#|------------------------------------------------------------------|

d#|---------------------------------------------------------------|
A#|-------16--16-16-----------------------------------------------|
F#|-13-13-x---x--x--13--13-13--13-13---9---11---13---16--16-16-16-|
C#|-x--x--13--13-13-x---x--x---x--x----x---x----x----x---x--x--x--|
D#|-11-11-----------11--11-11--11-11---7---9----11---14--14-14-14-|
C#|---------------------------------------------------------------|

Verse

Guitar 1 begins the verse, Guitar 2 comes in at 00.29 min:

"We always pull through"

d#|-12------14------12------14------12-----12-------11------11-----|
A#|-----12------12------12------12------12------12------12------12-|
F#|----------------------------------------------------------------| (x2)
C#|----------------------------------------------------------------|
D#|----------------------------------------------------------------|
C#|----------------------------------------------------------------|

d#|----------0-0-0---------|
A#|----------0-0-0---------|
F#|------------------------|
C#|-(2)-(2)--------(2)-(2)-|
D#|-(2)-(2)--------(2)-(2)-|
C#|-(2)-(2)--------(2)-(2)-|

Chorus

"Honestly, can you believe..."

d#|-------------------------------------------------------------------------|
A#|-------------------------------------------------------------------------|
F#|-9-9-9-9-9-9-9-9-13-13-13-13-13-13-13-13-9-9-9-9-9-9-9-9-8-8-8-8-8-8-8-8-|
C#|-x-x-x-x-x-x-x-x-x--x--x--x--x--x--x--x--x-x-x-x-x-x-x-x-x-x-x-x-x-x-x-x-|
D#|-7-7-7-7-7-7-7-7-11-11-11-11-11-11-11-11-7-7-7-7-7-7-7-7-6-6-6-6-6-6-6-6-|
C#|-------------------------------------------------------------------------|

d#|-----------------------------------------------------------------------------------------|
A#|-----------------------------------------------------------------------------------------|
F#|-9-9-9-9-9-9-9-9-13-13-13-13-13-13-13-13-11-11-11-11-11-11-11-11-11-11-11-11-11-11-11-11-|
C#|-x-x-x-x-x-x-x-x-x--x--x--x--x--x--x--x--x--x--x--x--x--x--x--x--x--x--x--x--x--x--x--x--|
D#|-7-7-7-7-7-7-7-7-11-11-11-11-11-11-11-11-9--9--9--9--9--9--9--9--9--9--9--9--9--9--9--9--|
C#|-----------------------------------------------------------------------------------------|

"It's not a dream anymore"

d#|----------------------------------------------------------------------|
A#|----------------------------------------------------------------------|
F#|-9-9-9-9--9-9-9--11-11-11-11-9-9-9--11-11-11-11-9-9-9--8-8-8-8--8-8-8-|
C#|-x-x-x-x--x-x-x--x--x--x--x--x-x-x--x--x--x--x--x-x-x--x-x-x-x--x-x-x-|
D#|-7-7-7-7--7-7-7--9--9--9--9--7-7-7--9--9--9--9--7-7-7--6-6-6-6--6-6-6-|
C#|----------------------------------------------------------------------|

d#|--------------------------------------------------------------|
A#|--------------------------------------------------------------|
F#|-9-9-9-9--9-9-9--11-11-11-11-9-9-9--11-11-11-11-9-9-9--8--8-8-|
C#|-x-x-x-x--x-x-x--x--x--x--x--x-x-x--x--x--x--x--x-x-x--x--x-x-|
D#|-7-7-7-7--7-7-7--9--9--9--9--7-7-7--9--9--9--9--7-7-7--6--6-6-|
C#|--------------------------------------------------------------|

d#|------------------------------------------------------------------|
A#|------------------------------------------------------------------|
F#|-13/16-16-16-16\13--13-13--13-13--13/16-16-16-16\13--13-13--13-13-|
C#|-x--x--x--x--x--x---x--x---x--x---x--x--x--x--x--x---x--x---x--x--|
D#|-11/14-14-14-14\11--11-11--11-11--11-14-14-14-14-11--11-11--11-11-|
C#|------------------------------------------------------------------|

d#|---------------------------------------------------------------|
A#|-------16--16-16-----------------------------------------------|
F#|-13-13-x---x--x--13--13-13--13-13--\9---11---13---16--16-16-16-|
C#|-x--x--13--13-13-x---x--x---x--x----x---x----x----x---x--x--x--|
D#|-11-11-----------11--11-11--11-11--\7---9----11---14--14-14-14-|
C#|---------------------------------------------------------------|

Verse

Guitar 1 begins the verse, Guitar 2 comes in at 01.20 min:

"(Taken for) granted..."

d#|-12------14------12------14------12-----12-------11------11-----|
A#|-----12------12------12------12------12------12------12------12-|
F#|----------------------------------------------------------------|
C#|----------------------------------------------------------------|
D#|----------------------------------------------------------------|
C#|----------------------------------------------------------------|

d#|-12------14------12------14------16------16-------14------14----|
A#|-----12------12------12------12------12------12------12------12-|
F#|----------------------------------------------------------------|
C#|----------------------------------------------------------------|
D#|----------------------------------------------------------------|
C#|----------------------------------------------------------------|

d#|--------------------------------|
A#|--------------------------------|
F#|----------------8-8-8-8-8-8-8-8-|
C#|-(2)--(2)--(2)--x-x-x-x-x-x-x-x-|
D#|-(2)--(2)--(2)--6-6-6-6-6-6-6-6-|
C#|-(2)--(2)--(2)------------------|

Chorus


"Honestly, can you believe..."

d#|-------------------------------------------------------------------------|
A#|-------------------------------------------------------------------------|
F#|-9-9-9-9-9-9-9-9-13-13-13-13-13-13-13-13-9-9-9-9-9-9-9-9-8-8-8-8-8-8-8-8-|
C#|-x-x-x-x-x-x-x-x-x--x--x--x--x--x--x--x--x-x-x-x-x-x-x-x-x-x-x-x-x-x-x-x-|
D#|-7-7-7-7-7-7-7-7-11-11-11-11-11-11-11-11-7-7-7-7-7-7-7-7-6-6-6-6-6-6-6-6-|
C#|-------------------------------------------------------------------------|

d#|-----------------------------------------------------------------------------------------|
A#|-----------------------------------------------------------------------------------------|
F#|-9-9-9-9-9-9-9-9-13-13-13-13-13-13-13-13-11-11-11-11-11-11-11-11-11-11-11-11-11-11-11-11-|
C#|-x-x-x-x-x-x-x-x-x--x--x--x--x--x--x--x--x--x--x--x--x--x--x--x--x--x--x--x--x--x--x--x--|
D#|-7-7-7-7-7-7-7-7-11-11-11-11-11-11-11-11-9--9--9--9--9--9--9--9--9--9--9--9--9--9--9--9--|
C#|-----------------------------------------------------------------------------------------|

"It's not a dream anymore"

d#|----------------------------------------------------------------------|
A#|----------------------------------------------------------------------|
F#|-9-9-9-9--9-9-9--11-11-11-11-9-9-9--11-11-11-11-9-9-9--8-8-8-8--8-8-8-|
C#|-x-x-x-x--x-x-x--x--x--x--x--x-x-x--x--x--x--x--x-x-x--x-x-x-x--x-x-x-|
D#|-7-7-7-7--7-7-7--9--9--9--9--7-7-7--9--9--9--9--7-7-7--6-6-6-6--6-6-6-|
C#|----------------------------------------------------------------------|

d#|--------------------------------------------------------------|
A#|--------------------------------------------------------------|
F#|-9-9-9-9--9-9-9--11-11-11-11-9-9-9--11-11-11-11-9-9-9--8--8-8-|
C#|-x-x-x-x--x-x-x--x--x--x--x--x-x-x--x--x--x--x--x-x-x--x--x-x-|
D#|-7-7-7-7--7-7-7--9--9--9--9--7-7-7--9--9--9--9--7-7-7--6--6-6-|
C#|--------------------------------------------------------------|

Bridge 

(Guitar 1)

Guitar 2 comes in at 02.00 mins:

"But what a waste it would have been"

d#|---------------------------------------------------------------------------------|
A#|---------------------------------------------------------------------------------|
F#|-13-13-13-13-13-13-13-13-13-13-13-13-11-11-11-11-8-8-8-8-8-8-8-8-9-9-9-9-9-9-9-9-|
C#|-x--x--x--x--x--x--x--x--x--x--x--x--x--x--x--x--x-x-x-x-x-x-x-x-x-x-x-x-x-x-x-x-|
D#|-11-11-11-11-11-11-11-11-11-11-11-11-9--9--9--9--6-6-6-6-6-6-6-6-7-7-7-7-7-7-7-7-|
C#|---------------------------------------------------------------------------------|

"I can't believe we almost hung it up"

d#|--------x-x--x---------x-x--x---------x-x--x-------x-x--x-|
A#|--------x-x--x---------x-x--x---------x-x--x-------x-x--x-|
F#|-13-13--x-x--x--13-13--x-x--x--16-16--x-x--x--6-6--x-x--x-|
C#|-x--x---x-x--x--x--x---x-x--x--x--x---x-x--x--x-x--x-x--x-|
D#|-11-11--x-x--x--11-11--x-x--x--14-14--x-x--x--4-4--x-x--x-|
C#|--------x-x--x---------x-x--x---------x-x--x-------x-x--x-|

d#|--------x-x--x---------x-x--x---------x-x--x-------x-x--x-------------------------------------|
A#|--------x-x--x---------x-x--x---------x-x--x-------x-x--x--------------------------12--12--12-|
F#|-13-13--x-x--x--13-13--x-x--x--16-16--x-x--x--6-6--x-x--x-9-9-9-9-9-9-9--9-9--9-9--x---x---x--|
C#|-x--x---x-x--x--x--x---x-x--x--x--x---x-x--x--x-x--x-x--x-x-x-x-x-x-x-x--x-x--x-x--9---9---9--|
D#|-11-11--x-x--x--11-11--x-x--x--14-14--x-x--x--4-4--x-x--x-7-7-7-7-7-7-7--7-7--7-7-------------|
C#|--------x-x--x---------x-x--x---------x-x--x-------x-x--x-------------------------------------|

Chorus

"Honestly, can you believe..."

d#|-------------------------------------------------------------------------|
A#|-------------------------------------------------------------------------|
F#|-9-9-9-9-9-9-9-9-13-13-13-13-13-13-13-13-9-9-9-9-9-9-9-9-8-8-8-8-8-8-8-8-|
C#|-x-x-x-x-x-x-x-x-x--x--x--x--x--x--x--x--x-x-x-x-x-x-x-x-x-x-x-x-x-x-x-x-|
D#|-7-7-7-7-7-7-7-7-11-11-11-11-11-11-11-11-7-7-7-7-7-7-7-7-6-6-6-6-6-6-6-6-|
C#|-------------------------------------------------------------------------|

d#|-----------------------------------------------------------------------------------------|
A#|-----------------------------------------------------------------------------------------|
F#|-9-9-9-9-9-9-9-9-13-13-13-13-13-13-13-13-11-11-11-11-11-11-11-11-11-11-11-11-11-11-11-11-|
C#|-x-x-x-x-x-x-x-x-x--x--x--x--x--x--x--x--x--x--x--x--x--x--x--x--x--x--x--x--x--x--x--x--|
D#|-7-7-7-7-7-7-7-7-11-11-11-11-11-11-11-11-9--9--9--9--9--9--9--9--9--9--9--9--9--9--9--9--|
C#|-----------------------------------------------------------------------------------------|

"It's not a dream anymore"

d#|----------------------------------------------------------------------|
A#|----------------------------------------------------------------------|
F#|-9-9-9-9--9-9-9-/11-11-11-11-9-9-9-/11-11-11-11\9-9-9-\8-8-8-8--8-8-8-| (x2)
C#|-x-x-x-x--x-x-x--x--x--x--x--x-x-x--x--x--x--x--x-x-x--x-x-x-x--x-x-x-|
D#|-7-7-7-7--7-7-7-/9--9--9--9--7-7-7-/9--9--9--9-\7-7-7-\6-6-6-6--6-6-6-|
C#|----------------------------------------------------------------------|

d#|--------------------------------------------------------------------------------------------|
A#|--------------------------------------------------------------------------------------------|
F#|-13-13-13-13--16-16-16-\13-13-13-13--16-16-16-\13-13-13-13--13-13-13-\11-11-11-11--11-11-11-|
C#|-x--x--x--x---x--x--x---x--x--x--x---x--x--x---x--x--x--x---x--x--x---x--x--x--x---x--x--x--|
D#|-11-11-11-11--14-14-14-\11-11-11-11--14-14-14-\11-11-11-11--11-11-11--9--9--9--9---9--9--9--|
C#|--------------------------------------------------------------------------------------------|

d#|-----------------------------------------------------------------------------------------------|
A#|-----------------------------------------------------------------------------------------------|
F#|-13-13-13-13--16-16-16-\13-13-13-13--16-16-16-\13-13-13-13--13-13-13-\11-11-11-11--11-11-11--9-|
C#|-x--x--x--x---x--x--x---x--x--x--x---x--x--x---x--x--x--x---x--x--x---x--x--x--x---x--x--x---x-|
D#|-11-11-11-11--14-14-14-\11-11-11-11--14-14-14-\11-11-11-11--11-11-11--9--9--9--9---9--9--9---7-|
C#|-----------------------------------------------------------------------------------------------|

"I can't believe we almost hung it up"

d#|--------x-x--x--------x-x--x---------x-x--x---------x-x--x---------x-x--x-------x-x--x-|
A#|--------x-x--x--------x-x--x---------x-x--x---------x-x--x---------x-x--x-------x-x--x-|
F#|-16-16--x-x--x--6-6---x-x--x--13-13--x-x--x--13-13--x-x--x--16-16--x-x--x--6-6--x-x--x-|
C#|-x--x---x-x--x--x-x---x-x--x--x--x---x-x--x--x--x---x-x--x--x--x---x-x--x--x-x--x-x--x-|
D#|-14-14--x-x--x--4-4---x-x--x--11-11--x-x--x--11-11--x-x--x--14-14--x-x--x--4-4--x-x--x-|
C#|--------x-x--x--------x-x--x---------x-x--x---------x-x--x---------x-x--x-------x-x--x-|

d#|--------x-x--x------x-x--x---------x-x--x-------x-x--x-|
A#|--------x-x--x------x-x--x---------x-x--x-------x-x--x-|
F#|-13-13--x-x--x--13--x-x--x--16-16--x-x--x--6-6--x-x--x-|
C#|-x--x---x-x--x--x---x-x--x--x--x---x-x--x--x-x--x-x--x-|
D#|-11-11--x-x--x--11--x-x--x--14-14--x-x--x--4-4--x-x--x-|
C#|--------x-x--x------x-x--x---------x-x--x-------x-x--x-|

d#|--------x-x--x---------x-x--x---------x-x--x-------x---------------|
A#|--------x-x--x---------x-x--x---------x-x--x-------x---------------|
F#|-13-13--x-x--x--13-13--x-x--x--16-16--x-x--x--6-6--x--6-6-6--6---9-|
C#|-x--x---x-x--x--x--x---x-x--x--x--x---x-x--x--x-x--x--x-x-x--x---x-| (let ring)
D#|-11-11--x-x--x--11-11--x-x--x--14-14--x-x--x--4-4--x--4-4-4--4---7-|
C#|--------x-x--x---------x-x--x---------x-x--x-------x---------------|

Please RATE/COMMENT.

************************************

| /   slide up
| \   slide down
| x   (Palm)Mute note


************************************
comments
print report bad tab
I want to post or [tab]
guest
You may want to rate the tab now too:
select rating
Please do not post tabs as comments. Select "correction" instead!