Oops, an error
Loading. Please wait.

Misery Business Tab

306,051 views 851 this week
17 commentsread comments
1 2 3 4 5
worth learning
x 23
Autoscroll
+/-
esc
set tempo
stop
Tuning
D A D G B E
Hey! There's an official Ultimate Guitar app which is ideal
for learning songs when you're away from computer. Get the app
WARNING: You are trying to view
                                    content from Ultimate-Guitar.com
                                    in an unauthorized application,
                                    which is prohibited.

                                    Please use an official Ultimate
                                    Guitar Tabs application for iPhone,
                                    iPad or Android to access legitimate
                                    chords, guitar, bass, and drum tabs
                                    from Ultimate-Guitar.com database.

                                    Type "ultimate guitar tabs" in Apple
                                    App Store's or Android Market's
                                    search to find the application.
(INTRO)
E|----------------------------------------------------------------|
B|----------------------------------------------------------------|
G|----------------------------------------------------------------|
D|---4-4--4-----------2-2--2-2-2----4-4--4-----------0-0-0-0-0-0--|
A|---4-4--4--2-4-2-4--2-2--2-2-2----4-4--4--2-4-2-4--0-0-0-0-0-0--|
D|---4-4--4-----------2-2--2-2-2----4-4--4-----------0-0-0-0-0-0--|


E|----------------------------------------------------------------|
B|----------------------------------------------------------------|
G|----------------------------------------------------------------|
D|---4-4--4-----------2-2--2-2-2----4-4--4-------------------2-4--|
A|---4-4--4--2-4-2-4--2-2--2-2-2----4-4--4--2-4-2-4------2-4------|
D|---4-4--4-----------2-2--2-2-2----4-4--4-----------2-4----------|


(VERSE)
E|-------------------------------------------------------------------|
B|-------------------------------------------------------------------|
G|-------------------------------------------------------------------|
D|---4-4-4-4-4-4-4-4-2-2-2-2-2-2-2-2-4-4-4-4-4-4-4-4-0-0-0-0-0-0-0-0-|
A|---4-4-4-4-4-4-4-4-2-2-2-2-2-2-2-2-4-4-4-4-4-4-4-4-0-0-0-0-0-0-0-0-|
D|---4-4-4-4-4-4-4-4-2-2-2-2-2-2-2-2-4-4-4-4-4-4-4-4-0-0-0-0-0-0-0-0-|
   (PM)------------------------------------------------------------(PM)
                                                                         2X
E|-------------------------------------------------------------------|
B|-------------------------------------------------------------------|
G|-------------------------------------------------------------------|
D|---4-4-4-4-4-4-4-4-2-2-2-2-2-2-2-2-4-4-4-4-4-4-4-4-7-7-7-7-6-6-6-6-|
A|---4-4-4-4-4-4-4-4-2-2-2-2-2-2-2-2-4-4-4-4-4-4-4-4-7-7-7-7-6-6-6-6-|
D|---4-4-4-4-4-4-4-4-2-2-2-2-2-2-2-2-4-4-4-4-4-4-4-4-7-7-7-7-6-6-6-6-|
   (PM)------------------------------------------------------------(PM)


E|-------------------------------------------------------------------|
B|----5-x-5-x-5-8-5-8------------------------------------------------|
G|-------------------------------------------------------------------|
D|-------------------------------------------------------------------|  8X
A|-------------------------------------------------------------------|
D|-------------------------------------------------------------------|

B4 THE CHORUS
E|-------------------------------------------------------------------|
B|-------------------------------------------------------------------|
G|-------------------------------------------------------------------|
D|----44444444-22222-------------------------------------------------| 
A|----44444444-22222-------------------------------------------------|
D|----44444444-22222-------------------------------------------------|

CHORUS
E|-------------------------------------------------------------------|
B|--77777777---------------------------------------------------------|
G|--66666666----------44444444-77776666------------------------------|
D|--44444444-77777777-22222222-44444444------------------------------|  2X
A|--55555555-77777777-22222222-44444444------------------------------|
D|-----------77777777-22222222-44444444------------------------------|

E|-------------------------------------------------------------------|
B|-------------------------------------------------------------------|
G|-------------------------------------------------------------------|
D|-0-x-0-x-0-x-0-x-0-x-0-x-0h4-4--2-x-2-x-2-x-2-x-2-x-2-x-2h4-4------|  
A|-0-x-0-x-0-x-0-x-0-x-0-x-0h4-4--2-x-2-x-2-x-2-x-2-x-2-x-2h4-4------|
D|-0-x-0-x-0-x-0-x-0-x-0-x-0h4-4--2-x-2-x-2-x-2-x-2-x-2-x-2h4-4------|
  does it feel so good...

E|-------------------------------------------------------------------|
B|-------------------------------------------------------------------|
G|-------------------------------------------------------------------|
D|-0-x-0-x-0-x-0-x-0-x-0-x-0h4-4--2-x-2-x-2-x-2-x--44444-------------|  
A|-0-x-0-x-0-x-0-x-0-x-0-x-0h4-4--2-x-2-x-2-x-2-x--44444-------------|
D|-0-x-0-x-0-x-0-x-0-x-0-x-0h4-4--2-x-2-x-2-x-2-x--44444-------------|


E|----------------------------------------------------------------|
B|----------------------------------------------------------------|
G|----------------------------------------------------------------|
D|---4-4--4-----------2-2--2-2-2----4-4--4-----------7777---------|
A|---4-4--4--2-4-2-4--2-2--2-2-2----4-4--4--2-4-2-4--7777---------|
D|---4-4--4-----------2-2--2-2-2----4-4--4-----------7777---------|


VERSE
E|-------------------------------------------------------------------|
B|-------------------------------------------------------------------|
G|-------------------------------------------------------------------|
D|---4-4-4-4-4-4-4-4-2-2-2-2-2-2-2-2-4-4-4-4-4-4-4-4-0-0-0-0-0-0-0-0-|
A|---4-4-4-4-4-4-4-4-2-2-2-2-2-2-2-2-4-4-4-4-4-4-4-4-0-0-0-0-0-0-0-0-|
D|---4-4-4-4-4-4-4-4-2-2-2-2-2-2-2-2-4-4-4-4-4-4-4-4-0-0-0-0-0-0-0-0-|
   (PM)------------------------------------------------------------(PM)
                                                                         2X
E|-------------------------------------------------------------------|
B|-------------------------------------------------------------------|
G|-------------------------------------------------------------------|
D|---4-4-4-4-4-4-4-4-2-2-2-2-2-2-2-2-4-4-4-4-4-4-4-4-7-7-7-7-6-6-6-6-|
A|---4-4-4-4-4-4-4-4-2-2-2-2-2-2-2-2-4-4-4-4-4-4-4-4-7-7-7-7-6-6-6-6-|
D|---4-4-4-4-4-4-4-4-2-2-2-2-2-2-2-2-4-4-4-4-4-4-4-4-7-7-7-7-6-6-6-6-|
   (PM)------------------------------------------------------------(PM)


E|-------------------------------------------------------------------|
B|----5-x-5-x-5-8-5-8------------------------------------------------|
G|-------------------------------------------------------------------|
D|-------------------------------------------------------------------|  8X
A|-------------------------------------------------------------------|
D|-------------------------------------------------------------------|

B4 THE CHORUS
E|-------------------------------------------------------------------|
B|-------------------------------------------------------------------|
G|-------------------------------------------------------------------|
D|----44444444-22222-------------------------------------------------| 
A|----44444444-22222-------------------------------------------------|
D|----44444444-22222-------------------------------------------------|

CHORUS
E|-------------------------------------------------------------------|
B|--77777777---------------------------------------------------------|
G|--66666666----------44444444-77776666------------------------------|
D|--44444444-77777777-22222222-44444444------------------------------|  2X
A|--55555555-77777777-22222222-44444444------------------------------|
D|-----------77777777-22222222-44444444------------------------------|

E|-------------------------------------------------------------------|
B|-------------------------------------------------------------------|
G|-------------------------------------------------------------------|
D|-0-x-0-x-0-x-0-x-0-x-0-x-0h4-4--2-x-2-x-2-x-2-x-2-x-2-x-2h4-4------|  
A|-0-x-0-x-0-x-0-x-0-x-0-x-0h4-4--2-x-2-x-2-x-2-x-2-x-2-x-2h4-4------|
D|-0-x-0-x-0-x-0-x-0-x-0-x-0h4-4--2-x-2-x-2-x-2-x-2-x-2-x-2h4-4------|
  does it feel so good...

E|-------------------------------------------------------------------|
B|-------------------------------------------------------------------|
G|-------------------------------------------------------------------|
D|-0-x-0-x-0-x-0-x-0-x-0-x-0h4-4--2-x-2-x-2-x-2-x--44444-------------|  
A|-0-x-0-x-0-x-0-x-0-x-0-x-0h4-4--2-x-2-x-2-x-2-x--44444-------------|
D|-0-x-0-x-0-x-0-x-0-x-0-x-0h4-4--2-x-2-x-2-x-2-x--44444-------------|

(BRIDGE)
E|---------------------------------------|
B|--7------------------------------------|
G|--6-9-4-6------------------------------|
D|--4-7-2-4------------------------------|  4X
A|--5-7-2-4------------------------------|
D|----7-2-4------------------------------|

(ADLIB)
The other guitar plays the chorus
E|-------------------------------------------------|
B|-------------------------------------------------|
G|--9/11-11-11-11-11-11----------------------------| 
D|--x-x--x--x--x--x--x-----------------------------|3X
A|--7/9--9--9--9--9--9-----------------------------|
D|-------------------------------------------------| 
                                                        2X
E|-------------------------------------------------|
B|-------------------------------------------------|
G|-------------------------------------------------| 
D|--12-12-12-12-12-12-12-12-11-11-11-11-11-11-11-11|
A|-------------------------------------------------|
D|-------------------------------------------------| 

E|-----------------------------------------------------------------|
B|-----------------------------------------------------------------|
G|--9-9-9-9-9-9-9-9------------------------------------------------| 
D|------------------12-12-12-12-12-12-12-12-11-11-11-11-11-11-11-11|
A|-----------------------------------------------------------------|
D|-----------------------------------------------------------------| 

E|-----------------------------------------------------------------|
B|-----------------------------------------------------------------|
G|-----------------------------------------------------------------| 
D|-11-11-11-11-11-11-11-11-9-9-9-9-9-9-9-9-9-----------------------|
A|-----------------------------------------------------------------|
D|-----------------------------------------------------------------|

E|-----------------------------------------------------------------|
B|-----------------------------------------------------------------|
G|-9-9-9-9-9-9-9-9-11-11-11-11-11-11-11-11-------------------------| 
D|-----------------------------------------------------------------|
A|-----------------------------------------------------------------|
D|-----------------------------------------------------------------|

E|-----------------------------------------------------------------|
B|-10-10-10-10-12-12-14-9\-----------------------------------------|
G|-----------------------------------------------------------------| 
D|-----------------------------------------------------------------|
A|-----------------------------------------------------------------|
D|-----------------------------------------------------------------|

CHORUS
E|-------------------------------------------------------------------|
B|--77777777---------------------------------------------------------|
G|--66666666----------44444444-77776666------------------------------|
D|--44444444-77777777-22222222-44444444------------------------------|  2X
A|--55555555-77777777-22222222-44444444------------------------------|
D|-----------77777777-22222222-44444444------------------------------|

E|-------------------------------------------------------------------|
B|-------------------------------------------------------------------|
G|-------------------------------------------------------------------|
D|-0-x-0-x-0-x-0-x-0-x-0-x-0h4-4--2-x-2-x-2-x-2-x-2-x-2-x-2h4-4------|  
A|-0-x-0-x-0-x-0-x-0-x-0-x-0h4-4--2-x-2-x-2-x-2-x-2-x-2-x-2h4-4------|
D|-0-x-0-x-0-x-0-x-0-x-0-x-0h4-4--2-x-2-x-2-x-2-x-2-x-2-x-2h4-4------|
  does it feel so good...

E|-------------------------------------------------------------------|
B|-------------------------------------------------------------------|
G|-------------------------------------------------------------------|
D|-0-x-0-x-0-x-0-x-0-x-0-x-0h4-4--2-x-2-x-2-x-2-x--44444-------------|  
A|-0-x-0-x-0-x-0-x-0-x-0-x-0h4-4--2-x-2-x-2-x-2-x--44444-------------|
D|-0-x-0-x-0-x-0-x-0-x-0-x-0h4-4--2-x-2-x-2-x-2-x--44444-------------|

(OUTRO)
E|----------------------------------------------------------------|
B|----------------------------------------------------------------|
G|----------------------------------------------------------------|
D|---4-4--4-----------2-2--2-2-2----4-4--4-----------0-0-0-0-0-0--|
A|---4-4--4--2-4-2-4--2-2--2-2-2----4-4--4--2-4-2-4--0-0-0-0-0-0--|
D|---4-4--4-----------2-2--2-2-2----4-4--4-----------0-0-0-0-0-0--|


E|----------------------------------------------------------------|
B|----------------------------------------------------------------|
G|----------------------------------------------------------------|
D|---4-4--4-----------2-2--2-2-2----4-4--4-----------77777--------|
A|---4-4--4--2-4-2-4--2-2--2-2-2----4-4--4--2-4-2-4--77777--------|
D|---4-4--4-----------2-2--2-2-2----4-4--4-----------77777--------|
comments
print report bad tab
17 comments total. Showing first comments.
-1 reply
guitarlas19 wrote on May 18 2007, 04:13 pm

this is a fairly decent tab it sounds a little low but not bad.
on the beginning id change one thing from how it is though. Instead of

e/-------------------- -----------------------------
B/-------------------- -----------------------------
G/-------------------- I'd do -----------------------------
D/---4-4--4----------- ---4-4-----------------------
A/---4-4--4--2-4-2-4-- ---4-4-0-2-4-2---------------
D/---4-4--4----------- ---4-4-----------------------

thats just me.

-1 reply
crazymonky09 wrote on May 24 2007, 03:33 pm

Intro :
E|----------------------------------------------------------------|
B|----------------------------------------------------------------|
G|---9-9--9-----------7-7--7-7-7----9-9--9-----------4-4-4-4-4-4--|
D|---9-9--9--7-9-7-9--7-7--7-7-7----9-9--9--7-9-7-9--4-4-4-4-4-4--|
A|---7-7--7-----------5-5--5-5-5----7-7--7-----------2-2-2-2-2-2--|
D|----------------------------------------------------------------|

Maybe it's wrong but I think it's right

+1 reply
ShadowPitch wrote on May 27 2007, 03:57 pm

Are you sur3e the chorus is right?

I want to post or [tab]
guest
You may want to rate the tab now too:
select rating
Please do not post tabs as comments. Select "correction" instead!