Oops, an error
Loading. Please wait.

Paramore Album Tab

3,369 views 31 this week
no commentswrite comment
1 2 3 4 5
excellent!
x 4
Autoscroll
+/-
esc
set tempo
stop
Difficulty
novice
Hey! There's an official Ultimate Guitar app which is ideal
for learning songs when you're away from computer. Get the app
WARNING: You are trying to view
                                    content from Ultimate-Guitar.com
                                    in an unauthorized application,
                                    which is prohibited.

                                    Please use an official Ultimate
                                    Guitar Tabs application for iPhone,
                                    iPad or Android to access legitimate
                                    chords, guitar, bass, and drum tabs
                                    from Ultimate-Guitar.com database.

                                    Type "ultimate guitar tabs" in Apple
                                    App Store's or Android Market's
                                    search to find the application.
1. Fast in my Car       3.42
2. Now                  4:07
3. Grow Up              3:50
4. Daydreaming  4:31
5. Interlude: Moving On 1:30
6. Ain't it Fun         4:56
7. Part II              4:41
8. Last Hope            5:09
9. Still Into You               3:36
10. Anklebiters         2:17
11. Interlude: Holiday  1:09
12. Proof               3:15
13. Hate to See Your Heartbreak 5:09
14. (One of Those) Crazy Girls  3:32
15. Interlude: I'm Not Angry Anymore 0:52
16. Be Alone            3:40
17. Future              7:52
---------------------------------------------------------------------------------------------------------
Contributed by >BaD.TiGeR<
PARAMORE
Fast in my car
Standard tuning
tabbed by: Claire

Intro:
|--0---0---0---0---0---0---|
|--0---0---0---0---0---0---|
|--0---0---0---0---0---0---|
|--0---0---0---0---0---0---|
|--0---0---0---0---0---0---|
|--0---0---0---0---0---0---|

(Riff)
|-------------------|-------------------|
|-------------------|-------------------|
|-------------------|-------------------|
|----------9--------|----------9--------|
|----5----------22--|----5---------252--|
|--3---3-7---7--00--|--3---3-7---7-030--| x2

Verse:
Bass plays the riff
Then guitar plays:
|----3-2---|----3-2---------|----3-2---|----3-2----------|
|--3-----0-|--3-----0---3---|--3-----0-|--3-----0--------|
|----------|----------0---4-|----------|-----------------|
|----------|----------------|----------|-----------------|
|----------|----------------|----------|----------7-10-7-|
|----------|----------------|----------|-----------------|

Chorus:
Guitar 1:
|-----------------------2-3-2----|------------------------2-7--|
|----3-0---3-0----3-0---------3--|----3-0----3-0----3-0--------|
|--0-----00----00-----0----------|--0-----00-----00-----0------|
|--------------------------------|-----------------------------|
|--------------------------------|-----------------------------|
|--------------------------------|-----------------------------|

-----------------------2-3-2----|-------------------------------|
----3-0---3-0----3-0---------3--|----3-0----3-0----3-0-------3--|
--0-----00----00-----0----------|--0-----00-----00-----0-2-4----|
--------------------------------|-------------------------------|
--------------------------------|-------------------------------|
--------------------------------|-------------------------------|

Guitar 2:
|------------------|------------------|
|------------------|------------------|
|------------------|--------------55--|
|--55-599-922-222--|--55-599-922-255--|
|--55-599-922-222--|--55-599-922-233--|
|--33-377-700-000--|--33-377-700-0----| x2

Pre Rit:
|---------------|
|---------------|
|---------------|
|----------9----|
|----5----------|
|--3---3-7---7--|

Verse:
Bass plays the riff
Guitar plays (each note many times, just figure it out)
|-------------------|------17--19------|
|---17--19--20--17--|--17----------17--|
|-------------------|------------------|
|-------------------|------------------|
|-------------------|------------------|
|-------------------|------------------|

Chorus.

Interlude:
|---------------------------------|------------------------------------------|
|---------------------------------|------------------------------------------|
|--22-------22--------------------|------------------------------------------|
|--22-------22-------4------4-44--|----2---2----2---2---2---2----2---2-------|
|--00--12b--00--10b--4--9b--4-44--|----2---2----2---2---2---2----2---2---X2--|
|--------------------2------2-22--|--0---0---00---0---0---0---00---0---------|

|---------------|     |----------------------------------------------------|
|---------------|     |----------------------------------------------------|
|---------------|     |--999911111111121212121414141416161616171717171919--|
|----------9----|     |----------------------------------------------------|
|----5----------|     |----------------------------------------------------|
|--3---3-7---7--| x3  |----------------------------------------------------|

Chorus x2

2nd time Guitar 1 plays (each note many times, just figure it out)
|-------------------|------17--19------|
|---17--19--20--17--|--17----------17--|
|-------------------|------------------|
|-------------------|------------------|
|-------------------|------------------|
|-------------------|------------------|

End:
|-----------------|
|-----------------|
|-----------------|
|----------9------|
|----5------------|
|--3---3-7---7/0--|

---------------------------------------------------------------------------------------------------------
Contributed by HayleysFireHead
Paramore - Now

Tuning: standard

INTRO "Don't try to take this from me..."
e|--------------------------------------------------------------------------|
B|--------------------------------------------------------------------------|
G|--------------------------------------------------------------------------|
D|--------------------------------------------------------------------------|
A|--------------------------------------------------------------------------|
E|-3/12-12-12-12\3-3-3-3/12-12-12-12\3-3-3-5/8-8-8-8\5-5-5-5/10-10-8-8-5-5-5|(x2)


VERSE "Feels like im waking from the dead..."
e|--------------------------------------------------------------------------|
B|--------------------------------------------------------------------------|
G|--------------------------------------------------------------------------|
D|--------------------------------------------------------------------------|
A|--------------------------------------------------------------------------|
E|-3/12-12-12-12\3-3-3-3/12-12-12-12\3-3-3-5/8-8-8-8\5-5-5-5/10-10-8-8-5-5-5|(x4)


PRE-CHORUS Bend up the last note (listen to the song for it) "Lost the battle..."
e|-------------------------------------------------------------------------|
B|-------------------------------------------------------------------------|
G|-444444444444-2222-4444-555555555555-77-55-99999999-7777-9999 9^-(x16)---|
D|-------------------------------------------------------------------------|
A|-------------------------------------------------------------------------|
E|-------------------------------------------------------------------------|

continued...

e|----------------------------------------1212121212121212---12-12^-(x16)--------|
B|--12121212-15-12-1313131313131313-15-13-----------------13---------------------|
G|-------------------------------------------------------------------------------|
D|-------------------------------------------------------------------------------|
A|-------------------------------------------------------------------------------|
E|-------------------------------------------------------------------------------|

CHORUS  "If there's a future we want it..."
e|---------------------------------------|
B|---------------------------------------|
G|--5(x12)-------------------------------|
D|--5(x12)----5(x4)----7(x16)------------|
A|--3(x12)----5(x4)----7(x16)------------|
E|------------3(x4)----5(x16)------------|

continued..                                   whole thing x 2

"If there's a future we want it..."  
e|--------------------------------------|
B|--------------------------------------|
G|--5(x12)------------------------------|
D|--5(x12)----5(x3)----7(x8)-----3(x8)--|
A|--3(x12)----5(x3)----7(x8)-----3(x8)--|
E|------------3(x3)----5(x8)-----1(x8)--|


INBETWEEN CHORUS AND VERSE "Don't try to take this from me..."
e|--------------------------------------------------------------------------|
B|--------------------------------------------------------------------------|
G|--------------------------------------------------------------------------|
D|--------------------------------------------------------------------------|
A|--------------------------------------------------------------------------|
E|-3/12-12-12-12\3-3-3-3/12-12-12-12\3-3-3-5/8-8-8-8\5-5-5-5/10-10-8-8-5-5-5|

e|-------------------------------------------------------------------------|
B|-------------------------------------------------------------------------|
G|-------------------------------------------------------------------------|
D|-------------------------------------------------------12----------------|
A|-------------------------------------------------------12----------------|
E|-3/12-12-12-12\3-3-3-3/12-12-12-12~--------------------12----------------|


VERSE
e|-------------------------------------------------------------------------|
B|-------------------------------------------------------------------------|
G|-------------------------------------------------------------------------|
D|-------------------------------------------------------------------------|
A|-------------------------------------------------------------------------|
E|-3/12-12-12-12\3-3-3-3/12-12-12-12/3-3-3---------------------------------|

e|-------------------------------------------------------------------------|
B|-------------------------------------------------------------------------|
G|-------------------------------------------------------------------------|
D|-------------------------------------------------------------------------|
A|-------------------------------------------------------------------------|
E|-3/12-12-12-12\3-3-3-3/12-12-12-12\3-3-3-5/8-8-8-8\5-5-5-5/10-10-8-8-5-5-|(x3)


PRE-CHORUS Bend up the last note (listen to the song for it) "Lost the battle..."
e|-------------------------------------------------------------------------|
B|-------------------------------------------------------------------------|
G|-444444444444-2222-4444-555555555555-77-55-99999999-7777-9999 9^-(x16)---|
D|-------------------------------------------------------------------------|
A|-------------------------------------------------------------------------|
E|-------------------------------------------------------------------------|

continued...

e|----------------------------------------1212121212121212---12-12^-(x16)--------|
B|--12121212-15-12-1313131313131313-15-13-----------------13---------------------|
G|-------------------------------------------------------------------------------|
D|-------------------------------------------------------------------------------|
A|-------------------------------------------------------------------------------|
E|-------------------------------------------------------------------------------|

CHORUS  "If there's a future we want it..."
e|---------------------------------------|
B|---------------------------------------|
G|--5(x12)-------------------------------|
D|--5(x12)----5(x4)----7(x16)------------|
A|--3(x12)----5(x4)----7(x16)------------|
E|------------3(x4)----5(x16)------------|

continued..                                   whole thing x 2

"If there's a future we want it..."  
e|--------------------------------------|
B|--------------------------------------|
G|--5(x12)------------------------------|
D|--5(x12)----5(x3)----7(x8)-----3(x8)--|
A|--3(x12)----5(x3)----7(x8)-----3(x8)--|
E|------------3(x3)----5(x8)-----1(x8)--|


BRIDGE  "There's a time and a place to die..."

e|---------------10---12----------------10-12^13V12--------------------|
B|--10-10--13-13------------10-10-13-13--------------------------------|
G|---------------------------------------------------------------------|
D|---------------------------------------------------------------------|
A|---------------------------------------------------------------------|
E|---------------------------------------------------------------------|

e|--------------10------------------10---------------------------------|
B|--10-10-13-13------13-12-12-13-13------------------------------------|
G|---------------------------------------------------------------------|
D|---------------------------------------------------------------------|
A|---------------------------------------------------------------------|
E|---------------------------------------------------------------------|

e|---------------10---12----------------10-12^13V12--------------------|
B|--10-10--13-13------------10-10-13-13--------------------------------|
G|---------------------------------------------------------------------|
D|---------------------------------------------------------------------|
A|---------------------------------------------------------------------|
E|---------------------------------------------------------------------|

e|----------10-------------------------------------------------------|
B|---10-13------13--12--13-------------------------------------------|
G|-------------------------------------------------------------------|
D|-------------------------------------------------------------------|
A|-------------------------------------------------------------------|
E|-------------------------------------------------------------------|


PRE-CHORUS Bend up the last note (listen to the song for it) "Lost the battle..."
e|-------------------------------------------------------------------------|
B|-------------------------------------------------------------------------|
G|-444444444444-2222-4444-555555555555-77-55-99999999-7777-9999 9^-(x16)---|
D|-------------------------------------------------------------------------|
A|-------------------------------------------------------------------------|
E|-------------------------------------------------------------------------|

e|----------------------------------------1212121212121212---12-12^-(x16)--------|
B|--12121212-15-12-1313131313131313-15-13-----------------13---------------------|
G|-------------------------------------------------------------------------------|
D|-------------------------------------------------------------------------------|
A|-------------------------------------------------------------------------------|
E|-------------------------------------------------------------------------------|

CHORUS  "If there's a future we want it..."
e|---------------------------------------|
B|---------------------------------------|
G|--5(x12)-------------------------------|
D|--5(x12)----5(x4)----7(x16)------------|
A|--3(x12)----5(x4)----7(x16)------------|
E|------------3(x4)----5(x16)------------|

continued..

"If there's a future we want it..."  
e|--------------------------------------|
B|--------------------------------------|
G|--5(x12)------------------------------|
D|--5(x12)----5(x3)----7(x8)-----3(x8)--|
A|--3(x12)----5(x3)----7(x8)-----3(x8)--|
E|------------3(x3)----5(x8)-----1(x8)--|

continued..


"If there's a future we want it..."
e|---------------------------------------|
B|---------------------------------------|
G|--5(x12)-------------------------------|
D|--5(x12)----5(x4)----7(x16)------------|
A|--3(x12)----5(x4)----7(x16)------------|
E|------------3(x4)----5(x16)------------|

"If there's a future we want it..."  
e|-------------------------------------------------------------------------|
B|-------------------------------------------------------------------------|
G|--5(x12)-----------------------------------------------------------------|
D|--5(x12)----5(x3)----7(x8)-----3(x8)----7(x8)-----3(x8)---7777/10101010--|
A|--3(x12)----5(x3)----7(x8)-----3(x8)----7(x8)-----3(x8)---7777/8-8-8-8---|
E|------------3(x3)----5(x8)-----1(x8)----5(x8)-----1(x8)---5555/8-8-8-8---|

---------------------------------------------------------------------------------------------------------
Contributed by AnnieOster
Grow Up
Hope you like it. Comment and rate and send me corrections! 
Annie

D
I told 'em all where to stick it
I left town with a dime to my name
        G
Said I'm done with all of my fake friends
Self-righteous pawns in a losing game
      D
Got my band and a light that won't go out
Been burning since the day I was born
     G
So I cry just little then I'll dry my eyes
  Em
'Cause I'm not a little girl no more

CHORUS:
D                                   Bm
Some of us have to grow up sometimes
       G                       Em
And so, if I have to, I'm gonna leave you behind
D                                   Bm
Some of us have to grow up sometimes
        G                             D
And so, if I have to, I'm gonna leave you behind


D
Stood in line for so long, it's a picket
Something I will never understand
   G
I'm too tired of always being mad at the world
           Em
Won't you just admit you don't care
     D
Lady I don't want your pity
So don't feel sad for me
         G
I got a love I would die for and a song to sing
        Em
Maybe we're both just living out our dreams

CHORUS:
D                                   Bm
Some of us have to grow up sometimes
       G                       Em
And so, if I have to, I'm gonna leave you behind
D                                   Bm
Some of us have to grow up sometimes
        G                             D
And so, if I have to, I'm gonna leave you behind


Bridge:
         G
We get along for the most part
           Em                      Bm
Me and reality, the light and the dark
              G
And we live alone
In two different worlds
           Em
Me and a fantasy,
                   Bm
And you and your memories

             G
But we get along
We get along
         Em
For the most part
         Bm
We get along
              G
Yea, for the most part
We get along
         Em
For the most part
         Bm
We get along
G
We get along
Em
We get along

CHORUS:

D                                   Bm
Some of us have to grow up sometimes
       G                       Em
And so, if I have to, I'm gonna leave you behind
D                                   Bm
Some of us have to grow up sometimes
        G                             D
And so, if I have to, I'm gonna leave you behind

D                                   Bm
Some of us have to grow up sometimes
       G                       Em
And so, if I have to, I'm gonna leave you behind
D                                   Bm
Some of us have to grow up sometimes
        G                             D
And so, if I have to, I'm gonna leave you behind

---------------------------------------------------------------------------------------------------------
Contributed by destinydan11
Song: Daydreaming
Artist: Paramore
Album: Self-Titled Album (Paramore)

STANDARD TUNING:
D = X00232
D/C# = X40232 or 
G = 320033
Bm = X24432
F#m = 244222

You can use these chords or power chords if you prefer. 
Keep jamming!

Intro: D - G x4; D - G x2

D          D/C#                 G
Living in a city of sleepless people
D            D/C#                 G              
Who all know the limits and won't go too far 
D     A     G
outside the lines       
D         A              G
Cause they're' out of their minds.

Bm            F#m                  G
I wanna get out and build my own home
Bm                F#m           G 
On a street where reality is not much different 
D       A            G
from dreams I've had
D      A             G
A dream is all I have... 

Chorus:
D
Daydreaming
G
Daydreaming all the time
D
Daydreaming
G
Daydreaming into the night 
D
Daydreaming
G
Daydreaming all the time
D           A 
Daydreaming
                G
Daydreaming into the night 
             D - G
And I'm alright


D              D/C#                G                                   
Creep past the hours like the shorter hand on 
D                         D/C#        G
the clock Hanging on a wall of a schoolhouse somewhere
D         A       G
We wait for the bell
D         A            G
And we dream of somewhere else

Chorus:
D
Daydreaming
G
Daydreaming all the time
D
Daydreaming
G
Daydreaming into the night 
D
Daydreaming
G
Daydreaming all the time
D
Daydreaming
A                  G
Daydreaming into the night 
And I'm alright

Bridge:
Bm       A             G             D            
Not that I won't remember where I'm from
Bm         A                G
Just don't wanna be here no more
Bm         A
It's not enough
G            D
(We're only half alive)
Bm        A
I'm gonna go
G        D
(We're only half alive)
Bm                        A
Where the rest of the dreamers go
G                
Where the dreamers go
(The lyrics are kinda confusing but the chord pattern is the same,
figure it out a bit from yourself)

Interval:
D
D-G x2

Chorus:
D
Daydreaming
G
Daydreaming all the time
D
Daydreaming
A                  G
Daydreaming into the night 
And I'm alright

D
Daydreaming
G
Daydreaming all the time
D
Daydreaming
A                  G
We used to be half alive
Now I'm alright
D          
G
I'm alright
D
G
I'm alright...


- D from Manila, Philippines

---------------------------------------------------------------------------------------------------------
Contributed by miarose96
Interlude: Moving On
(Verse)

                       G
Let ?em have their time
                       B      
Sit back and let ?em shine
                       Em
Let ?em rise and rise 
                  C                              G
?Cause one day they?re gonna fall

                             G
Let ?em soak in the sun
                             B
Sit back and let ?em have their fun
                           Em
Let ?em spill their guts 
                 C                                         G
?Cause one day they?re gonna slip on ?em

(Chorus)
       
       G               B                Em                      C
Well I could be angry but you?re not worth a fight
           G              C           G
And besides, I?m moving on
      G                B            Em               C
I?ve counted to ten and I?m feeling alright
      G                  C            G
And besides, I?m moving on

(Verse)

                            G
Let ?em play their songs
                            B
Let ?em say what?s right and wrong
                           Em
Let ?em do their thing 
                 C                           G
?Cause it?ll never be you and me

                         G
We got our own style
                         B
We got a way of living life
                         Em
If they can?t get down
              C                               G
Well, we don?t need them around

(Chorus)
       
       G               B                Em                      C
Well I could be angry but you?re not worth a fight
           G              C           G
And besides, I?m moving on
      G                B            Em               C
I?ve counted to ten and I?m feeling alright
      G                  C
And besides, I?m moving?
B            E
Yes, I?m moving?
           C               D           G
And besides, I?m moving on

---------------------------------------------------------------------------------------------------------
Contributed by wewwew123
Paramore - Ain't It Fun
Standard Tuning
follow me :) https://twitter.com/dejpelayo

Intro
e|-----------------------------------------------------------|
B|-----------------------------------------------------------|
G|4h6---4h6----4h6----4h6---4h6------4h6-6-------------------|
D|----6-----6------6------6-----6----------------------------|
A|-----7-------7-----7-----7------7--------------------------|
E|-----------------------------------------------------------|

Verse
e|--------------------------------------------------------------------|
B|--------------------------------------------------------------------|
G|----4h6----4h6----4h6---4h6-----------------------------------------|
D|--6-----6------6------6-----6------------------------------|repeat--| 4x
A|---7------7------7-----7-----7--------------------------------------|
E|--------------------------------------------------------------------|

Pre-Chorus
e|-----------------------------------------------------------|
B|-----------------------------------------------------------|
G|----4h6----4h6----4h6---4h6--------------------------------|
D|--6-----6------6------6-----6------------------------------|
A|---7------7-----7------7-----------------------------------|
E|-----------------------------------------------------------|

e|-------------------------------------------------------------|
B|-------------------------------------------------------------|
G|----4h6----4h6----4h6---4h6-6--------------------------------|
D|--6-----6------6------6--------------------------------------|
A|---7------7------7-------------------------------------------|
E|-------------------------------------------------------------|

Chorus
e|----------------------------------------------------------------------------|
B|----------------------------------------------------------------------------|
G|----------------------------------------------------------------------------|
D|--77777777--11111111-(11's)--999999--77777777--1111111-(11's)--999999-------|
A|--77777777--11111111-(11's)--999999--77777777--1111111-(11's)--999999-------|
E|--55555555--999999-----------777777--55555555--999999----------777777-------|

Verse
e|-----------------------------------------------------------|
B|-----------------------------------------------------------|
G|----4h6----4h6----4h6---4h6--------------------------------|
D|--6-----6------6------6-----6------------------------------|repeat 4x
A|---7------7------7-----7-----7-----------------------------|
E|-----------------------------------------------------------|

Pre-Chorus
e|-------------------------------------------------------------|
B|-------------------------------------------------------------|
G|----4h6----4h6----4h6---4h6----------------------------------|
D|--6-----6------6------6-----6--------------------------------|
A|---7------7------7-----7-------------------------------------|
E|-------------------------------------------------------------|
Add this after that.
e|------------------------------------------------------|
B|------------------------------------------------------|
G|------------------------------------------------------|
D|-------4h6----4h6---4h6----4h6---4h6------------------|
A|----4h6----4h6---4h6----4h6---4h6---------------------|
E|------------------------------------------------------|
........just mess around :D......

e|-------------------------------------------------------------|
B|-------------------------------------------------------------|
G|----4h6----4h6----4h6---4h6-6--------------------------------|
D|--6-----6------6------6--------------------------------------|
A|---7------7-----7--------------------------------------------|
E|-------------------------------------------------------------|

Another Guitar do this
e|-----7-7-7-7-9-7-7-7-7-9-----------------------------------|
B|-----------------------------------------------------------|
G|-----------------------------------------------------------|
D|-----------------------------------------------------------|Repeat
A|-----------------------------------------------------------|
E|-----------------------------------------------------------|

Then Repeat Chorus
e|-------------------------------------------------------------------------|
B|-------------------------------------------------------------------------|
G|-------------------------------------------------------------------------|
D|--77777777--1111111-(11's)--999999--77777777--1111111-(11's)--999999-----|
A|--77777777--1111111-(11's)--999999--77777777--1111111-(11's)--999999-----|
E|--55555555--999999----------777777--55555555--999999----------777777-----|
lead guitar plays after ...."living in a real world"....
e|------7-----------7-------------7--------------------------|
B|------------9-----------7--------------5-------------------|
G|-----------------------------------------------------------|
D|-----------------------------------------------------------|
A|-----------------------------------------------------------|
E|-----------------------------------------------------------|
Next
...ain't it good to be on your own ........... (just repeat the chords)
e|-----------------------------------------------------------|
B|-----------------------------------------------------------|
G|-----------------------------------------------------------|
D|------77777777--------------111111111----------------------|
A|------77777777--------------111111111----------------------|
E|------55555555--------------99999999-----------------------|

e|-------------------------------------------------------------------------|
B|-------------------------------------------------------------------------|
G|-------------------------------------------------------------------------|
D|--77777777--1111111-(11's)--999999--77777777--1111111-(11's)--999999-----|
A|--77777777--1111111-(11's)--999999--77777777--1111111-(11's)--999999-----|
E|--55555555--999999----------777777--55555555--999999----------777777-----|

Bridge
e|-----------------------------------------------------------|
B|-----------------------------------------------------------|
G|-----------------------------------------------------------|
D|---77777777777777777-------2222222222222222----------------|
A|---77777777777777777-------2222222222222222----------------|
E|---55555555555555555-------0000000000000000----------------|
......................PALM MUTED...............................

CLAP ! CLAP! (YEAH !:D)\m/
then Chorus
After chorus
Then mix the bridge and this.
e|-----7-7-7-7-9-7-7-7-7-9-----------------------------------|
B|-----------------------------------------------------------|
G|-----------------------------------------------------------|
D|-----------------------------------------------------------|Repeat
A|-----------------------------------------------------------|
E|-----------------------------------------------------------|

End. Hope you Like It . If you have any song request . Send it to my gmail.
jp07221@gmail.com (PARAMORE ONLY!!)

PARAMORE ROCKS !!!

---------------------------------------------------------------------------------------------------------
Contributed by Life2Leftgo
Paramore - Part II
Tuning: drop D
Tabbed by: Gavin (youtube: crushgav)
updated 17-04-2013

watch my cover on youtube:

http://www.youtube.com/watch?v=4yFowXBuYc8

Intro 0:09 (distortion, slight delay)
e|----------------------------------------------------------------|
B|------------------------6-6--------------6-6-8------------------|
G|--15-15--9/12---------------9-7--2/5-----------7--14-^14/15-----|
D|----------------------------------------------------------------|
A|----------------------------------------------------------------|
D|----------------------------------------------------------------|

Verse (0:24) overdrive    Pre- Chorus (Oh glory..)
e|----------------------------------------8~-------8~--------------|
B|----------------------------------------10~------10~-------------|
G|----------------------------------------10~------10~-------------|
D|-8---10--8--5--3--5---------------------8~-------8~--------------|
A|-8---10--8--5--3--5-(2x)-----------------------------------------|
D|-----------------------------------------------------------------|

Chorus (distortion)
e|-------------------------------------------------------------------|
B|-------------------------------------------------------------------|
G|--7--------10-------10-------7-----------7--------10-------10--8---|
D|--7-(12x)--10-(12x)-8-(12x)--5-(12x)-----7-(12x)--10-(12x)-10--8---|
A|--5--------8--------8--------5-----------5--------8--------10--8---|
D|--------------------8--------5-----------------------------10--8---|

e|-----------------|
B|-----------------|
G|--15--15--9/12---|
D|-----------------|
A|-----------------|
D|-----------------|

Verse overdrive
e|----------------------------|
B|----------------------------|
G|----------------------------|
D|-8---10--8--5--3--5---------|
A|-8---10--8--5--3--5-(2x)----|
D|----------------------------|

Chorus (distortion)
e|-------------------------------------------------------------------|
B|-------------------------------------------------------------------|
G|--7--------10-------10-------7-----------7--------10-------10--8---|
D|--7-(12x)--10-(12x)-8-(12x)--5-(12x)-----7-(12x)--10-(12x)-10--8---|
A|--5--------8--------8--------5-----------5--------8--------10--8---|
D|--------------------8--------5-----------------------------10--8---|

Bridge (distortion, slight delay)
e|----------------------------------------------------------------------|
B|--------6-6-8----------------6-6------------6-6-8----------18-17------|
G|--2/5---------7--14-^14/15-------9-7--2/5---------7--14-14------------|
D|----------------------------------------------------------------------|
A|----------------------------------------------------------------------|
D|----------------------------------------------------------------------|

e|----------------------------------------------------------------------|
B|--------6-6-8----------------6-6------------6-6-8----------18-17------|
G|--------------7--14-^14/15-------9-7--2/5---------7--14-14------------|
D|----------------------------------------------------------------------|
A|----------------------------------------------------------------------|
D|----------------------------------------------------------------------|

Bridge guitar I LEAD (distortion, reverb and delay) tremelopick
e|----------------------------------------------------------------|
B|--1515151515 etc.. end 181818181717171715-----------------------|
G|----------------------------------------------------------------|
D|----------------------------------------------------------------|
A|----------------------------------------------------------------|
D|----------------------------------------------------------------|

Bridge guitar II RHYTM (distortion, slight delay)
e|-------------------------------|
B|-------------------------------|
G|--7--10--8--5------------------|
D|--7--10--8--5----(4x)----------|
A|--5--10--8--5------------------|
D|-----10--8--5------------------|

Outro 04:10 (distorion, tremelopick quietly)
e|-------------------------------------------------------------------|
B|-------------------------------------------------------------------|
G|-------------------------------------------------------------------|
D|--20202020202020202020202020202020202020202020 etc.-- end with 20~-|
A|-------------------------------------------------------------------|
D|-------------------------------------------------------------------|

---------------------------------------------------------------------------------------------------------
Contributed by cristy<3twilight
Paramore - Last Hope

STANDARD TUNING
W/ CAPO ON 3



G
 I don't even know myself at all 
                     D
I thought I would be happy, but now 
Bm                            A
 The more I try to push it, I realize 
                   D
Gotta let go of control 


             G
Gotta let it happen 
             D
Gotta let it happen
             Bm      A
Gotta let it happen 
            D
Just let it happen

 
            G
It's just a spark 
          Bm                  A 
But it's enough, to keep me going
              G                   D
And when it's dark out, no one's around 
             A
It keeps glowing



G D Bm A D
   

G
 Every night I try my best to dream 
                  D
Tomorrow makes it better
G 
 And wake up to the cold reality 
                    D
And not a thing has changed

 
            G
But it will happen 
             D
Gotta let it happen 
             G
Gotta let it happen 
             D
Gotta let it happen
 

            G
It's just a spark 
          Bm                  A 
But it's enough, to keep me going
              G                   D
And when it's dark out, no one's around 
             A
It keeps glowing


            G
It's just a spark 
          Bm                  A 
But it's enough, to keep me going
              G                   D
And when it's dark out, no one's around 
             A
It keeps glowing


        D         
But the salt in my wounds
                              G
Isn't burning anymore than it used to
              Bm
It's not that I don't feel the pain 
              A                        D
It's just I'm not afraid of hurting anymore 


        D
And the blood in these veins 
                              G
Isn't pumping any less than it ever has
               Bm
And that's the hope I have
         A                           D
The only thing I know is keeping me alive



(D)                   G
Alive... Gotta let it happen
             D
Gotta let it happen 
             Bm
Gotta let it happen 
             D
Gotta let it happen 
             G
Gotta let it happen 
             D
Gotta let it happen
             Bm
Gotta let it happen
             D
Gotta let it happen


            G
It's just a spark 
          Bm                  A 
But it's enough, to keep me going
(so if I let go of control now, I can be sure)
              G                   D
And when it's dark out, no one's around 
             A
It keeps glowing


            G
It's just a spark 
          Bm                  A 
But it's enough, to keep me going
(so if I keep my eyes closed, we get by it)
              G                   D
And when it's dark out, no one's around 
             A
It keeps glowing


G Bm A  G D  A  
Ahhh... Ahhh...

(soft)
G Bm A  G D A -once
Oooo..  Mmmm....



Have fun and RATE:)
cristy?twilight

---------------------------------------------------------------------------------------------------------
Contributed by bamzmab
Title: Still Into You
Artist: Paramore
Album: Paramore
Release: March 14 2013

I'm open to suggestions so don't hesitate to leave a comment. We have our own
opinions. Hope You like it!

Tuning: Drop D

1st Verse:

E------------------------------------------------|
B------------------------------------------------|
G------------------------------------------------| CONTINUED...
D-3-------2-3-------2----3--------2-3-------2----|
A-3---0-3---3---0-3---3--3----0-3---3---0-3---3--|
D-3-3-------3-3----------3--3-------3-3----------|

----------------------------------------------------------|
----------------------------------------------------------|
7------------7---------------7------------7---------------| REPEAT 2X
7------------7---------------7------------7---------------|
5-5--0--3--7-5-5--0--3--7--3-5-5--0--3--7-5-5--0--3--7--3-|
----------------------------------------------------------|

Can't count the years one hand
That we've been together
I need the other one to hold you.
Make you feel, make you feel better.
It's not a walk in the park
To love each other.
But when our fingers interlock,
Can't deny, can't deny you're worth it

Refrain: Palm Mute

E----------------------------------|
B----------------------------------|
G----------------------------------|
D-88888888-10101010101010-33333333-|
A-88888888-10101010101010-33333333-|
D-88888888-10101010101010-33333333-|

Cause after all this time.
I'm still into you

Chorus:

E------------------------------------------|
B------------------------------------------|
G------------------------------------------| Repeat this 2X then
D-88888888-10101010101010-3333333333333333-|
A-88888888-10101010101010-3333333333333333-|
D-88888888-10101010101010-3333333333333333-|

I should be over all the butterflies
But i'm into you (I'm in to you)
And baby even on our worst nights
I'm into you (I'm into you)

E------------------------------------------------------|
B------------------------------------------------------|
G-------------------------77777777---------------------|
D-88888888-10101010101010-77777777-33333333-88888888-10|
A-88888888-10101010101010-55555555-33333333-88888888-10|
D-88888888-10101010101010----------33333333-88888888-10|

Let em wonder how we got this far
Cause I don't really need to wonder at all
Yeah after all this time
I'm still into you

Short Version of Verse is Played here:

E------------------------------------------------|
B------------------------------------------------|
G------------------------------------------------|
D-3-------2-3-------2----3--------2-3-------2----|
A-3---0-3---3---0-3---3--3----0-3---3---0-3---3--|
D-3-3-------3-3----------3--3-------3-3----------|

2nd Verse:

E------------------------------------------------|
B------------------------------------------------|
G------------------------------------------------| CONTINUED...
D-3-------2-3-------2----3--------2-3-------2----|
A-3---0-3---3---0-3---3--3----0-3---3---0-3---3--|
D-3-3-------3-3----------3--3-------3-3----------|

----------------------------------------------------------|
----------------------------------------------------------|
7------------7---------------7------------7---------------| REPEAT 2X
7------------7---------------7------------7---------------|
5-5--0--3--7-5-5--0--3--7--3-5-5--0--3--7-5-5--0--3--7--3-|
----------------------------------------------------------|

Recount the night that I first
Met your mother
And on the drive back to my house
I told you that, I told you that I loved ya.
You felt the weight of the world
Fall off your shoulder
And to your favorite song
We sang along to the start of forever

Refrain: Palm Mute

E------------------------------------------|
B------------------------------------------|
G------------------------------------------|
D-88888888-10101010101010-3333333333333333-|
A-88888888-10101010101010-3333333333333333-|
D-88888888-10101010101010-3333333333333333-|

And after all this time.
I'm still into you

Chorus:

E------------------------------------------|
B------------------------------------------|
G------------------------------------------| Repeat this 2X then
D-88888888-10101010101010-3333333333333333-|
A-88888888-10101010101010-3333333333333333-|
D-88888888-10101010101010-3333333333333333-|

I should be over all the butterflies
But i'm into you (I'm in to you)
And baby even on our worst nights
I'm into you (I'm into you)

E--------------------------------------------------------------------|
B--------------------------------------------------------------------|
G-------------------------77777777-----------------------------------|
D-88888888-10101010101010-77777777-33333333-88888888-1010101010101010|
A-88888888-10101010101010-55555555-33333333-88888888-1010101010101010|
D-88888888-10101010101010----------33333333-88888888-1010101010101010|

Let em wonder how we got this far
Cause I don't really need to wonder at all
Yeah after all this time
I'm still into you

Instrumental/Interlude:

E--------------------------------------------|
B--------------------------------------------|
G------------------77777777------------------| REPEAT 4X
D-3333333333333333-77777777-1010101010101010-|
A-3333333333333333-55555555-1010101010101010-|
D-3333333333333333----------1010101010101010-|

THIS IS PLAYED AS WELL ( I'm not sure about this lead part here... )

E---------------------------|
B---------------------------|
G---------------------------|
D---------------------------|
A---8-7-3-----8-7-3-5-5-7-3-|
D-3-------333---------------|

Some things just,
Some things just make sense
And one of those is you and I
Some things just,
Some things just make sense
And even after all this time

Refrain: Palm Mute

E------------------------------------------|
B------------------------------------------|
G------------------------------------------| REPEAT 2X
D-88888888-10101010101010-3333333333333333-|
A-88888888-10101010101010-3333333333333333-|
D-88888888-10101010101010-3333333333333333-|

I'm into You
Baby not a day goes by that
I'm not into you

Chorus:


E------------------------------------------|
B------------------------------------------|
G------------------------------------------| Repeat this 2X then
D-88888888-10101010101010-3333333333333333-|
A-88888888-10101010101010-3333333333333333-|
D-88888888-10101010101010-3333333333333333-|

 should be over all the butterflies
But i'm into you (I'm in to you)
And baby even on our worst nights
I'm into you (I'm into you)

E---------------------------------------------------------------------|
B---------------------------------------------------------------------|
G-------------------------77777777------------------------------------| CONTINUED...
D-88888888-10101010101010-77777777-33333333-88888888-1010101010101010-|
A-88888888-10101010101010-55555555-33333333-88888888-1010101010101010-|
D-88888888-10101010101010----------33333333-88888888-1010101010101010-|

----------------------------------------------------|
----------------------------------------------------|
----------------------------------------------------|
88888888-1010101010101010-88888888-1010101010101010-|
88888888-1010101010101010-88888888-1010101010101010-|
88888888-1010101010101010-88888888-1010101010101010-|


Let em wonder how we got this far
Cause I don't really need to wonder at all
Yeah after all this time
I'm still into you
I'm still into you
I'm still into you

END

---------------------------------------------------------------------------------------------------------
Paramore
Anklebiters
Intro
I think he play the 8t fret on the G String.... with some effects

Main Riff

e|------------------------------------------------------------------------|
B|---------7-9-7-9----------7-9-7-5----------7-9-7-5----------------------|
G|--------------------------------------------------------------9-8-6-8---|
D|-9-X-9-9----------9-X-9-9----------6-X-6-6-----------6-X-6-6------------|
A|-7-X-7-7----------7-X-7-7----------4-X-6-6----------4-X-4-4-------------|
E|------------------------------------------------------------------------|

Verse 1

e|-----------------------------------------------------------------------|
B|-----------------------------------------------------------------------|
G|-9-X-9-9---------9-X-9-9---------6-X-6-6------6-X-6-6------------------|
D|-x-X-x-x-9-9-9-9-x-X-x-x-9-9-9-9-x-X-x-x-6666-x-X-X-X-6666-------------|
A|-7-X-7-7-9-9-9-9-7-X-7-7-9-9-9-9-4-X-4-4-6666-4-X-4-4-6666-------------|
E|---------7-7-7-7---------7-7-7-7---------4444---------4444-------------|


Pre Chorus 1

e|------------------------------------------------------------------------|
B|--------------------9~--------------------------------------------------|
G|-6-6-6-6-/-9------------------------------------------------------------|
D|-x-x-x-x-/-------7~-----------------------------------------------------|
A|-4-4-4-4-/-7------------------------------------------------------------|
E|------------------------------------------------------------------------|

Chorus (find the right Ryhtmus

e|-------------------------|
B|-------------------------|
G|-9---6-4-9---------------|
D|-9-7-6-4-9-7-4-7-9-------|
A|-7-7-4-2-7-7-4-7-9-------|
E|---5-------5-2-5-7-------|



Verse 2 (Hear!)

e|-------|
B|-------|
G|-------|
D|-6666--|
A|-6666--|
E|-4444--| x2

Pre Chorus 2

e|----------------------------------------------------------------------|
B|--------------------9~------------------------------------------------|
G|-6-6-6-6-/-9---------------6-6-6-6-/-4----8-8-8-----------------------|
D|-x-x-x-x-/-------7~--------x-x-x-x-/-x----x-x-x-----------------------|
A|-4-4-4-4-/-7---------------4-4-4-4-/-2----6-6-6-----------------------|
E|----------------------------------------------------------------------|


Outro
Play Dead notes, find the Rythmus

then

e|-------|
B|-------|
G|-9-----|
D|-9-----|
A|-7-----|
E|-------|


Struktur

Intro
Riff
Verse 1
Pre Chorus 1
Chorus
Riff
Verse 2
Riff (Guitar 1), Verse 1 (Guitar 2)
Pre Chorus 2
Chorus
Outro

---------------------------------------------------------------------------------------------------------
Interlude: Holiday
Paramore
C                 Am
 Now I can move on to facing
C                 Am
 Big girl problems no more
C                 Am
High school drama
D              G 
Graduated with honors

C                 Am
And I?m drinking coffee while I
C                 Am
Read the paper, I?ve been
C                 Am
Saving money
D              G 
Eating only top ramen

C       Am    C    Am
Now I get a holiday
C        Am            D  G  
Wherever I go I must stay
C       Am    C    Am
I don?t plan on coming back
C        Am            D  G  
Ever if I can hold back

C       Am    C    Am
Now I get a holiday
C        Am      D  G  
Think I?ll stay
C                 Am
Holiday
D              G 
I?ll stay

---------------------------------------------------------------------------------------------------------
Contributed by paramore_fans
Paramore
Proof
Paramore
2013 FueledByRammen Records
Submitted by: jeremyunderground41@yahoo.com


Key: Eb, Same key as their old songs That's What You Get and When It Rains


Tuning: Standard EADGBe

Chords used:
Eb -   x68886
Bb -   x13331
Cm -   x35543
G# -   466544
Gm -   355333
Bb/D - x587xx
F -    133211


Intro: Eb-- x2  

 
Verse 1:
            Eb
It's really hard
        Gm
I can't cry 
        Cm
in your arms
                 Eb
Cause you're not here
              Gm
It's not your fault
          Cm
and if it was 
           Eb
I wouldn't care
            Gm
My heart is bigger 
         Cm
than the distance 
      Eb
in between us
          Gm
I know it cause 
          Cm
I feel it beating
Eb    Gm
  So strong it'll knock you 
Cm  Eb                   Gm(hold) F(hold)
down  So strong so strong


Verse 2:
Bb   Eb
Over here
You can count the
Gm
miles away from 
Cm            Eb
where I wanna be
            Gm
I bet your skin
            Cm
is warm and that
          Eb
you're smiling
            Gm
Yeah that's what I
       Cm
always loved the
      Eb
most about you
           Cm(hold)
You're so strong come 
and knock me down hey! 


Chorus 1:
G#          Bb
Baby if I'm half 
          Eb
the man I say I am
         G#
If I?m a woman with no 
Bb               Cm
fear just like I claim 
              G#
I am Then I believe
            Bb
in what you say
there?s nothing 
Cm       Bb/D   Eb Bb
left for you to do
    G#
The only proof 
     Bb        Eb
that I need is you


Verse 3:
               Eb
I'll get in my car
        Gm
Driving faster than 
  Cm         Eb
I ever did before
        Gm
I won?t rest until I 
Cm                Eb
finally reach the shore
              Gm
And then I'll swim 
            Cm       Eb
back to wherever you are
          Gm
And we?ll ride the 
     Gm      F
undercurrent down-



Verse 4:
        Eb
-to the floor
       Gm
Making friends with all
    Cm         Eb
the unfamiliar creatures
        Gm
Push it back I'll be 
     Cm        Eb
your necessary pressure
            Gm
Come up for air just 
       Cm
so you know we won?t 
Eb
drown You?re so strong
    Cm(hold)
The world can't
keep us down, hey! 


Chorus 2:
G#          Bb
Baby if I'm half 
          Eb
the man I say I am
         G#
If I?m a woman with no 
Bb               Cm
fear just like I claim 
              G#
I am Then I believe
            Bb
in what you say
there?s nothing 
Cm       Bb/D   Eb Bb
left for you to do
    G#
The only proof 
     Bb        Eb--
that I need is you
              <-----Jeremy Davis Bass Solo
yeah ohh yeahh

Cm Bb G# Cm(hold)


Bridge:
          Eb
So do you love me?
All you gotta 
Gm        Bb
do is say yes
                G#
Now do you love me?
            Cm
And I won?t ever 
       Bb
second guess
           Eb
Now do you love me?
 
All you gotta 
Gm        Bb
do is say yes
           G#
Now do you love me?
         Cm             Bb
Then you already proved it
G#(hold)
yeah     yeah


Chorus 3:
G#          Bb
Baby if I'm half 
          Eb
the man I say I am
         G#
If I?m a woman with no 
Bb               Cm
fear just like I claim 
              G#
I am Then I believe
            Bb
in what you say
there?s nothing 
Cm       Bb/D   Eb Bb
left for you to do
    G#
The only proof 
     Bb
that I need is
G#          Bb
Baby if I'm half 
          Eb
the man I say I am
         G#
If I?m a woman with no 
Bb               Cm
fear just like I claim 
              G#
I am Then I believe
            Bb
in what you say
there?s nothing 
Cm       Bb/D   Eb Bb
left for you to do
    G#
The only proof 
     Bb        Eb(hold)
that I need is you

---------------------------------------------------------------------------------------------------------
Contributed by leaving-blues
Paramore - Hate to See Your Heartbreak
CAPO 4

C                     Am
There is not a single word
             C
In the whole world 
                        Am
That could describe the hurt
                       F
The dullest knife just sawing back and forth
                    G
Ripping through the softest skin there ever was 
                F
How were you to know? 
                G
How were you to know? 

    C                     Am
And I, I hate to see your heart break
                   F
I hate to see your eyes get darker as they close
    G
But I've been there before
    C                     Am
And I, I hate to see your heart break
                   F
I hate to see your eyes get darker as they close
    G
But I've been there before

C                    Am
Love happens all the time
                     C
To people who aren't kind
                   Am
And heroes who are blind
                  F
Expecting perfect scripted movie scenes
                     G
Who wants an awkward silence mystery?
                F
How were you to know? 
                G
How were you to know?

    C                     Am
And I, I hate to see your heart break
                   F
I hate to see your eyes get darker as they close
    G
But I've been there before
    C                     Am
And I, I hate to see your heart break
                   F
I hate to see your eyes get darker as they close
    G                                F
But I've been there before

            Am                 G                 F
For all the air that's in your lungs
            Am             G
For all the joy that is to come 
                        F
For all the things that you're alive to feel
                    G
Just let the pain remind you hearts can heal
                F
How were you to know? 
                G
How were you to know?

    C                     Am
And I, I hate to see your heart break
                   F
I hate to see your eyes get darker as they close
    G
But I've been there before
    C                     Am
And I, I hate to see your heart break
                   F
I hate to see your eyes get darker as they close
    G
But I've been there before

---------------------------------------------------------------------------------------------------------
Contributed by JohnnieBoah
(One of Those) Crazy Girls - Paramore
Capo 4th

Chords used:

    D  D7   Bm  G   Gm Em
e|--2---0---2---3---3---0--|
B|--3---1---3---0---3---0--|
G|--2---2---4---0---3---0--|
D|--0---0---4---0---5---2--|
A|--0---0---2---2---5---2--|
E|--x---X---x---3---3---0--|


Intro: D

D                            Bm
Now when you say you want to slow down,
Em                      G
Does it mean you want to slow dance?
D               Bm
Maybe you want a little extra time
      Em         G
To focus on our romance.
D                        Bm
What do you mean I got it backwards?
Em                      G
You know we're gonna be forever.
D                       Bm
Why are you tellin' me goodbye?
                             Em    G
Aren't you gonna stay the night?


             D          D7
Are we really over now?
               Bm
Maybe I can change your mind?
                 D          D7
Soon as you walk out my door,
                Bm
I'm gonna call a hundred times.


D                  Bm
Now I walk under a pink sky 
Em                       G
Love has flown along and passed me by.
D                           Bm
I pour my heart out to your voice mail,
              Em
Let you know I caught a bus
                G
To your side of town.
D                           Bm
And now I'm standing at your doorstep
Em                G
With Los Angeles behind me.
D                            Bm
If you don't answer I'll just use the key 
         Em                            G
That I copied 'cause I really need to see you.


D                             D7
If you're not here when I break in,
                         Bm
I'm gonna go to your closet,

Just so I can smell your skin.
D                 D7
As the chemicals swim,
                       Bm
I know I'll never love again,

I swear I'll never love again!

             D         D7
Baby, are we over now?
            Bm            Gm
Maybe I can change your mind?
                     D         D7 
As soon as you walk out my door,
                  Bm            Gm
I'm gonna call a hundred times!


D                   Bm
I'm not one of those crazy girls,
D                   Bm
I'm not one of those crazy girls,
D                   Bm
I'm not one of those crazy girls,
D                   Bm
I'm not one of those crazy girls,






             D         D7
Baby, are we over now?
            Bm            Gm
Maybe I can change your mind?
                     D         D7 
As soon as you walk out my door,
                  Bm            Gm
I'm gonna call a hundred times!             

             D         D7
Baby, are we over now?
            Bm            Gm
Maybe I can change your mind?
                     D         D7 
As soon as you walk out my door,
                  Bm            Gm
I'm gonna call a hundred times!             


D                   Bm
I'm not one of those crazy girls,
D                   Bm
I'm not one of those crazy girls,
D                   Bm
I'm not one of those crazy girls,
D                   Bm
I'm not one of those crazy girls,

---------------------------------------------------------------------------------------------------------
Contributed by toastedalphonse
Interlude: I'm Not Angry Anymore
Paramore
Em      C        G
I'm not angry anymore
     D
Well sometimes I am
Em      C              G
I don't think badly of you
     D           C       D
Well sometimes I do
   C              D
It depends on the day
    Em               D               C
The extent of all my worthless rage, and
        D        G
I'm not angry anymore

Em      C      G
I'm not bitter anymore
    D
I'm syrupy sweet
Em            C                 G
I'll rot your teeth down to the core
       D           C       D
If I'm really happy
   C              D
It depends on the day
     Em           D           C
If I wake up in a giddy haze, and
        D
I'm not angry
C               D
I'm not totally angry
C                D     G
I'm not all that angry anymore

---------------------------------------------------------------------------------------------------------

Contributed by stummerman
Paramore - Be alone

by stummerman
stummer@live.co.uk

Drop D tuning

intro

e|------------------|
B|-----77--------7--|
G|--------77-6------|
D|--77---------7----|
A|------------------|
D|------------------| x4

verse

e|-------------------------------|-------------------------------------|
B|--10-10-10-10-10---12-10-------|--10-10-10-10-10---12-10-------------|
G|-------------------------11----|-------------------------11----------|
D|----------------------------12-|----------------------------12^14v12-|
A|-------------------------------|-------------------------------------|
D|-------------------------------|-------------------------------------|


e|------------------------------------------------------|
B|------------------------------------------------------|
G|--11-11-11-11-11-11-11-11--12-12-12-12-12-12-12-12-12-|
D|------------------------------------------------------|
A|------------------------------------------------------|
D|------------------------------------------------------|

e|------------------------------------------------------|
B|------------------------------------------------------|
G|--11-11-11-11-11-11-11-11--14-12-12-12-12-12-12-12-12-|
D|------------------------------------------------------|
A|------------------------------------------------------|
D|------------------------------------------------------|



e|-------------------------------|-------------------------------------|
B|--10-10-10-10-10---12-10-------|--10-10-10-10-10---12-10-------------|
G|-------------------------11----|-------------------------11----------|
D|----------------------------12-|----------------------------12^14v12-|
A|-------------------------------|-------------------------------------|
D|-------------------------------|-------------------------------------|

e|------------------------------------------------------|
B|------------------------------------------------------|
G|--11-11-11-11-11-11-11-11--12-12-12-12-12-12-12-12-12-|
D|------------------------------------------------------|
A|------------------------------------------------------|
D|------------------------------------------------------|

e|------------------------------------------------------|
B|------------------------------------------------------|
G|--11-11-11-11-11-11-11-11--14-12-12-12-12-12-12-12-12-|
D|------------------------------------------------------|
A|------------------------------------------------------|
D|------------------------------------------------------|


break - not 100% sure sounds like

              or        
e|------------|---------------|
B|----7---8---|------3--------|
G|----7---7---|--2---2--------|
D|----7---7---|--2---2--------|
A|------------|--2------------|
D|------------|---------------|


crs

e|---------------|----------------|----------------------|-14-15-14-12-14-10|
B|---------------|----------------|----------------------|------------------|
G|---------------|----------------|----------------------|------------------|
D|-0-0---5-5-5-5-|--9-9---7-7-7-7-|--0-0---5-5-5-5---5-7-|------------------|
A|-0-0---5-5-5-5-|--9-9---7-7-7-7-|--0-0---5-5-5-5---5-7-|------------------|
D|-0-0---5-5-5-5-|--9-9---7-7-7-7-|--0-0---5-5-5-5---5-7-|------------------|


e|---------------|----------------|----------------------|-14-15-14-12-14-10|
B|---------------|----------------|----------------------|------------------|
G|---------------|----------------|----------------------|------------------|
D|-0-0---5-5-5-5-|--9-9---7-7-7-7-|--0-0---5-5-5-5---5-7-|------------------|
A|-0-0---5-5-5-5-|--9-9---7-7-7-7-|--0-0---5-5-5-5---5-7-|------------------|
D|-0-0---5-5-5-5-|--9-9---7-7-7-7-|--0-0---5-5-5-5---5-7-|------------------|



then repeat with double rhythm as per song arrangement

-------------------------------------------------------------------------------------------------------------------
Contributed by jackifender
Hey guys! This is Future by Paramore off of their Self Titled Album PARAMORE :D

This is the chords and riff.


If you would like you can play with a CAPO ON THIRD FRET! 
(tab relative to capo)

Intro:

|------------------|------------------|------------------|------------------|
|------------------|------------------|------------------|------------------|
|------------------|------------------|------------------|------------------|
|----0---0---0---0-|----0---0---0---0-|----0---0---0---0-|----0---0---0---0-|
|--0---0---0---0---|--2---2---2---2---|------------------|------------------|
|------------------|------------------|--3---3---3---3---|--3---3---3---3---|

|------------------|------------------|------------------|------------------|
|------------------|------------------|------------------|------------------|
|------------------|------------------|------------------|------------------|
|----0---0---0---0-|----0---0---0---0-|----0---0---0---0-|----0---0---0---0-|
|------------------|------------------|--2---2---2---2---|--4---4---4---4---|
|--2---2---2---2---|--3---3---3---3---|------------------|------------------|

I'm writing the future,
I'm writing it out, loud.
We don't talk about the past,
We don't talk about the past, now.

So, I'm writing the future,
I'm leaving a key here.
Something won't always be missing,
You won't always feel emptier.


Chords come in at this point:
E|--------------|--------------|--------------|--------------|
B|--------------|--------------|--------------|--------------|
G|--3--3--3--3--|--3--3--3--3--|--3--3--3--3--|--3--3--3--3--|
D|--3--3--3--3--|--3--3--3--3--|--3--3--3--3--|--3--3--3--3--|
A|--1--1--1--1--|--1--1--1--1--|--0--0--0--0--|--0--0--0--0--|
E|--------------|--------------|--------------|--------------|

E|--------------|--------------|--------------|--------------|
B|--------------|--------------|--------------|--------------|
G|--3--3--3--3--|--3--3--3--3--|--3--3--3--3--|--3--3--3--3--|
D|--3--3--3--3--|--3--3--3--3--|--3--3--3--3--|--3--3--3--3--|
A|--x--x--x--x--|--x--x--x--x--|--x--x--x--x--|--x--x--x--x--|
E|--3--3--3--3--|--3--3--3--3--|--3--3--3--3--|--3--3--3--3--|


Lead guitar (when the song builds) :| = repeat

E|--12--12--12--12--:|--13--13--13--13--:|--15--15--15--15--:|--17--17--17--17--:|
B|------------------:|------------------:|------------------:|------------------:|
G|------------------:|------------------:|------------------:|------------------:|
D|------------------:|------------------:|------------------:|------------------:|
A|------------------:|------------------:|------------------:|------------------:|
E|------------------:|------------------:|------------------:|------------------:|

E|--12--12--12--12--:|--13--13--13--13--:|--10--10--10--10--:|--10(b)--10(b)--10(b)--10(b)--:|
B|------------------:|------------------:|------------------:|------------------------------:|
G|------------------:|------------------:|------------------:|------------------------------:|
D|------------------:|------------------:|------------------:|------------------------------:|
A|------------------:|------------------:|------------------:|------------------------------:|
E|------------------:|------------------:|------------------:|------------------------------:|

Future by Paramore (Paramore)




I'd like to thank everybody who contributed tabs and chords for this to happen!
comments
print report bad tab
I want to post or [tab]
guest
You may want to rate the tab now too:
select rating
Please do not post tabs as comments. Select "correction" instead!