Oops, an error
Loading. Please wait.

Riot Tab

101,145 views 57 this week
16 commentsread comments
1 2 3 4 5
excellent!
x 14
Autoscroll
+/-
esc
set tempo
stop
Contributor
Tabbers playing skills
advanced +
NEW! There's an official Ultimate Guitar app which is ideal
for learning songs when you're away from computer. Get the app
WARNING: You are trying to view
                                    content from Ultimate-Guitar.com
                                    in an unauthorized application,
                                    which is prohibited.

                                    Please use an official Ultimate
                                    Guitar Tabs application for iPhone,
                                    iPad or Android to access legitimate
                                    chords, guitar, bass, and drum tabs
                                    from Ultimate-Guitar.com database.

                                    Type "ultimate guitar tabs" in Apple
                                    App Store's or Android Market's
                                    search to find the application.
PLS LIKE OUR BAND FAN PAGE @ FACEBOOK - https://www.facebook.com/SinceAstrid

Tabbed By Francis Twister
From Paramore Philippines(PARAWHORE)

Paramore-RIOT Album

"For a Pessimist, I'm Pretty Optimistic" - 3:48 
"That's What You Get" - 3:40 
"Hallelujah" - 3:23 
"Misery Business" - 3:31 
"When It Rains" - 3:35 
"Let the Flames Begin" - 3:18 
"Miracle" - 3:29 
"Crushcrushcrush" - 3:09 
"We Are Broken" - 3:38 
"Fences" - 3:19 
"Born For This" - 3:58 


|--------------------------------------------------------------------------|
                     For A Pessimist Im Pretty Optimistic
|--------------------------------------------------------------------------|


Guitar 1 - { e b g d A D )

Guitar 2 - { e b g d A D )


Intro 2x

Guitar1
|------------------------------------------|
|------------------------------------------|
|--444444---------------------666666-------|
|--444444---444444---111111---666666-------|
|--222222---444444---111111---444444-------|
|-----------444444---111111----------------|

|--------------------------------|
|--------------------------------|
|--444444------------666666666---|
|--444444---444444---666666666---|
|--222222---444444---444444444---|
|-----------444444---------------|

Guitar2
|------------------|---------------------|
|------------------|---------------------|
|--12-12/15151515--|--1111/10101010------|
|--x--x---x-x-x-x--|--x-x--x-x-x-x-------|
|--14-14/13131313--|--9-9-/8-8-8-8-------|
|------------------|---------------------|

|------------------|---------------------|
|------------------|---------------------|
|--12-12/15151515--|--181818181818-------|
|--x---x-x-x-x-x---|--x-x-x-x-x-x--------|
|--14-14/13131313--|--161616161616-------|
|------------------|---------------------|

Verse-
G1
|--------------|------------------|
|--------------|------------------|
|--------------|--4444444444444---|
|---4~---------|--4444444444444---|
|---4~---------|--2222222222222---|
|---4~---------|------------------|

G2
|--------------|------------------|
|--------------|------------------|
|--------------|--4444444444444---|
|--------------|--4444444444444---|
|--------------|--2222222222222---|
|--------------|------------------|


Verse2

Guitar1
|--------------------------------|-----|---------------|--------|
|--------------------------------|-----|---------------|--------|
|--------------------------------|-----|---------------|--6--6--|
|-44-444-444-444-466-666-666-666-|-1-1-|---------------|--6--6--|
|-44-444-444-444-466-666-666-666-|-1-1-|---------------|--4--4--|
|-44-444-444-444-466-666-666-666-|-1-1-|---------------|--------|
Guitar2
|--------------------------------|-----|---------------|--------|
|--------------------------------|-----|---------------|--------|
|--------------------------------|-----|-8888/10101010-|--6--6--|
|-44-444-444-444-466-666-666-666-|-1-1-|-8888/10101010-|--6--6--|
|-44-444-444-444-466-666-666-666-|-1-1-|-6666/9-9-9-9--|--4--4--|
|-44-444-444-444-466-666-666-666-|-1-1-|---------------|--------|


Refrain-
Not sure if this part

Guitar2
1.
|------6---|
|-----7----|
|----8-----|
|----8-----|
|---6------|
|----------|
2.
|------18--|
|--18------|
|----------|
|----------|
|----------|
|----------|


Chorus-

Guitar1

|-----------------|------------------------|
|-----------------|------------------------|
|-444-6666-888888-|-444-6666---------------|
|-444-6666-888888-|-444-6666-666666--------|
|-222-4444-666666-|-222-4444-666666--------|
|-----------------|----------666666--------|

|-----------------|------------------------|
|-----------------|------------------------|
|-444-6666-888888-|-444-6666---------6-6-6-|
|-444-6666-888888-|-444-6666-444444--6-6-6-|
|-222-4444-666666-|-222-4444-444444--4-4-4-|
|-----------------|----------444444--------|


Guitar2
|-----------------------------|-------------------------------|
|-----------------------------|-------------------------------|
|-888-10101010-11111111111----|---888--11111111-131313131313--|
|-xxx-x-x-x-x--x-x-x-x-x-x----|---xxx--xxxxxxx--xxxxxxxxxxxx--|
|-666-8-8-8-8--9-9-9-9-9-9----|---666--9-9-9-9--111111111111--|
|-----------------------------|-------------------------------|

|-----------------------------|-----------------------------|-------|
|-----------------------------|-----------------------------|-------|
|-888-10101010-111111111111---|---888-10101010-111111111111-|-6-6-6-|
|-xxx-x-x-x-x--x-x-x-x-x-x----|---xxx-xxxxxxx--xxxxxxxxxxx--|-x-x-x-|
|-666-8-8-8-8--9-9-9-9-9-9----|---666-8-8-8-8--9-9-9-9-9-9--|-4-4-4-|
|-----------------------------|-----------------------------|-------|

Continued..

Guitar1
|------------------------------------------|
|------------------------------------------|
|--444444---------------------666666-------|
|--444444---444444---111111---666666-------|
|--222222---444444---111111---444444-------|
|-----------444444---111111----------------|

|--------------------------------|
|--------------------------------|
|--444444------------666666666---|
|--444444---444444---666666666---|
|--222222---444444---444444444---|
|-----------444444---------------|

Guitar2
|------------------|---------------------|
|------------------|---------------------|
|--12-12/15151515--|--1111/10101010------|
|--x--x---x-x-x-x--|--x-x--x-x-x-x-------|
|--14-14/13131313--|--9-9-/8-8-8-8-------|
|------------------|---------------------|

|------------------|---------------------|
|------------------|---------------------|
|--12-12/15151515--|--181818181818-------|
|--x---x-x-x-x-x---|--x-x-x-x-x-x--------|
|--14-14/13131313--|--161616161616-------|
|------------------|---------------------|

Repeat verse 1&2,refrain,chorus


Bridge-P.M.
Guitar1

|------------------------------------------|
|------------------------------------------|
|------------------------------------------|
|-1111111-3333-4444-9999-8888-6666-3333----|
|-1111111-3333-4444-9999-8888-6666-3333----|
|-1111111-3333-4444-9999-8888-6666-3333----|

|------------------------------------------|
|------------------------------------------|
|------------------------------------------|
|-1111-3333-4444-6666-9999-8888-6666-3333--|
|-1111-3333-4444-6666-9999-8888-6666-3333--|
|-1111-3333-4444-6666-9999-8888-6666-3333--|

Continued-



Guitar1

|-----------------------------------------------------|   |------|
|------------------------9-----12-----11------9-------|   |------|
|---8-----10-----11-----------------------------------|2x |------|
|-----------------------------------------------------|   |--4~--|
|-----------------------------------------------------|   |--4~--|
|-----------------------------------------------------|   |--4~--|


Guitar2

|-----------------------------------------------------|   |------|
|--------------------------------------------------9--|   |------|
|-8-11p8-8-11p8-8-11p8-8-11p8-8-11p8-8-11p8-8-11p8----|2x |------|
|-----------------------------------------------------|   |--4~--|
|-----------------------------------------------------|   |--4~--|
|-----------------------------------------------------|   |--4~--|




Outro-

Guitar1
|------------------------------------------|
|------------------------------------------|
|--444444---------------------666666-------|
|--444444---444444---111111---666666-------|
|--222222---444444---111111---444444-------|
|-----------444444---111111----------------|

|--------------------------------|
|--------------------------------|
|--444444------------666666666---|
|--444444---444444---666666666---|
|--222222---444444---444444444---|
|-----------444444---------------|

Guitar2
Guitar2
|------------------|---------------------|
|------------------|---------------------|
|--12-12/15151515--|--1111/10101010------|
|--x--x---x-x-x-x--|--x-x--x-x-x-x-------|
|--14-14/13131313--|--9-9-/8-8-8-8-------|
|------------------|---------------------|

|------------------|---------------------|
|------------------|---------------------|
|--12-12/15151515--|--181818181818-------|
|--x---x-x-x-x-x---|--x-x-x-x-x-x--------|
|--14-14/13131313--|--161616161616-------|
|------------------|---------------------|

Continued...

Guitar1

|-----------------|------------------|
|-----------------|------------------|
|-444-6666-888888-|-444-6666---------|
|-444-6666-888888-|-444-6666-444444--|
|-222-4444-666666-|-222-4444-444444--|
|-----------------|----------444444--|

|-----------------|------------------------|
|-----------------|------------------------|
|-444-6666-888888-|-444-6666---------------|
|-444-6666-888888-|-444-6666-666666--------|
|-222-4444-666666-|-222-4444-666666--------|
|-----------------|----------666666--------|

|-----------------|------------------|
|-----------------|------------------|
|-444-6666-888888-|-444-6666---------|
|-444-6666-888888-|-444-6666-444444--|
|-222-4444-666666-|-222-4444-444444--|
|-----------------|----------444444--|


Guitar2

|-----------------------------|-----------------------------|
|-----------------------------|-----------------------------|
|-888-10101010-111111111111---|---888-10101010-111111111111-|
|-xxx-x-x-x-x--x-x-x-x-x-x----|---xxx-xxxxxxx--xxxxxxxxxxx--|
|-666-8-8-8-8--9-9-9-9-9-9----|---666-8-8-8-8--9-9-9-9-9-9--|
|-----------------------------|-----------------------------|

|-----------------------------|-------------------------------|
|-----------------------------|-------------------------------|
|-888-10101010-11111111111----|---888--11111111-131313131313--|
|-xxx-x-x-x-x--x-x-x-x-x-x----|---xxx--xxxxxxx--xxxxxxxxxxxx--|
|-666-8-8-8-8--9-9-9-9-9-9----|---666--9-9-9-9--111111111111--|
|-----------------------------|-------------------------------|

|-----------------------------|-----------------------------|
|-----------------------------|-----------------------------|
|-888-10101010-111111111111---|---888-10101010-111111111111-|
|-xxx-x-x-x-x--x-x-x-x-x-x----|---xxx-xxxxxxx--xxxxxxxxxxx--|
|-666-8-8-8-8--9-9-9-9-9-9----|---666-8-8-8-8--9-9-9-9-9-9--|
|-----------------------------|-----------------------------|


End

G1
|----------|------------|
|----------|------------|
|----------|------------|
|---1~-----|----3~------|
|---1~-----|----3~------|
|---1~-----|----3~------|

G2
|----------|------------|
|----------|------------|
|---8~-----|---10~------|
|---x------|---x--------|
|---6~-----|---8~-------|
|----------|------------|


Thats What You Get Tab 

|--------------------------------------------------------------------------|
                           Thats What You Get  
|--------------------------------------------------------------------------|



Guitar1- {eb bb gb db Ab Eb}
Guitar2- {eb bb gb db Ab Eb}


Intro-



Guitar1

   
|---------------------------------------------|
|---------------------------------------------|
|---------------------------------------------|
|-7-7-7-xxxx-7-7-7-xxxx-9-9-9--xxxx-111111-9--|2x
|-7-7-7-xxxx-7-7-7-xxxx-9-9-9--xxxx-111111-9--|
|-5-5-5-xxxx-5-5-5-xxxx-7-7-7--xxxx-9-9-9--7--|



Guitar2



|-----------------------------------------------------|
|-----------------------------------------------------|
|--------11/13---------13/16--------16/18--131313/11--|2x
|-111111-x/-x---111111-x-/x--131313-x-/x---x-x-x-/x---|
|-111111-9/-11--111111-11/14-131313-14/16--111111/9---|
|-9-9-9--------9-9-9--------111111--------------------|



Verse-



Guitar1 P.M.


|--------------------------------|
|--------------------------------|
|--------------------------------|
|-7-7-7--7-7-7---9-9-9---101010--|4x
|-7-7-7--7-7-7---9-9-9---101010--|
|-5-5-5--5-5-5---7-7-7---9-9-9---|




Guitar2(not sure}

|---7---|---7---|----7----|---7-----|
|---7---|---7---|----7----|---7-----|
|---8---|---8---|----8----|---8-----|
|-------|-------|---------|---------|2x
|-------|-------|---------|---------|
|-------|-------|---------|---------|



Continued...


Guitar1


|---------------------------------------------|
|---------------------------------------------|
|---------------------------------------------|
|-7-7-7-xxxx-7-7-7-xxxx-9-9-9--xxxx-111111-9--|
|-7-7-7-xxxx-7-7-7-xxxx-9-9-9--xxxx-111111-9--|
|-5-5-5-xxxx-5-5-5-xxxx-7-7-7--xxxx-9-9-9--7--|



Guitar2



|-----------------------------------------------------|
|-----------------------------------------------------|
|--------11/13---------13/16--------16/18--131313/11--|
|-111111-x/-x---111111-x-/x--131313-x-/x---x-x-x-/x---|
|-111111-9/-11--111111-11/14-131313-14 /16--111111/9---|
|-9-9-9--------9-9-9--------111111--------------------|


REPEAT Verse





Pre-chorus

G1

|----|
|----|
|----|
|-2~-|
|-2~-|
|-0~-|



G2

|----|
|----|
|-9~-|
|-9~-|
|-7~-|
|----|





Chorus-

Guitar1

|--------------------------------|
|--------------------------------|
|--------99999--6666--44444------|
|-77777--99999--6666--44444------|
|-77777--77777--4444--22222------|
|-55555--------------------------|



Guitar2



|-1616-----1616------------------|--1616-----1616----1414-----1414------|
|-----1717------1717-16-17-16----|-------1717----1717----1212------1212-|
|----------------------------16--|--------------------------------------|
|--------------------------------|--------------------------------------|
|--------------------------------|--------------------------------------|
|--------- ----------------------|--------------------------------------|

GUITAR1

|--------------------------------|
|--------------------------------|
|--------999999--4444444444------|
|-77777--999999--4444444444------|
|-77777--777777--2222222222------|
|-55555--------------------------|

GUITAR2



|-16-16-----16-16------------------|--14-14-----14-14-----------------|
|-----17-17------17-17-16-17-16----|-------12-12-----12-12------------|
|------------------------------16--|----------------------------------|
|----------------------------------|----------------------------------|
|----------------------------------|----------------------------------|
|----------------------------------|----------------------------------|


GUITAR1

|-------------------------|   
|-------------------------|   
|---6666666--4444444------|   
|---6666666--4444444------|2x
|---4444444--2222222------|   
|-------------------------|

GUITAR2(I CAN HEAR GUITAR 2 AT THIS PART...)
not sure of this tab..
|--------------------------------------------------------------------|
|--------------------------------------------------------------------|
|---------------------13-13----16-----13--13-13----------------------|
|--14-14-14--16-16--------------------------------16--16--16--16-----|2x
|--------------------------------------------------------------------|
|--------------------------------------------------------------------|

GUITAR1
|--------------------------------|
|--------------------------------|
|--------999999--4444444444------|
|-77777--999999--4444444444------|
|-77777--777777--2222222222------|
|-55555--------------------------|   



Guitar2

|-16-16-----16-16------------------|--14-14-----14-14-----------------|
|-----17-17------17-17-16-17-16----|-------12-12-----12-12------------|
|------------------------------16--|----------------------------------|
|----------------------------------|----------------------------------|
|----------------------------------|----------------------------------|
|----------------------------------|----------------------------------|





Interlude-



Guitar2



|----------------------------------------------|
|----------------------------------------------|
|-----------------------------------131313/11--|2x
|-111111-xxxx--111111-xxxx-131313---131313/11--|
|-111111-xxxx--111111-xxxx-131313---111111/9---|
|-9-9-9--xxxx--9-9-9--xxxx-111111--------------|


then...

Guitar1


|---------------------------------- -----------|
|---------------------------------------------|
|---------------------------------------------|
|-7-7-7-xxxx-7-7-7-xxxx-9-9-9--xxxx-111111-9--|2x
|-7-7-7-xxxx-7-7-7-xxxx-9-9-9--xxxx-111111-9--|
|-5-5-5-xxxx-5-5-5-xxxx-7-7-7--xxxx-9-9-9--7--|



Guitar2



|-----------------------------------------------------|
|-----------------------------------------------------|
|--------11/13---------13/16--------16/18--131313/11--|2x
|-111111-x/-x---111111-x-/x--131313-x-/x---x-x-x-/x---|
|-111111-9/-11--111111-11/14-131313-14/16--111111/9---|
|-9-9-9--------9-9-9--------111111--------------------|





repeat verse

Pre-chorus

Repeat Chorus


Verse-



Continued...




Guitar1


|---------------------------------------------|

|---------------------------------------------|
|---------------------------------------------|
|-7-7-7-xxxx-7-7-7-xxxx-9-9-9--xxxx-111111-9--|
|-7-7-7-xxxx-7-7-7-xxxx-9-9-9--xxxx-111111-9--|
|-5-5-5-xxxx-5-5-5-xxxx-7-7-7--xxxx-9-9-9--7--|



Guitar2



|-----------------------------------------------------|
|-----------------------------------------------------|
|--------11/13---------13/16--------16/18--131313/11--|
|-111111-x/-x---111111-x-/x--131313-x-/x---x-x-x-/x---|
|-111111-9/-11--111111-11/14-131313-14/16--111111/9---|
|-9-9-9--------9-9-9--------111111--------------------|





Chorus-



Drum beats then


  |---PM---|
|-----------------------------|
|-----------------------------|
|-----------------------------|
|--9-9-9-9-9-99999------------|
|--9-9-9-9-9-99999------------|
|--7-7-7-7-7-77777------------|



Repeat chorus then



G1

|----------------------|
|----------------------|
|-------------------9~-|
|-777-xxxx-777-xxxx-9~-|
|-777-xxxx-777-xxxx-7~-|
|-555-xxxx-555-xxxx----|


G2
|-------------------------12~-|
|-------------------------12~-|
|-------------------------13~-|
|-111111-xxxx-111111-xxxx-14~-|
|-111111-xxxx-111111-xxxx-14~-|
|-9-9-9--xxxx-9-9-9--xxxx-12~-|




|--------------------------------------------------------------------------|
                                      Hallelujah
|--------------------------------------------------------------------------|


Gtr 1 - { e b g d A D )

Gtr 2 - { e b g d A D )


Intro-
1.
|---------------111111-141414141414-1414141414---|
|--121212-141414--------------------1111111111---|
|------------------------------------------------|4x
|------------------------------------------------|
|------------------------------------------------|
|------------------------------------------------|

2.
Gtr1
|------------------------------------------------|
|------------------------------------------------|
|------------------------------------------------|
|--99999999999999999---6666666--22222222---------|
|--99999999999999999---6666666--22222222---------|
|--99999999999999999---6666666--22222222---------|
Grt2
|---------------111111-141414141414-1414141414---|
|--121212-141414--------------------1111111111---|
|------------------------------------------------|4x
|------------------------------------------------|
|------------------------------------------------|
|------------------------------------------------|




Verse1-
|------------------------|------------------------|
|------------------------|------------------------|
|------------------------|------------------------|
|-99--9~--66--6~--22--2~-|-99--9~--66--6~--22--2~-|4x
|-99--9~--66--6~--22--2~-|-99--9~--66--6~--22--2~-|
|-99--9~--66--6~--22--2~-|-99--9~--66--6~--22--2~-|

|------------------------|------------------------|
|------------------------|------------------------|
|-44--4~-----------------|-44--4~-----------------|
|-xx--x---66--6~--88--8~-|-xx--x---66--6~--88--8~-|4x
|-22--2~--xx--x---xx--x~-|-22--2~--xx--x---xx--x~-|
|---------66--6~--88--8~-|---------66--6~--88--8~-|

Verse2-
Gtr1
|------------------------|------------------------|
|------------------------|------------------------|
|------------------------|------------------------|
|-99--9~--66--6~--22--2~-|-99--9~--66--6~--22--2~-|4x
|-99--9~--66--6~--22--2~-|-99--9~--66--6~--22--2~-|
|-99--9~--66--6~--22--2~-|-99--9~--66--6~--22--2~-|

Gtr2
|------------------77-66-|------------------------|
|-------44-55-77---------|-------44-55-44--44-----|
|-444-66-----------------|-444-66--------66-------|
|------------------------|------------------------|8x
|------------------------|------------------------|
|------------------------|------------------------|

 pre-
Gtr1
|------------------------------------------------|
|------------------------------------------------|
|------------------------------------------------|
|--9~--------------------------------------------|
|--9~--------------------------------------------|
|--9~--------------------------------------------|
Grt2
|---------------111111-141414141414-1414141414------14-----14-----14~|
|--121212-141414--------------------1111111111-11h12--11h12--11h12---|
|--------------------------------------------------------------------|
|--------------------------------------------------------------------|
|--------------------------------------------------------------------|
|--------------------------------------------------------------------|

Chorus-
Gtr1

|------------------------------------------------|
|------------------------------------------------|
|------------------------------------------------|
|--99999999999999999---6666666--22222222---------|2x
|--99999999999999999---6666666--22222222---------|
|--99999999999999999---6666666--22222222---------|

Grt2
|---------------111111-141414141414-1414141414---|
|--121212-141414--------------------1111111111---|
|------------------------------------------------|4x
|------------------------------------------------|
|------------------------------------------------|
|------------------------------------------------|

2.
|------------------------------------------------|
|------------------------------------------------|
|------------------------------------------------|
|--999-999-999-999---6-6666--2~-222222-----------|2x
|--999-999-999-999---6-6666--2~-222222-----------|
|--999-999-999-999---6-6666--2~-222222-----------|


|----------11~-----9~-----11~-----9~-------------|
|------------------------------------------------|
|------8/9-----8/9----8/9-----8/9----------------|
|------------------------------------------------|2x
|------------------------------------------------|
|------------------------------------------------|


Do verse
do pre Gtr2 w/pick slide at end
do chorus



|------------------|------------------------------|
|------------------|------------------------------|
|-----------4-4444-|------------------------------|
|-111-222-4-4-4444-|-111-222-4-4-4444-------------|
|-111-222-4-2-2222-|-111-222-4-4-4444-------------|
|-111-222-4--------|-111-222-4-4-4444-------------|
   ** *** *   ****   *** *** *   ****


 Bridge-trevorshintaku's
|--7-7-7-9999-777-7-7-7-777-66/--------|
|--------------------------------------|
|--------------------------------------|
|--------------------------------------|
|--------------------------------------|
|--------------------------------------|


|--777-666-11-11-11-11-11-11-11-11-777-666------------------------|
|------------------------------------------7-7-7-7-7-7-7-7--------|
|-----------------------------------------------------------------|
|-----------------------------------------------------------------|
|-----------------------------------------------------------------|
|-----------------------------------------------------------------|



g1
|-----------------------------------------|
|-----------------------------------------|
|-----------------------------------------|
|-99999999999999--77777777777777----------|
|-99999999999999--77777777777777----------|
|-99999999999999--77777777777777----------|

g2
|--------------------7-9-11-12-11/--------|
|--/7-7-7-7-------------------------------|
|-----------9999-888----------------------|
|-----------------------------------------|
|-----------------------------------------|
|-----------------------------------------|

repeat chorus


|--------------------------------------------------------------------------|
                                  Misery Business VER.5-
|--------------------------------------------------------------------------|


Guitar1- {eb bb gb db Ab Db}
Guitar2- {eb bb gb db Ab Db}

Guitar 1:

Intro:

|-----------------|-----------------|-----------------|-----------------|
|-----------------|-----------------|-----------------|-----------------|
|-----------------|-----------------|-----------------|-----------------|
|-4-4---4---------|-2-2---2-2-2---2-|-4-4---4---------|-0-0---0-0-0-----|
|-4-4---4-2-4-2-4-|-2-2---2-2-2---2-|-4-4---4-2-4-2-4-|-0-0---0-0-0-----|
|-4-4---4---------|-2-2---2-2-2---2-|-4-4---4---------|-0-0---0-0-0-----|

|-----------------|-----------------|-----------------|----------------|
|-----------------|-----------------|-----------------|----------------|
|-----------------|-----------------|-----------------|----------------|
|-4-4---4---------|-2-2---2-2-2---2-|-4-4---4---------|-0-0---0-0------|
|-4-4---4-2-4-2-4-|-2-2---2-2-2---2-|-4-4---4-2-4-2-4-|-0-0---0-0------|
|-4-4---4---------|-2-2---2-2-2---2-|-4-4---4---------|-0-0---0-0------|

(0:25) VERSE (Palm muted) - Play x

|-----------------|-----------------|-----------------|-----------------|
|-----------------|-----------------|-----------------|-----------------|
|-----------------|-----------------|-----------------|-----------------|
|-4-4---4---------|-2-2---2-2-2---2-|-4-4---4---------|-0-0---0-0-0--0--|
|-4-4---4-2-4-2-4-|-2-2---2-2-2---2-|-4-4---4-2-4-2-4-|-0-0---0-0-0--0--|
|-4-4---4---------|-2-2---2-2-2---2-|-4-4---4---------|-0-0---0-0-0--0--|
  * *   * * * * *   * *   * * * * *   * *   * * * *     * *   * * *  *
 *   * * * 
|-----------------|-----------------|-----------------|-----------------|
|-----------------|-----------------|-----------------|-----------------|
|-----------------|-----------------|-----------------|-----------------|
|-4-4---4---------|-2-2---2-2-2---2-|-4-4---4---------|-9-9-9-9-9-9-9-9-|
|-4-4---4-2-4-2-4-|-2-2---2-2-2---2-|-4-4---4-2-4-2-4-|-7-7-7-7-7-7-7-7-|
|-4-4---4---------|-2-2---2-2-2---2-|-4-4---4---------|-7-7-7-7-6-6-6-6-|
  * *   * * * * *   * *   * * * * *   * *   * * * *     * * * * * * * *
Pre-
|-----------------|-----------------|
|-----------------|-----------------|
|-----------------|-----------------|
|-4-4-4-4-4-4-4-4-|-2-2-2-2-2-------|
|-4-4-4-4-4-4-4-4-|-2-2-2-2-2-------|
|-4-4-4-4-4-4-4-4-|-2-2-2-2-2-------|
  * * * * * * * *   * * * * *   

CHORUS PT. 1 - Play x2
|-----------------|-----------------|-----------------|-----------------|
|-7-7-7-7-7-7-7-7-|-----------------|-----------------|-----------------|
|-x-x-x-x-x-x-x-x-|-6-6-6-6-6-6-6-6-|-----------------|-6-6-6-6---------|
|-4-4-4-4-4-4-4-4-|-7-7-7-7-7-7-7-7-|-4-4-4-4-4-4-4-4-|-7-7-7-7-6-6-6-6-|2X
|-5-5-5-5-5-5-5-5-|-7-7-7-7-7-7-7-7-|-2-2-2-2-2-2-2-2-|-4-4-4-4-4-4-4-4-|
|-----------------|-----------------|-2-2-2-2-2-2-2-2-|-4-4-4-4-4-4-4-4-|
  
(1:01) CHORUS PT. 2
|-----------------|-----------------|-----------------|-----------------|
|-----------------|-----------------|-----------------|-----------------|
|-----------------|-----------------|-----------------|-----------------|
|-0---0---0---0---|-0---0---0-4-4-4-|-2---2---2---2---|-2---2---2-4-4-4-|
|-0---0---0---0---|-0---0---0-4-4-4-|-2---2---2---2---|-2---2---2-4-4-4-|
|-0---0---0---0---|-0---0---0-4-4-4-|-2---2---2---2---|-2---2---2-4-4-4-|
     
|-----------------|-----------------|-----------------|-----------------|
|-----------------|-----------------|-----------------|-----------------|
|-----------------|-----------------|-----------------|-----------------|
|-0---0---0---0---|-0---0---0-4-4-4-|-2---2---2---2---|-9-9-9-9-9-------|
|-0---0---0---0---|-0---0---0-4-4-4-|-2---2---2---2---|-7-7-7-7-7-------|
|-0---0---0---0---|-0---0---0-4-4-4-|-2---2---2---2---|-7-7-7-7-6-------|
     

(1:12) POST-CHORUS
|-----------------|-----------------|-----------------|-----------------|
|-----------------|-----------------|-----------------|-----------------|
|-----------------|-----------------|-----------------|-----------------|
|-4-4---4---------|-2-2---2-2-2---2-|-4-4---4---------|-0--0--0-0-------|
|-4-4---4-2-4-2-4-|-2-2---2-2-2---2-|-4-4---4-2-4-2-4-|-0--0--0-0-------|
|-4-4---4---------|-2-2---2-2-2---2-|-4-4---4---------|-0--0--0-0-------|
     
(1:17) VERSE

(1:40) PRE-CHORUS

(1:43) CHORUS PT. 1

(1:54) CHORUS PT. 2

(2:05) BRIDGE (Clean) - Play x4
*Strum chords and hold*
|-----------------|-----------------|-----------------|-----------------|
|-7---------------|-----------------|-----------------|-----------------|
|-x---------------|-6---------------|-----------------|-6---------------|
|-4---------------|-7---------------|-4---------------|-7-------6-------|
|-5---------------|-7---------------|-2---------------|-4-------4-------|
|-----------------|-----------------|-2---------------|-4-------4-------|
     
(2:27) SOLO PT. 1 - Play x2
|-----------------|-----------------|-----------------|-----------------|
|-7-7-7-7-7-7-7-7-|-----------------|-----------------|-----------------|
|-x-x-x-x-x-x-x-x-|-6-6-6-6-6-6-6-6-|-----------------|-6-6-6-6---------|
|-4-4-4-4-4-4-4-4-|-7-7-7-7-7-7-7-7-|-4-4-4-4-4-4-4-4-|-7-7-7-7-6-6-6-6-|
|-5-5-5-5-5-5-5-5-|-7-7-7-7-7-7-7-7-|-2-2-2-2-2-2-2-2-|-4-4-4-4-4-4-4-4-|
|-----------------|-----------------|-2-2-2-2-2-2-2-2-|-4-4-4-4-4-4-4-4-|
     
(2:38) SOLO PT. 2
|-----------------|-----------------|-----------------|-----------------|
|-----------------|-----------------|-----------------|-----------------|
|-----------------|-----------------|-----------------|-----------------|
|-0-0-0-0-0-0-0-0-|-0-0-0-0-0-4-4-4-|-2-2-2-2-2-2-2-2-|-2-2-2-2-2-4-4-4-|
|-0-0-0-0-0-0-0-0-|-0-0-0-0-0-4-4-4-|-2-2-2-2-2-2-2-2-|-2-2-2-2-2-4-4-4-|
|-0-0-0-0-0-0-0-0-|-0-0-0-0-0-4-4-4-|-2-2-2-2-2-2-2-2-|-2-2-2-2-2-4-4-4-|
     
|-----------------|-----------------|-----------------|-----------------|
|-----------------|-----------------|-----------------|-----------------|
|-----------------|-----------------|-----------------|-----------------|
|-0-0-0-0-0-0-0-0-|-0-0-0-0-0-4-4-4-|-2-2-2-2-2-2-2-2-|-9-9-9-9-9-------|
|-0-0-0-0-0-0-0-0-|-0-0-0-0-0-4-4-4-|-2-2-2-2-2-2-2-2-|-7-7-7-7-7-------|
|-0-0-0-0-0-0-0-0-|-0-0-0-0-0-4-4-4-|-2-2-2-2-2-2-2-2-|-7-7-7-7-6-------|
     

(2:55) CHORUS PT. 1

(3:06) CHORUS PT. 2

(3:17) POST-CHORUS

|----------------------------------------------------------------------------|

***GUITAR II (LEAD GUITAR)***

(0:00) Song starts with mariachi intro

(0:14) INTRO
|-------------------------|-------------------------|
|-------------------------|-------------------------|
|-------------------------|-------------------------|
|--------------9-11--9-11-|-------------------------|
|-12-12----12-------------|-11-11----11-11-11----11-|
|-------------------------|-------------------------|
      
|-------------------------|-------------------------|
|-------------------------|-------------------------|
|-------------------------|-------------------------|
|--------------9-11--9-11-|-------------------------|
|-12-12----12-------------|--9--9-----9--9--9-------|
|-------------------------|-------------------------|
     
|-------------------------|-------------------------|
|-------------------------|-------------------------|
|-------------------------|-------------------------|
|--------------9-11--9-11-|-------------------------|
|-12-12----12-------------|-11-11----11-11-11----11-|
|-------------------------|-------------------------|

|-------------------------|-------------------------|
|-------------------------|-------------------------|
|-------------------------|--------------6--9--9----|
|--------------9-11--9-11-|--------7--9-------------|
|-12-12----12-------------|--7--9-------------------|
|-------------------------|-------------------------|
     

(0:25) VERSE (Does not play)

(0:36) VERSE (Comes in during "I waited eight long months...")
|-------------------------|-------------------------|
|--7-----7--7-7-7-10-7-10-|--7-----7--7-7-7-10-7-10-|
|-------------------------|-------------------------|
|-------------------------|-------------------------|
|-------------------------|-------------------------|
|-------------------------|-------------------------|
   *     *  * * *    *       *     *  * * *    *    
|-------------------------|-------------------------|
|--7-----7--7-7-7-10-7-10-|--7-----7--7-7-7-5--5--5-|
|-------------------------|-------------------------|
|-------------------------|-------------------------|
|-------------------------|-------------------------|
|-------------------------|-------------------------|
   *     *  * * *    *       *     *  * * *    *
|-------------------------|-------------------------|
|--7-----7--7-7-7-10-7-10-|--7-----7--7-7-7-10-7-10-|
|-------------------------|-------------------------|
|-------------------------|-------------------------|
|-------------------------|-------------------------|
|-------------------------|-------------------------|
   *     *  * * *    *       *     *  * * *    *    


|-------------------------|--7-----7--7-7-7/9--9----|
|--7-----7--7-7-7-10-7-10-|-------------------------|
|-------------------------|-------------------------|
|-------------------------|-------------------------|
|-------------------------|-------------------------|
|-------------------------|-------------------------|
   *     *  * * *    *       *     *  * *   

PRE-
|-----------------|-----------------|
|-----------------|-----------------|
|-----------------|-----------------|
|-4-4-4-4-4-4-4-4-|-2-2-2-2-2-------|
|-4-4-4-4-4-4-4-4-|-2-2-2-2-2-------|
|-4-4-4-4-4-4-4-4-|-2-2-2-2-2-------|
  * * * * * * * *   * * * * *  
    

(0:50) CHORUS PT. 1 SAME AS GTR I

(1:01) CHORUS PT. 2
|-------------------------|-------------------------|
|-------------------------|-------------------------|
|-11----11----11----11----|-11----11----11-14-14-14-|
|--x-----x-----x-----x----|--x-----x-----x--x--x--x-|
|--9-----9-----9-----9----|--9-----9-----9-12-12-12-|
|-------------------------|-------------------------|
      
|-------------------------|-------------------------|
|-------------------------|-------------------------|
|-13----13----13----13----|-13----13----13-14-14-14-|
|--x-----x-----x-----x----|--x-----x-----x--x--x--x-|
|-11----11----11----11----|-11----11----11-12-12-12-|
|-------------------------|-------------------------|
     
|-------------------------|-------------------------|
|-------------------------|-------------------------|
|-11----11----11----11----|-11----11----11-14-14-14-|
|--x-----x-----x-----x----|--x-----x-----x--x--x--x-|
|--9-----9-----9-----9----|--9-----9-----9-12-12-12-|
|-------------------------|-------------------------|

|-------------------------|-------------------------|
|-------------------------|-------------------------|
|-13----13----13----13----|-18-18-18-18-16----------|
|--x-----x-----x-----x----|--x--x--x--x--x----------|
|-11----11----11----11----|-16-16-16-16-14----------|
|-------------------------|-------------------------|
    

(1:12) POST-CHORUS
|-------------------------|-------------------------|
|-------------------------|-------------------------|
|-------------------------|-------------------------|
|--------------9-11--9-11-|-------------------------|
|-12-12----12-------------|-11-11----11-11-11----11-|
|-------------------------|-------------------------|
      
|-------------------------|-------------------------|
|-------------------------|-------------------------|
|-------------------------|-------------------------|
|--------------9-11--9-11-|-------------------------|
|-12-12----12-------------|--9--9-----9--9--9-------|
|-------------------------|-------------------------|


(1:18) VERSE (Does not play)

(1:29) VERSE (Comes in here)

(1:40) PRE-CHORUS

(1:43) CHORUS PT. 1 (Does not play)

(1:54) CHORUS PT. 2

(2:05) BRIDGE (Clean) - Play x4
|-----------------|-----------------|-----------------|-----------------|
|-----------------|-------------0---|-------------0---|-----------------|
|-------9-----6---|-------9---------|-------9---------|-----------------|
|-----7-----------|-----7-----------|-----7-----------|---------7-------|
|-----------------|-----------------|-----------------|-----------------|
|-----------------|-----------------|-----------------|-----------------|
    

(2:27) SOLO PT. 1 - Play |-------------------------|-------------------------|
|-------------------------|-------------------------|
|--9--11-11-11-11-11-11-11|-9--11-11-11-11-11-11-11-|
|-------------------------|-------------------------|
|-------------------------|-------------------------|
|-------------------------|-------------------------|
    
|-------------------------|-------------------------|
|-------------------------|-15-15-15-15-14-14-14-14-|
|-9--11-11-11-11-11-11-11-|-------------------------|
|-------------------------|-------------------------|
|-------------------------|-------------------------|
|-------------------------|-------------------------|
   

(2:38) SOLO PT. 2

|-------------------------|-------------------------|
|-17-17-17-17-17-17-17-17-|-15-15-15-15-15-15-15-15-|
|-------------------------|-------------------------|
|-------------------------|-------------------------|
|-------------------------|-------------------------|
|-------------------------|-------------------------|
      
|-------------------------|-------------------------|
|-13-13-13-13-13-13-13-13-|--12-12-12-12-12-12-12-12|
|-------------------------|-------------------------|
|-------------------------|-------------------------|
|-------------------------|-------------------------|
|-------------------------|-------------------------|

|-------------------------|-------------------------|
|-17-17-17-17-17-17-17-17-|-19-19-19-19-19-19-19-19-|
|-------------------------|-------------------------|
|-------------------------|-------------------------|
|-------------------------|-------------------------|
|-------------------------|-------------------------|
      
|-------------19-19-21-21-|-------------------------|
|-22-22-22-22-------------|-21-21-21-21-21----------|
|-------------------------|-------------------------|
|-------------------------|-------------------------|
|-------------------------|-------------------------|
|-------------------------|-------------------------|
     

(2:55) CHORUS PT. 1

(3:06) CHORUS PT. 2

(3:17) POST-CHORUS

|--------------------------------------------------------------------------|
                    When It Rains Tab
|--------------------------------------------------------------------------|


TUNING - eb Bb Gb Db Ab Eb

Intro- 
1.Guitar1 - C#m 2x delay

2.Guitar1 - A C#m-E   A B-C#m  2X  E

Guitar2

|------12---12---14---1416---|------12----12-----------------|
|-10h12--12---12----12----12-|-10h12---12----12-10-12-10--9--|
|----------------------------|-------------------------------|
|----------------------------|-------------------------------|2x
|----------------------------|-------------------------------|
|----------------------------|-------------------------------|




Verse- C#m  A  E  2X          
And when it rains,
On this side of town it touches, everything.
Just say it again and mean it.
We don't miss a thing.


Refrain-  
F#m                                                    E
You made yourself a bed at the bottom of the blackest hole (blackest hole)
 F#m                                                                E 
And convinced yourself that it's not the reason you don't see the sun anymore.


Chorus-
  A         C#m             E   
And oh, oh, how could you do it?
 A     B                C#m  
Oh I, I never saw it coming.
  A         C#m             E  
And oh, oh, I need the ending.
  A               B                C#m             E
So why can't you stay just long enough to explain?

Do Verse
And when it rains,
Will you always find an escape?
Just running away,

Do refrain
From all of the ones who love you, from everything.
You made yourself a bed at the bottom of the blackest hole (blackest hole)
And you'll sleep 'til May and you'll say that you don't wanna see the sun anymore.

Do Chorus-

And oh, oh, how could you do it?
Oh I, I never saw it coming.
And oh, oh, I need the ending.
So why can't you stay just long enough to explain?
Take your time.
Take my time.


Bridge-
                                        F#m   E    A      
Take these chances to turn it around. (take your time)
                                         F#m   E    A   
Take these chances, we'll make it somehow
                                           F#m   E   A  
And take these chances to turn it around. (take my...)
Just turn it around.

Bridge end-

|-9----|
|--9-10|
|------|
|------|
|------|
|------|

Do chorus 1x
Oh, how could you do it?
Oh I, I never saw it coming.

Do chorus 3x
Oh, oh, how could you do it?
Oh I, I never saw it coming.
Oh, oh, how could you do it?
Oh I, I never saw it coming.
Oh, oh I need an ending.
So why can't you stay just long enough to explain?

F#m              E
You can take your time,
A 
Take my time. 

GUITAR2 END

|-121212121212-16161616161616-|------------|
|-----------------------------|------------|
|-----------------------------|-2-2-2------|
|-----------------------------|-2-2-2------|
|-----------------------------|-0-0-0------|
|-----------------------------|------------|


|--------------------------------------------------------------------------|
                    Let The Flames Begin
|--------------------------------------------------------------------------|



Tuning- eb bb gb db Ab Db

Intro-
Guitar1
|------------------------------------------------------------------------|
|------------------------------------------------------------------------|
|----0----0----0----0---0---0---0---0----0----0----0----0----0----0----0-|
|-12---12---12---12---9---9---9---9---10---10---10---10---10---10---10---|4x
|------------------------------------------------------------------------|
|------------------------------------------------------------------------|


Guitar2 at 3rd time
|------6-6----------------|------6-6-------------------------|
|------------6------------|------------6------8--------------|
|---7------------7--5-----|---7------------7-----------------|
|-8-----------------------|-8--------------------------------|
|-------------------------|----------------------------------|
|-------------------------|----------------------------------|


Verse-

Guitar1
|------------------------------------------------------------------------|
|------------------------------------------------------------------------|
|----0----0----0----0---0---0---0---0----0----0----0----0----0----0----0-|
|-12---12---12---12---9---9---9---9---10---10---10---10---10---10---10---|4x
|------------------------------------------------------------------------|
|------------------------------------------------------------------------|


Guitar2 at 3rd time
|------6-6----------------|------6-6-------------------------|
|------------6------------|------------6------8--------------|
|---7------------7--5-----|---7------------7-----------------|
|-8-----------------------|-8--------------------------------|
|-------------------------|----------------------------------|
|-------------------------|----------------------------------|

Refrain-
Guitar1

|-------------------------------------------------------|
|-------------------------------------------------------|
|----10~----------------10~-----------------------------|
|--10~-----------------10~------------------------------|
|-8~------------------8~--------------------------------|
|-------------------------------------------------------|

Guitar2
|-------------------------------------------------------|
|--555-333--222-0000--555--333--------------------------|
|------------------------------2222-44444---------------|
|-------------------------------------------------------|
|-------------------------------------------------------|
|-------------------------------------------------------|


Chorus-
Guitar1
|-------------------------------------------------------|
|-------------------------------------------------------|
|-----------33333333------------55-5--5--5--------------|
|-555555555-33333333-111111111--55-5--5--5--------------|
|-555555555-11111111-111111111--33-3--3--3--------------|
|-555555555----------111111111--------------------------|
Guitar2
|-------------------------------------------------------|
|-------------------------------------------------------|
|-15151515-14/15---15151515-14/15-15-15-15-15-15--------|
|-x-x-x-x--x--x----x-x-x-x--x--x--x--x--x--x--x---------|
|-13131313-12/13---13131313-12/13-13-13-13-13-13--------|
|-------------------------------------------------------|


RepeaT VERSE 1x, Refrain , Chorus2x 

Interlude
Guitar2 2x
|-10----------------------------|  -----------|
|-------------------------------|  -----------|
|---12-10h12--10----------------|  -----------|
|----------------8--8p7h8-------|3x-7-8-s-10--|  
|-------------------------10-10-|  -----------|
|-------------------------------|  -----------|

Repeat Chorus 2x

Outro-
Guitar2 2x
|-10----------------------------|  -----------|
|-------------------------------|  -----------|
|---12-10h12--10----------------|  -----------|
|----------------8--8p7h8-------|3x-7-8-s-10--|
|-------------------------10-10-|  -----------|
|-------------------------------|  -----------|





|--------------------------------------------------------------------------|
                                Miracle  
|--------------------------------------------------------------------------|



Guitar1(e b g d A E)

Guitar2(e b g d A E)

Guitar3 - keyboard? 
INTRO-

Guitar1
|-------------------------------------------------|  |----------|
|-------------------------------------------------|  |----------|
|--6666666--------666666-444444-------------------|  |----------|
|--6666666-777777-666666-444444-777777--2-2-4-4---|2x|----7~----|
|--4444444-777777-444444-222222-777777--2-2-4-4---|  |----7~----|
|----------555555---------------555555--0-0-2-2---|  |----5~----|


Guitar2
|----------------------|-----------|----------|-44--------|-77-44--------|
|------------------777-|-----------|----------|-----------|--------4h5p4-|
|-------999------------|-------999-|-99998888-|---44-6666-|------4-------|
|-666-77----666-77-----|-666-77----|----------|-----------|--------------|2x
|----------------------|-----------|----------|-----------|--------------|
|----------------------|-----------|----------|-----------|--------------|

|---------|
|---------|
|----6~---|
|----6~---|
|----4~---|
|---------|

Verse-
Guitar1 P.M.
|---------------------|-----------------------------|
|---------------------|-----------------------------|
|---------------------|-----------------------------|
|---------------------|-----------------------------|4x
|--7777777-9999-6666--|---7777777--9999999----------|
|--5555555-7777-4444--|---5555555--7777777----------|

Guitar2
|---x---x-----x---x---|---x---x-----x---x---|
|---9---9-----7---7---|---9---9-----7---7---|
|---9---9-----8---8---|---9---9-----8---8---|4x
|---11--11----9---9---|---11--11----9---9---|
|---x---x-----x---x---|---x---x-----x---x---|
|---x---x-----x---x---|---x---x-----x---x---|

Guitar3(Not sure)at the 3rd time-

|-------------------------------------------------|
|-------------------12----------------------------|
|--9p8h9p8---9p8h9------9p8h9p8--9p8h9p11---------|
|-------------------------------------------------|2x
|-------------------------------------------------|
|-------------------------------------------------|

Pre Chorus-
G1 & G2

|---------------------|
|---------------------|
|---------------------|hold
|--2---2----6---6-----|
|--2---2----6---6-----|
|--0---0----2---2-----|

Chorus

Guitar1
|-------------------------------------------------|  |----------|
|-------------------------------------------------|  |----------|
|--6666666--------666666-444444-------------------|  |----------|
|--6666666-777777-666666-444444-777777--2-2-4-4---|2x|----7~----|
|--4444444-777777-444444-222222-777777--2-2-4-4---|  |----7~----|
|----------555555---------------555555--0-0-2-2---|  |----5~----|

Guitar2
|----------------------|-----------|----------|-44--------|-77-44--------|
|------------------777-|-----------|----------|-----------|--------4h5p4-|
|-------999------------|-------999-|-99998888-|---44-6666-|------4-------|
|-666-77----666-77-----|-666-77----|----------|-----------|--------------|2x
|----------------------|-----------|----------|-----------|--------------|
|----------------------|-----------|----------|-----------|--------------|

|---------|
|---------|
|----6~---|
|----6~---|
|----4~---|
|---------|

Repeat verse-

Pre Chorus-
G1 & G2

|---------------------|
|---------------------|
|---------------------|
|--2-2--6-6--7-7--9-9-|
|--2-2--6-6--7-7--9-9-|
|--0-0--2-2--5-5--7-7-|



Guitar1
|-------------------------------------------------|  |-----|---|
|-------------------------------------------------|  |-----|---|
|--6666666--------666666-444444-------------------|  |-----|---|
|--6666666-777777-666666-444444-777777--2-2-4-4---|2x|--7~-|---|
|--4444444-777777-444444-222222-777777--2-2-4-4---|  |--7~-|---|
|----------555555---------------555555--0-0-2-2---|  |--5~-|---|


Guitar2
|----------------------|-----------|----------|-44--------|-77-44--------|
|------------------777-|-----------|----------|-----------|--------4h5p4-|
|-------999------------|-------999-|-99998888-|---44-6666-|------4-------|
|-666-77----666-77-----|-666-77----|----------|-----------|--------------|2x
|----------------------|-----------|----------|-----------|--------------|
|----------------------|-----------|----------|-----------|--------------|

|---------|
|---------|
|----6~---|
|----6~---|
|----4~---|
|---------|


Bridge-
1.
Guitar1

|------------------------|-----------------------|
|------------------------|-----------------------|
|-6666666666666666666666-|----------444444-------|
|-6666666666666666666666-|---22222--444444-------|
|-4444444444444444444444-|---22222--222222-------|
|------------------------|---00000---------------|

Guitar2
|------------------------|---------------------|
|------------------------|---------------------|
|-1313131313131313131313-|---99999-------------|
|-xxxxxxxxxxxxxxxxxxxxxx-|---99999--999999-----|
|-1111111111111111111111-|---77777--999999-----|
|------------------------|----------777777-----|

2.
Guitar1
|-----------|-----------|-----------|------------|-----------------------|
|-----------|-----------|-----------|------------|-----------------------|
|-6-6-6-6-6-|-6-6-6-6-6-|-6-6-6-6-6-|-6-6-6-6-6--|----------444444-------|
|-6-6-6-6-6-|-6-6-6-6-6-|-6-6-6-6-6-|-6-6-6-6-6--|---22222--444444-------|
|-4-4-4-4-4-|-4-4-4-4-4-|-4-4-4-4-4-|-4-4-4-4-4--|---22222--222222-------|
|-----------|-----------|-----------|------------|---00000---------------|

Guitar2
|----------------|-----------------|  |---------------------|
|----------------|-----------------|  |---------------------|
|-13-13-13-13-13-|-13-13-13-13-13--|  |---99999-------------|
|-xx-xx-xx-xx-xx-|-xx-xx-xx-xx-xx--|2x|---99999--999999-----|
|-11-11-11-11-11-|-11-11-11-11-11--|  |---77777--999999-----|
|----------------|-----------------|  |----------777777-----|

3.
Guitar1
|-----------|-----------|-----------|------------|-----------------------|
|-----------|-----------|-----------|------------|-----------------------|
|-6-6-6-6-6-|-6-6-6-6-6-|-6-6-6-6-6-|-6-6-6-6-6--|----------444444-------|
|-6-6-6-6-6-|-6-6-6-6-6-|-6-6-6-6-6-|-6-6-6-6-6--|---22222--444444-------|
|-4-4-4-4-4-|-4-4-4-4-4-|-4-4-4-4-4-|-4-4-4-4-4--|---22222--222222-------|
|-----------|-----------|-----------|------------|---00000---------------|

Guitar2
|----------------|--------------------|  |---------------------|
|----------------|--------------------|  |---------------------|
|-13-13-13-13-13-|-13-13-13-13-13-----|  |---99999-------------|
|-xx-xx-xx-xx-xx-|-xx-xx-xx-xx-xx-----|2x|---99999--999999-----|
|-11-11-11-11-11-|-11-11-11-11-11--7*-|  |---77777--999999-----|
|----------------|--------------------|  |----------777777-----|

Do verse-
Guitar1
|-------------------------------------------------|  |---|---|
|-------------------------------------------------|  |---|---|
|--6666666--------666666-444444-------------------|  |---|---|
|--6666666-777777-666666-444444-777777--2-2-4-4---|2x|---|---|
|--4444444-777777-444444-222222-777777--2-2-4-4---|  |---|---|
|----------555555---------------555555--0-0-2-2---|  |---|---|

Guitar2
Guitar2
|----------------------|-----------|----------|-44--------|-77-44--------|
|------------------777-|-----------|----------|-----------|--------4h5p4-|
|-------999------------|-------999-|-99998888-|---44-6666-|------4-------|
|-666-77----666-77-----|-666-77----|----------|-----------|--------------|2x
|----------------------|-----------|----------|-----------|--------------|
|----------------------|-----------|----------|-----------|--------------|


Outro-

|------------------|---------------|
|------------------|---------------|
|------------------|--66666666666--|
|--7777777777777---|--66666666666--|2x
|--7777777777777---|--44444444444--|
|--5555555555555---|---------------|

|-----------|
|-----------|
|-----------|
|---7~------|end
|---7~------|
|---5~------|



|--------------------------------------------------------------------------|
                    Crushcrushcrush 
|--------------------------------------------------------------------------|
GUITAR1-drop c#
GUITAR2-dropc#

INTRO-

|-------------|
|-------------|
|-------------|
|---7-7-7-----|
|---5-5-5-----|
|-------------|

VERSE-

Guitar1

|-------------------------------------------|
|-------------------------------------------|
|-------------------------------------------|
|--77777777-10101010-55555555-77777777------|
|--55555555-88888888-33333333-55555555------|
|-------------------------------------------|
   ******** ******** ******** ********
|-------------------------------------------|
|-------------------------------------------|
|-------------------------------------------|
|--77777777-10101010-555555555555-----------|
|--55555555-88888888-333333333333-----------|
|-------------------------------------------|
   ******** ******** ************
Guitar2

|---------------------------------------------|
|---------------------------------------------|
|-77-99-77-99--77-99--77-99--77-99------------|
|---------------------------------------------|
|---------------------------------------------|
|---------------------------------------------|
  ** ** ** **  ** **  ** **  ** **

Ref.1

|-------------------------|------------------------------|
|-------------------------|------------------------------|
|-------------------------|------------------------------|
|-----8~----10~-----12~---|--8~----10~-----12~-----------|
|-----8~----10~-----12~---|--8~----10~-----12~-----------|
|-----8~----10~-----12~---|--8~----10~-----12~-----------|

Guitar2
|-------------------------|------------------------------|
|-----3~----5~------6~----|--3~----5~------6~------------|
|-----3~----5~------7~----|--3~----5~------7~------------|
|-----3~----5~------7~----|--3~----5~------7~------------|
|-----1~----3~------5~----|--1~----3~------5~------------|
|-------------------------|------------------------------|

interlude1
G1
|-------------------------------------------|
|-------------------------------------------|
|-------------------------------------------|
|----88---888----877-77---------------------|
|----88---888----877-77-----(BREAK)---------|
|----88---888----877-77---------------------|

G2
|----12-13-12--------13--12-----------------|
|------------13-----------------------------|
|---------------12--------------------------|
|-------------------------------------------|
|-------------------------------------------|
|-------------------------------------------|

REFRAIN2
     crush...............crush...



Gtr1
|-------------------------------------------|
|-------------------------------------------|
|-------------------------------------------|
|-----0~-----------------0~-----------------|
|-----0~-----------------0~-----------------|
|-----0~-----------------0~-----------------|

Gtr2
|-------------------------------------------|
|-------------------------------------------|
|-------------------------------------------|
|------7~-----------------7~----------------|
|------5~-----------------5~----------------|
|-------------------------------------------|

Chorus
Gtr1
|--------------------|-----------------------|
|--------------------|-----------------------|
|--------------------|----------------------|
|--00----33-----5~---|--88----00----5~-------|
|--00----33-----3~---|--88----00----3~-------|
|--00----33----------|--88----00-------------|

|--------------------|------------------------------|
|--------------------|------------------------------|
|--------------------|------------------------------|
|--00----33-----5~---|--88888888-1010101010---------|
|--00----33-----3~---|--88888888-1010101010-(break)-|
|--00----33----------|--88888888-1010101010---------|

Gtr2
|--------------------|-----------------------|
|--------------------|-----------------------|
|--------------------|-----------------------|
|--77----33-----5~---|--88----77----5~-------|
|--55----33-----3~---|--88----55----3~-------|
|--------33----------|--88-------------------|

|--------------------|------------------------------|
|--------------------|------------------------------|
|--------------------|------------------------------|
|--77----33-----5~---|--88888888-1010101010---------|
|--55----33-----3~---|--88888888-1010101010-(break)-|
|--------33----------|--88888888-1010101010---------|

interlude2
G1
|-------------------------------------------|
|-------------------------------------------|
|-------------------------------------------|
|---12-12-12-1010101010-12-12-12--10-10-10--|
|---12-12-12-1010101010-12-12-12--10-10-10--|
|---12-12-12-1010101010-12-12-12--10-10-10--|

G2
|---------------------------------|-------------------------------------|
|---------------------------------|-------------------------------------|
|---------------------------------|-------------------------------------|
|-----7-8-7-----------------------|7-8-7---------------------12~--------|
|-----------10-8---7-8-7----------|-------10-8---7-8-7------------------|
|-----------------------10-8--8-8-|---------------------10-8------------|

or
G2
|---------------------------------|-------------------------------------|
|-10-12-10------------------------|-10-12-10-----------------------15~--|
|---------12-10-9-10-9------------|---------12-10-9-10-9----------------|
|---------------------12-10-10-10-|----------------------12-10----------|
|---------------------------------|-------------------------------------|
|---------------------------------|-------------------------------------|

repeat verse,ref1,interlude1,ref2,chorus,


Bridge.
G1
|----------------------------------------------------|
|----------------------------------------------------|
|----------------------------------------------------|
|--0---3---5---33----0---3---5----33-----------------|4x
|--0---3---3---11----0---3---3----11-----------------|
|--0---3-------------0---3---------------------------|

enters at pt3
Guitar2
|-131313-121212-101010-121210101212-|
|-101010-101010-101010-101010101010-|
|-----------------------------------|
|-----------------------------------|
|-----------------------------------|
|-----------------------------------|



do Chorus


OUTRO-
GUITAR1
|--------------------------------------------------------------|
|--------------------------------------------------------------|
|--------------------------------------------------------------|
|--77777777-77777777-55555555-55555555-3333333-55555555---7----|END
|--55555555-44444444-33333333-22222222-1111111-33333333---5----|
|--------------------------------------------------------------|

Guitar2-not sure

|-13~-12~-13~-12~----12~-13~-12~-------------------------------|
|----------------15~------------15~----------------------------|
|--------------------------------------------------------------|
|--------------------------------------------------------------|
|--------------------------------------------------------------|
|--------------------------------------------------------------|

|------------------------------12-13--12-13--15-17--15-17-/23--|
|---------------13-15--13-15-----------------------------------|
|----13--14-15-------------------------------------------------|
|-15-----------------------------------------------------------|
|--------------------------------------------------------------|
|--------------------------------------------------------------|  



|--------------------------------------------------------------------------|
                    we are broken-leavethepieces
|--------------------------------------------------------------------------|
tuning-half step down
Cadd9 Em7
 I am outside
               G               Cadd9
 And I've been waiting for the sun
         Em7
 With my wide eyes
           G                    Cadd9
 I've seen worlds that don't belong
          Em7                 G            Cadd9
 My mouth is dry with words I cannot verbalize
       Em7            G  
 Tell me why we live like this

C        Em      D
 Keep me safe inside
                   C
 Your arms like towers
       Em   D
 Tower over me, yeah


Em7           G
 Cause we are broken
D
 What must we do to restore
Em7  G
 Our innocence
D                        C
 And oh, the promise we adored
         Em         
 Give us life again
C              Em       G
 Cause we just wanna be whole


Cadd9     Em7
 Lock the doors
                 G
 Cause I like to capture this voice
Cadd9       Em7
 It came to me tonight
         G               Cadd9
 So everyone will have a choice
           Em7
 And under red lights
             G              Cadd9
 I'll show myself it wasn't forged
       Em7
 We're at war
         G
 We live like this


C        Em      D
 Keep me safe inside
                   C
 Your arms like towers
       Em   D
 Tower over me


Em7           G
 Cause we are broken
D
 What must we do to restore
Em7  G
 Our innocence
D                        C
 And oh, the promise we adored
         Em         
 Give us life again
C              Em       G
 Cause we just wanna be whole


Bb F C x2

Bb     F    C (F)
 Tower over me
Bb     F    C  D
 Tower over me

D
 And I'll take the truth at any cost


Em7           G
 Cause we are broken
D
 What must we do to restore
Em7  G
 Our innocence
D                        C
 And oh, the promise we adored
         Em         
 Give us life again
C              Em       G
 Cause we just wanna be whole

|--------------------------------------------------------------------------|
                            fences
|--------------------------------------------------------------------------|
Guitar1(e b g d A E)

Guitar2(e b g d A E)

INTRO-

GUITAR1

|--------2~----|--------2~----|
|-------3~-----|-------3~-----|
|------4~------|------4~------|
|-----4~-------|-----4~-------|
|----2~--------|----2~--------|
|--------------|--------------|

Verse-

|--------2~----|--------2~----|
|-------3~-----|-------3~-----|
|------4~------|------4~------|
|-----4~-------|-----4~-------|
|----2~--------|----2~--------|
|--------------|--------------|

REFRAIN1

|--x-x-x-x-x-x--|--x-x-x-x-x--|
|--8-8-8-8-8-8--|--5-5-5-5-5--|
|--9-9-9-9-9-9--|--6-6-6-6-6--|
|--9-9-9-9-9-9--|--7-7-7-7-7--|
|--7-7-7-7-7-7--|--7-7-7-7-7--|
|---------------|--5-5-5-5-5--|

VERSE2-

|-------2~----|
|------3~-----|
|-----4~------|
|----4~-------|
|---2~--------|
|-------------|

REFRAIN2
|--------|------|-------|---------|-----------|
|--------|------|-------|---------|-----------|
|-----9~-|---7~-|----6~-|-----9~--|------6~---|
|----9~--|--7~--|---7~--|----9~---|-----7~----|
|---7~---|-5~---|--7~---|---7~----|----7~-----|
|--------|------|-5~----|---------|---5~------|


Chorus-
Guitar1
|----------------------------|--------|--------|
|----------------------------|--------|--------|
|--4-------------------------|--------|--------|
|--4-------------------------|--5-----|--2--4--|2x
|--2-------------------------|--5-----|--2--4--|
|----------------------------|--3-----|--0--2--|

Guitar2
|--1010101010-9-9-9-9--7777--|--------|
|--1212121212-12121212-7777--|---7777-|
|----------------------------|---7777-|
|----------------------------|--------|2x
|----------------------------|--------|
|----------------------------|--------|



Guitar1 & 2
|------------|--------------|
|------------|--------------|
|------------|--------------|
|--5-555555--|--2--2--2--2--|
|--5-555555--|--2--2--2--2--|
|--3-333333--|--0--0--0--0--|


|--------------------X---|
|--------------------X---|
|--------------------X---|
|--5-5555555-7777-8--X---|
|--5-5555555-7777-8--X---|
|--3-3333333-5555-6--X---|

Continued..
Guitar1
|--------2~----|--------2~----|
|-------3~-----|-------3~-----|
|------4~------|------4~------|
|-----4~-------|-----4~-------|
|----2~--------|----2~--------|
|--------------|--------------|


Verse-

|--------2~----|--------2~----|
|-------3~-----|-------3~-----|
|------4~------|------4~------|
|-----4~-------|-----4~-------|
|----2~--------|----2~--------|
|--------------|--------------|

REFRAIN1
|--x-x-x-x-x-x--|--x-x-x-x-x--|
|--8-8-8-8-8-8--|--5-5-5-5-5--|
|--9-9-9-9-9-9--|--6-6-6-6-6--|
|--9-9-9-9-9-9--|--7-7-7-7-7--|
|--7-7-7-7-7-7--|--7-7-7-7-7--|
|---------------|--5-5-5-5-5--|

REFRAIN2
|--------|------|-------|---------|-----------|
|--------|------|-------|---------|-----------|
|-----9~-|---7~-|----6~-|-----9~--|------6~---|
|----9~--|--7~--|---7~--|----9~---|-----7~----|
|---7~---|-5~---|--7~---|---7~----|----7~-----|
|--------|------|-5~----|---------|---5~------|


Repeat Chorus
Then

|-----------|-----------|-----------|-----------|
|-----------|-----------|-----------|-----------|
|-----------|-----------|---7---7---|-----------|
|---2---2---|---5---5---|---7---7---|---7---7---|
|---2---2---|---5---5---|---5---5---|---7---7---|
|---0---0---|---3---3---|-----------|---5---5---|


|-----------|-----------|-----------|-----------|
|-----------|-----------|-----------|-----------|
|-----------|-----------|---7---7---|-----------|
|---2---2---|---5---5---|---7---7---|---8---8---|
|---2---2---|---5---5---|---5---5---|---8---8---|
|---0---0---|---3---3---|-----------|---6---6---|



Solo-
1.
Guitar1
|-----------------------------------------------------|
|-----------------------------------------------------|
|-----------------------------------------------------|
|--9-9-9-9-8-8-8-8-7-7-7-7-6-6-6-6-5-5-5-5-5-5---5-7--|
|--9-9-9-9-8-8-8-8-7-7-7-7-6-6-6-6-5-5-5-5-5-5---5-7--|
|--7-7-7-7-6-6-6-6-5-5-5-5-4-4-4-4-3-3-3-3-3-3---3-5--|

Guitar2
|-----------------------------------------------------|
|-----------------------------------------------------|
|-----------------------------------------------------|
|----9^------7^-----9^-----7^-----9^--7^--------------|
|-----------------------------------------10^--9^-----|
|-----------------------------------------------------|


2.
Guitar1
|-----------------------------------------------------|
|-----------------------------------------------------|
|-----------------------------------------------------|
|--9-9-9-9-8-8-8-8-7-7-7-7-6-6-6-6-5-5-5-5-5-5---5-7--|
|--9-9-9-9-8-8-8-8-7-7-7-7-6-6-6-6-5-5-5-5-5-5---5-7--|
|--7-7-7-7-6-6-6-6-5-5-5-5-4-4-4-4-3-3-3-3-3-3---3-5--|

Guitar2
|----------------------------------------------|
|----------------------------------------------|
|----------------------------------------------|
|----9^------7^-----11^------9^-------12^------|
|----------------------------------------------|
|----------------------------------------------|


3.
Guitar1
|-------------|--------|--------|
|-------------|--------|--------|
|--4444444----|--------|--------|
|--4444444----|--55555-|--2--4--|2x
|--2222222----|--55555-|--2--4--|
|-------------|--33333-|--0--2--|

Guitar2
|--77777777-9999--10101010-1212121212121212-141414141414-121212---|
|--xxxxxxxx-xxxx--xxxxxxxx-xxxxxxxxxxxxxxxx-xxxxxxxxxxxx-xxxxxx---|
|--44444444-6666--7-7-7-7--9-9-9-9-9-9-9-9--111111111111-9-9-9----|
|-----------------------------------------------------------------|
|-----------------------------------------------------------------|
|-----------------------------------------------------------------|

Bridge
Guitar1

|-----------|-----------|-----------|-----------|
|-----------|-----------|-----------|-----------|
|-----------|-----------|---7---7---|-----------|
|---2---2---|---5---5---|---7---7---|---8---8~--|
|---2---2---|---5---5---|---5---5---|---8---8~--|
|---0---0---|---3---3---|-----------|---6---6~--|


Guitar2
|---------x-x-x-x--|---------x-x-x-x--|----------x-x-x-x-|--------x-x-x-x--|
|---------x-x-x-x--|---------x-x-x-x--|----------x-x-x-x-|--------x-x-x-x--|
|---------x-x-x-x--|---------x-x-x-x--|---7---7--x-x-x-x-|--------x-x-x-x--|
|---2---2-x-x-x-x--|---5---5-x-x-x-x--|---7---7--x-x-x-x-|--8---8-x-x-x-x--|
|---2---2-x-x-x-x--|---5---5-x-x-x-x--|---5---5--x-x-x-x-|--8---8-x-x-x-x--|
|---0---0-x-x-x-x--|---3---3-x-x-x-x--|------------------|--6---6-x-x-x-x--|

Chorus--
Guitar1
|----------------------------|--------|--------|
|----------------------------|--------|--------|
|--4-------------------------|--------|--------|
|--4-------------------------|--5-----|--2--4--|2x
|--2-------------------------|--5-----|--2--4--|
|----------------------------|--3-----|--0--2--|

Guitar2
|--1010101010-9-9-9-9--7777--|--------|
|--1212121212-12121212-7777--|---7777-|
|----------------------------|---7777-|
|----------------------------|--------|2x
|----------------------------|--------|
|----------------------------|--------|



Guitar1 & 2
|------------|--------------|
|------------|--------------|
|------------|--------------|
|--5-555555--|--2--2--2--2--|2x
|--5-555555--|--2--2--2--2--|
|--3-333333--|--0--0--0--0--|


|--------------------X---|
|--------------------X---|
|--------------------X---|
|--5-5555555-7777-8--X---|
|--5-5555555-7777-8--X---|
|--3-3333333-5555-6--X---|


OUTRO-

GUITAR1
|--------2~----|--------2~----|
|-------3~-----|-------3~-----|
|------4~------|------4~------|
|-----4~-------|-----4~-------|
|----2~--------|----2~--------|
|--------------|--------------|


|--------------------------------------------------------------------------|
                    Born for this
|--------------------------------------------------------------------------|

Tabbed by Paramorefans.com

the verse is a little weird...it'll be fixed asap.

TUNED HALF A STEP DOWN in Drop D (Db, Ab, Db, Gb, Bb, eb)

INTRO GTR 1 : TWO TIMES
eb|------------------------------------------------------------|
Bb|--7^8-5---------------------5---5---------------------------|
Gb|--------7--4^-----6-6-6-6---6---6---------------------------|
Db|-------------- 7--------------------------------------------|
Ab|------------------------------------------------------------|
Db|------------------------------------------------------------|

INTRO GTR 2 : TWO TIMES
eb|---------------------------------------------------------------|
Bb|---------------------------------------------------------------|
Gb|---------------------------------------------------------------|
Db|--9-------7-------0-------2------------------------------------|
Ab|--9-x6---7-x6---0-x6---2-x6------------------------------------|
Db|--9-------7-------0-------2------------------------------------|

break before the first verse :
eb|-------------------------------------------|
Bb|-------------------------------------------|
Gb|-11--x8------------------------------------|
Db|---9--x8-----------------------------------|
Ab|-------------------------------------------|
Db|-------------------------------------------|

Verse 1: "oh no..... [play twice]
eb|-----------------------------------------------------------------------------------|
Bb|-----------------------------------------------------------------------------------|
Gb|-11--x8------9--x4-----6-x4----11--x8----9--x8-----6----x4-------------------------|
Db|---9--x8------7--x4----4-x4-----9--x8-----7--x8-----4----x4------------------------|
Ab|-----------------------------------------------------------------------------------|
Db|-----------------------------------------------------------------------------------|


VERSE OUTRO GTR 1 "... It takes acquired minds.."[guitar one plays this twice]
eb|--------------------------------------------------------------------------------------|
Bb|--------------------------------------------------------------------------------------|
Gb|--------------------------------------------------------------------------------------|
Db|---2~---9~---5~---2-2-x-2-2-x-2-2-x-2-2-x-2-2-x-7-7-x-7-7-x-7-7-x-7-7-x-7-7-x-9~x-----|
Ab|---2~---9~---5~---2-2-x-2-2-x-2-2-x-2-2-x-2-2-x-7-7-x-7-7-x-7-7-x-7-7-x-7-7-x-9~x-x---|
Db|---2~---9~---5~---2-2-x-2-2-x-2-2-x-2-2-x-2-2-x-7-7-x-7-7-x-7-7-x-7-7-x-7-7-x-9~x-----|

VERSE OUTRO GTR 2 ".. we just want!" (pretty sure its accurate)
ebl---------------------9---10--12--10--9-----------7-7p5-9-10-10s12--10p9--|
Bbl---12--10--12--12---x----x---x---x---x-----------------------------------|
Gbl---11--11--11--11---11--11--11--11--11-----------------------------------|
Dbl---9---9---9---9---------------------------------------------------------|
Abl-------------------------------------------------------------------------|
Dbl-------------------------------------------------------------------------|


CHORUS GTR 1 "Everybody sing.."
eb|--------------------------------------------------------|
Bb|--------------------------------------------------------|
Gb|--------------------------------------------------------|
Db|--5xxx--000--444--5xxx--999--777-----------5~-----------|
Ab|--5xxx--000--444--5xxx--999--777----(x2)---5~-----------|
Db|--5xxx--000--444--5xxx--999--777-----------5~-----------|


CHORUS GTR 2 "..sing!" comes in at open chord, listen for it
eb|--------------------------------------------------------|
Bb|--------------------------------------------------------|
Gb|--11-----9------7------11-----9------7------------------|
Db|--x--x8--x--x8--x--x1--x--x8--x--x8--x--x16--repeat etc-|
Ab|--9------7------5------9------7------5------------------|
Db|--------------------------------------------------------|

VERSE - [play twice]
eb|-----------------------------------------------------------------------------------|
Bb|-----------------------------------------------------------------------------------|
Gb|-11--x8------9--x4-----6-x4----11--x8----9--x8-----6----x4-------------------------|
Db|---9--x8------7--x4----4-x4-----9--x8-----7--x8-----4----x4------------------------|
Ab|-----------------------------------------------------------------------------------|
Db|-----------------------------------------------------------------------------------|


VERSE OUTRO GTR 1 "... It takes acquired minds.."[guitar one plays this twice]
eb|--------------------------------------------------------------------------------------|
Bb|--------------------------------------------------------------------------------------|
Gb|--------------------------------------------------------------------------------------|
Db|---2~---9~---5~---2-2-x-2-2-x-2-2-x-2-2-x-2-2-x-7-7-x-7-7-x-7-7-x-7-7-x-7-7-x-9~x-----|
Ab|---2~---9~---5~---2-2-x-2-2-x-2-2-x-2-2-x-2-2-x-7-7-x-7-7-x-7-7-x-7-7-x-7-7-x-9~x-x---|
Db|---2~---9~---5~---2-2-x-2-2-x-2-2-x-2-2-x-2-2-x-7-7-x-7-7-x-7-7-x-7-7-x-7-7-x-9~x-----|

VERSE OUTRO GTR 2 ".. we just want!" (pretty sure its accurate)
ebl---------------------9---10--12--10--9-----------7-7p5-9-10-10s12--10p9--|
Bbl---12--10--12--12---x----x---x---x---x-----------------------------------|
Gbl---11--11--11--11---11--11--11--11--11-----------------------------------|
Dbl---9---9---9---9---------------------------------------------------------|
Abl-------------------------------------------------------------------------|
Dbl-------------------------------------------------------------------------|


CHORUS GTR 1 "Everybody sing.."
eb|--------------------------------------------------------|
Bb|--------------------------------------------------------|
Gb|--------------------------------------------------------|
Db|--5xxx--000--444--5xxx--999--777------------------------|
Ab|--5xxx--000--444--5xxx--999--777----(x2)----------------|
Db|--5xxx--000--444--5xxx--999--777------------------------|


CHORUS GTR 2 "..sing!" comes in at open chord, listen for it
eb|--------------------------------------------------------|
Bb|--------------------------------------------------------|
Gb|--11-----9------7------11-----9------7------------------|
Db|--x--x8--x--x8--x--x1--x--x8--x--x8--x--x16--repeat etc-|
Ab|--9------7------5------9------7------5------------------|
Db|--------------------------------------------------------|

BACK TO INTRO

INTRO GTR 1 : TWO TIMES
eb|--------------------------------------------------------|
Bb|--7^8-5------------------5---5--------------------------|
Gb|--------7--4-----6-6-6-6---6---6------------------------|
Db|--------------7-----------------------------------------|
Ab|--------------------------------------------------------|
Db|--------------------------------------------------------|

INTRO GTR 2 : TWO TIMES
eb|--------------------------------------------------------|
Bb|--------------------------------------------------------|
Gb|--------------------------------------------------------|
Db|--9-----7-----0-----2-----------------------------------|
Ab|--9-x6--7-x6--0-x6--2-x6--------------------------------|
Db|--9-----7-----0-----2-----------------------------------|

BRIDGE: GTR 1 ".. alright so you think you're ready.."

eb|----------------------------------------------------------------------------------------|
Bb|----------------------------------------------------------------------------------------|
Gb|------------------------------------------------------------------------------19--------|
Db|---5~--7~--9-----------xxx2---xxx5~--7~--9~--xxx2--xxx5--xxx7--xxx5~---4------x--x16----|
Ab|---5~--7~--9slide back-xxx2---xxx5~--7~--9~--xxx2--xxx5--xxx7--xxx5~---4x12---17--------|
Db|---5~--7~--9-----------xxx2---xxx5~--7~--9~--xxx2--xxx5--xxx7--xxx5~---4----------------|
comments
print report bad tab
16 comments total. Showing first comments.
0 reply
HH_Emo_666 wrote on November 14 2007, 07:18 pm

this looks rly good but i think you should at least give the tabbers credit for taking their tabs

+1 reply
doobidoo wrote on November 15 2007, 12:23 am

thats y ive included their name next to the title..and also 8 of the songs are my tabs ...

0 reply
francis hilera wrote on November 15 2007, 01:16 am

5* for that tnx man

I want to post or [tab]
guest
You may want to rate the tab now too:
select rating
Please do not post tabs as comments. Select "correction" instead!