Oops, an error
Loading. Please wait.

Riot Bass Tab

ver2
ver2

Album

More versions @911Tabs.com
686 views 9 this week
no commentswrite comment
1 2 3 4 5
excellent!
x 2
add to favorites launch autoscroll
font size
0
reset
Autoscroll
+/-
esc
set tempo
stop
Contributor
Tuning
C# G# C# F# A# D#
WARNING: You are trying to view
                                    content from Ultimate-Guitar.com
                                    in an unauthorized application,
                                    which is prohibited.

                                    Please use an official Ultimate
                                    Guitar Tabs application for iPhone,
                                    iPad or Android to access legitimate
                                    chords, guitar, bass, and drum tabs
                                    from Ultimate-Guitar.com database.

                                    Type "ultimate guitar tabs" in Apple
                                    App Store's or Android Market's
                                    search to find the application.
For A Pessimist, I'm Pretty Optimistic

F#|----------------------------------------------------------------------------------|
C#|o--------------------------------------------------------------------------------o|
G#|o-333-333---------------------------------333-333-------------555-555-3-5-7-8-10-o|
C#|----------555-555-5-5-222-222-000-000-0-0---------555-555-5-5---------------------|

F#|---------------------------------------------------|
C#|---------------------------------------------------|
G#|---------------------------------------------------|
C#|-5~-------10(x28)---10-10-5~-------10(x28)---10-10-|
                                                           
F#|-----------------------------------------------------------------|  
C#|-----------------------------------------------------------------|
G#|-----------------------------------------------------------------|
C#|-55--555--555--555--577--777--777--7-7h9p7/2-2------12\-0-0------|

F#|-------------------------------------------|
C#|-------------------------------------------|
G#|-0---2---3---3/5---------------------------|  
C#|-------------------2---2-4---4-5---5-7-----| 

F#|-----------------------------------------------------------------|
C#|-----------------------------------------------------------------|
G#|-3-3-333-5-5-555-----------------3-3-333---------5-5-555-5-5-555-|
C#|-----------------2-2-222-2-2-222---------5-5-555-----------------|

F#|-----------------------------------------------------------------|
C#|-----------------------------------------------------------------|
G#|-3-3-333-5-5-555-----------------3-3-333-5-5-555---------5--5--5-|
C#|-----------------2-2-222-2-2-222-----------------5-5-5-5---------|

F#|--------------------------------------------------------------------------------|
C#|--------------------------------------------------------------------------------|
G#|-333-333---------------------------------333-333-------------555-555-3-5-7-8-10-|
C#|---------555-555-5-5-222-222-000-000-0-0---------555-555-5-5--------------------|

F#|--------------------------------------------------------|
C#|--------------------------------------------------------|
G#|--------------------------------5h7-5-2-----------------|
C#|-5~-------10(x28)---10-10-5~------------10(x28)---10-10-|
                                                           
F#|-----------------------------------------------------------------|  
C#|-----------------------------------------------------------------|
G#|-----------------------------------------------------------------|
C#|-55--555--555--555--577--777--777--7-7h9p7/2-2------12\-0-0------|

F#|------------------------------------------------|
C#|------------------------------------------------|
G#|-0---2---3---5----------------------------------|  
C#|-----------------22222222-44444444-55555555-7---| 

F#|------------------------------------------------------------------|
C#|------------------------------------------------------------------|
G#|-3-3-333-5-5-555-----------------3-3-333---------5-5-555-5-7-8-10-|
C#|-----------------2-2-222-2-2-222---------5-5-555------------------|

F#|-----------------------------------------------------------------|
C#|-----------------------------------------------------------------|
G#|-3-3-333-5-5-555-----------------3-3-333-5-5-555---------5--5--5-|
C#|-----------------2-2-222-2-2-222-----------------5-5-5-5---------|

F#|------------------------------------------------------------------------------|
C#|------------------------------------------------------------------------------|
G#|-333-333---------------------------------333-333-------------5--5--5--5-5-5-5-|
C#|---------555-555-5-5-222-222-000-000-0-0---------555-555-5-5------------------|

F#|------------------------------------------------------------------|
C#|------------------------------------------------------------------|
G#|-----------------333322220000--------------------333322220000-----|
C#|-2222222244445555------------44441111222244445555------------4444-|
 
F#|---------------------------------------------------------------------|
C#|---------------------------------------------------------------------|
G#|-----------------3---2---0-----------------------3---2---0-----------|
C#|-2---2---4---5---------------4---1---2---4---5---------------4---5---|

Rest

F#|------------------------------------------------------------------------------|
C#|------------------------------------------------------------------------------|
G#|-333-333---------------------------------333-333-------------5--5--5--5-5-5-5-|
C#|---------555-555-5-5-222-222-000-000-0-0---------555-555-5-5------------------|

F#|-----------------------------------------------------------------|
C#|-----------------------------------------------------------------|
G#|-3-3-333-5-5-555-----------------3-3-333-5-5-555-----------------|
C#|-----------------2-2-222-2-2-222-----------------5-5-555-5-5-555-|

F#|------------------------------------------------------------------|
C#|------------------------------------------------------------------|
G#|-3-3-333-5-5-555-----------------3-3-333---------5-5-555-5-7-8-10-|
C#|-----------------2-2-222-2-2-222---------5-5-555------------------|

F#|-----------------------------------------------------------------|
C#|-----------------------------------------------------------------|
G#|-3-3-3-3-5-5-5-5-----------------3-3-3-3-5-5-5-5-----------------|
C#|-----------------2-2-2-2-2-2-2-2-----------------5-5-5-5-5-5-5-5-|

F#|--------------|
C#|--------------|
G#|--------------|
C#|-2-----0------|

===============================================================================

That's What You Get

F#|------------------------------------|
C#|o----------------------------------o|
G#|o-0-0-0---0-0-0---2-2-2---4-4-4----o|
C#|--------------------------------6---|

0:10
F#|-------------------------------------------------------------------|
C#|-------------------------------------------------------------------|
G#|-0-0-0---0-0-0---2-2-2---4-4-4---0-0-0---0-0-0---2-2-2---4-4-4-7-\-|
C#|-------------------------------------------------------------------|

F#|----------------------------------|
C#|----------------------------------|
G#|-0-0-0---0-0-0---2-2-2---4-4-4----|
C#|-------------------------------6--|

0:27
F#|-----------------------------------------------------------------------|
C#|-----------------------------------------------------------------------|
G#|-0-0-0---0-0-0---2-2-2---4-4-4---0-0-0---0-0-0---2-2-2---4-4-4---------|
C#|-----------------------------------------------------------------2-----|

0:42
F#|-----------------------------------------------------------------|
C#|-------------------------------------------------------------2---|
G#|-0-0-0-0-0-0-0-0-----------------4-4-4-4-4-4-4-4-2-2-2-2-2-4---2-|
C#|-----------------2-2-2-2-2-2-2-2---------------------------------|

F#|-----------------------------------------------------------------|
C#|-----------------------------------------------------------------|
G#|-0-0-0-0-0-0-0-0-----------------2-2-2-2-2-2-2-2-2-2-2-2-2-2-2-2-|
C#|-----------------2-2-2-2-2-2-2-2---------------------------------|

F#|-----------------------------------------------------------------|
C#|-------------------------------------------------------------2---|
G#|-4-4-4-4-4-4-4-4-2-2-2-2-2-2-2-2-4-4-4-4-4-4-4-4-2-2-2-2-2-4---2-|
C#|-----------------------------------------------------------------|

F#|---------------------------------------------------------------------|
C#|---------------------------------------------------------------------|
G#|-0-0-0-0-0-0-0-0-----------------2-2-2-2-2-2-2-2-2-2-2-2-2-2-2-2-0---|
C#|-----------------2-2-2-2-2-2-2-2-------------------------------------|

Rest

1:16
F#|--------------------------------------|
C#|--------------------------------------|
G#|-7-\-0-0-0---0-0-0---2-2-2---4-4-4----|
C#|-----------------------------------6--|

1:22
F#|-------------------------------------------------------------------|
C#|-------------------------------------------------------------------|
G#|-0-0-0---0-0-0---2-2-2---4-4-4-7-\-0-0-0---0-0-0---2-2-2---4-4-4---|
C#|-------------------------------------------------------------------|

F#|-----------------------------------------------------------------------|
C#|-----------------------------------------------------------------------|
G#|-0-0-0---0-0-0---2-2-2---4-4-4---0-0-0---0-0-0---2-2-2---4-4-4-7-\-----|
C#|-------------------------------------------------------------------2---|

1:48
F#|-----------------------------------------------------------------|
C#|-----------------------------------------------------------------|
G#|-0-0-0-0-0-0-0-0-----------------4-4-4-4-4-4-4-4-2-2-2-2-2-2-2-2-|
C#|-----------------2-2-2-2-2-2-2-2---------------------------------|

F#|-----------------------------------------------------------------|
C#|-----------------------------------------------------------------|
G#|-0-0-0-0-0-0-0-0-----------------2-2-2-2-2-2-2-2-2-2-2-2-2-2-2-2-|
C#|-----------------2-2-2-2-2-2-2-2---------------------------------|

F#|-----------------------------------------------------------------|
C#|-----------------------------------------------------------------|
G#|-4-4-4-4-4-4-4-4-2-2-2-2-2-2-2-2-4-4-4-4-4-4-4-4-2-2-2-2-2-2-2-2-|
C#|-----------------------------------------------------------------|

F#|-----------------------------------------------------------------|
C#|-----------------------------------------------------------------|
G#|-0-0-0-0-0-0-0-0-----------------2-2-2-2-2-2-2-2-2-2-2-2-2-2-2-2-|
C#|-----------------2-2-2-2-2-2-2-2---------------------------------|

2:17
F#|-----------------------------------|
C#|o---------------------------------o|
G#|o-0-0-0---0-0-0---2-2-2---4-4-4---o| x4
C#|-----------------------------------|

2:39
F#|------------------------------------|
C#|o----------------------------------o|
G#|o-0-0-0---0-0-0---2-2-2---4-4-4----o|
C#|--------------------------------6---|

Rest 

2:54
F#|---------------------------------|
C#|---------------------------------|
G#|-2-2-2-2-2-2-2-2-2-2-2-2-2-2-7-\-|
C#|---------------------------------|

2:58
F#|-----------------------------------------------------------------|
C#|-----------------------------------------------------------------|
G#|-0-0-0-0-0-0-0-0-----------------4-4-4-4-4-4-4-4-2-2-2-2-2-2-2-2-|
C#|-----------------2-2-2-2-2-2-2-2---------------------------------|

F#|-----------------------------------------------------------------|
C#|-----------------------------------------------------------------|
G#|-0-0-0-0-0-0-0-0-----------------2-2-2-2-2-2-2-2-2-2-2-2-2-2-2-2-|
C#|-----------------2-2-2-2-2-2-2-2---------------------------------|

F#|-----------------------------------------------------------------|
C#|-----------------------------------------------------------------|
G#|-4-4-4-4-4-4-4-4-2-2-2-2-2-2-2-2-4-4-4-4-4-4-4-4-2-2-2-2-2-2-2-2-|
C#|-----------------------------------------------------------------|

F#|-----------------------------------------------------------------|
C#|-------------------------------------------------------------2---|
G#|-0-0-0-0-0-0-0-0-----------------2-2-2-2-2-2-2-2-2-2-2-2-2-2---2-|
C#|-----------------2-2-2-2-2-2-2-2---------------------------------|

F#|-----------------------|
C#|-----------------------|
G#|-0-0-0---0-0-0---------|
C#|-----------------2-----|

===============================================================================

Hallelujah

0:05
F#|---------------------------------------------------------------|
C#|---------------------------------------------------------------|
G#|-3-3-3-3-3-3-3-3-3-3-3-3-3-3-3-3-0-0-0-0-0-0----------/8-8-8-8-|
C#|---------------------------------------------3---3-3-----------|

F#|----------------------------------------------------------------|
C#|----------------------------------------------------------------|
G#|-3-3-3-3-3-3-3-3-3-3-3-3-3-3-3-3-0-0-0-0-0-0--------------------|
C#|---------------------------------------------3---3-3---3--------|

0:19
F#|------------------------------------------|
C#|o----------------------------------------o|
G#|o-3-3--3-----------0-0--0-----2-2--2-----o| x4
C#|----------------------------------------~-|

0:43
F#|------------------------|
C#|-----------------10-----|
G#|-3----------3/10--------|
C#|-~----------------------|

0:51
F#|------------------------------------------------------------------|
C#|o----------------------------------------------------------------o|
G#|o-3-3-3-3-3-3-3-3-3-3-3-3-3-3-3-3-0-0-0-0-0-0--------------------o|
C#|----------------------------------------------3---3-3---3---------|

F#|------------------------------------------------------------------|
C#|o----------------------------------------------------------------o|
G#|o-3-3-3---3-3-3---3-3-3---3-3-3---0------------------------------o|
C#|----------------------------------------------3-------------------|

1:15
F#|--------------------------------------|------------------------------------------|
C#|--------------------------------------|o----------------------------------------o|
G#|-3--------------0-0--0-----2-2--2-----|o-3-3--3-----------0-0--0-----2-2--2-----o|x3
C#|--------------------------------------|----------------------------------------~-|

F#|---------------------|
C#|---------------------|
G#|-3----------10\3-----|
C#|-~-------------------|

1:48
F#|------------------------------------------------------------------|
C#|o----------------------------------------------------------------o|
G#|o-3-3-3-3-3-3-3-3-3-3-3-3-3-3-3-3-0-0-0-0-0-0--------------------o|
C#|----------------------------------------------3---3-3---3---------|

F#|------------------------------------------------------------------|
C#|o----------------------------------------------------------------o|
G#|o-3-3-3---3-3-3---3-3-3---3-3-3---0------------------------------o|
C#|----------------------------------------------3-------------------|

Rest

2:19
F#|----------------------------------------------------------------------------------|
C#|-------------7-7-7-10-10-10-10-10-10-10-------------------------------------------|
G#|-7-7-7-8-8-8----------------------------7-7-7-8-8-8-10-10-10-10-10-10-10-10-10-10-|
C#|----------------------------------------------------------------------------------|

2:25
F#|-----------------------------------------------------------------|
C#|o---------------------------------------------------------------o|
G#|o-------------0-0-0-3-3-3-3-3-3---------------------------------o|
C#|--2-2-2-3-3-3-------------------2-2-2-3-3-3-5-5-5-5-5-5-5-5-5-5--|

2:38
F#|---------------------------------------------------------------|
C#|---------------------------------------------------------------|
G#|-------------0-0-0-3-3-3-3-3-3-------------0-0-0-0---0---------|
C#|-2-2-2-3-3-3-------------------2-2-2-3-3-3---------------------|


F#|------------------------------------------------------------------|
C#|o----------------------------------------------------------------o|
G#|o-3-3-3-3-3-3-3-3-3-3-3-3-3-3-3-3-0-0-0-0-0-0--------------------o|
C#|----------------------------------------------3---3-3---3---------|

F#|------------------------------------------------------------------|
C#|o----------------------------------------------------------------o|
G#|o-3-3-3---3-3-3---3-3-3---3-3-3---0------------------------------o|
C#|----------------------------------------------3-------------------|

F#|-------------|
C#|-------------|
G#|-3-3---3-----|
C#|-------------|

===============================================================================

Misery Business

F#|------------------------------------------------|
C#|------------------------------------------------|
G#|-------4-----------------------4-----5-5--5-5-5-|
C#|-4---4----4--2---2-0--2--4---4----4-------------|

F#|----------------------------------------------------------|
C#|----------------------------------------------------------|
G#|-------4-----------------------4--------------------------|
C#|-4---4----4--2---2-0--2--4---4----4--7--7--6--6--4------4-|

0:14
F#|-----------------------------------------------------------------|
C#|-----------------------------------------------------------------|
G#|---------2-4-2-4-------------------------2-4-2-4-----------------|
C#|-4-4---4---------2-2---2-2-2---2-4-4---4---------0-0---0-0-0-----|

F#|-----------------------------------------------------------------|
C#|-----------------------------------------------------------------|
G#|---------2-4-2-4-------------------------2-4-2-4-----------------|
C#|-4-4---4---------2-2---2-2-2---2-4-4---4---------7-7-7-7-6-6-6-6-|

0:25
F#|-----------------------------------------------------------------|
C#|-----------------------------------------------------------------|
G#|---------2-4-2-4-------------------------2-4-2-4-----------------|
C#|-4-4---4---------2-2---2-2-2---2-4-4---4---------0-0---0-0-0-----|

F#|-----------------------------------------------------------------|
C#|-----------------------------------------------------------------|
G#|---------2-4-2-4-------------------------2-4-2-4-----------------|
C#|-4-4---4---------2-2---2-2-2---2-4-4---4---------7-7-7-7-6-6-6-6-|

0:35
F#|-----------------------------------------------------------------|
C#|-----------------------------------------------------------------|
G#|---------2-4-2-4-------------------------2-4-2-4-----------------|
C#|-4-4---4---------2-2---2-2-2---2-4-4---4---------0-0---0-0-0---0-|

F#|-----------------------------------------------------------------|
C#|-----------------------------------------------------------------|
G#|---------2-4-2-4-------------------------2-4-2-4-----------------|
C#|-4-4---4---------2-2---2-2-2---2-4-4---4---------7-7-7-7-6-6-6-6-|

0:47
F#|-------------------------------|
C#|-------------------------------|
G#|-------------------------------|
C#|-4-4-4-4-4-4-4-4-2-2-2-2-2-----|

0:49
F#|-----------------------------------------------------------------|
C#|-----------------------------------------------------------------|
G#|-----------0---------------7---------------2---------------------|
C#|-0---0---0---0-6-7---7---7---7---2---2---2---2---4-4-4-4-6-6-6-6-|

F#|-----------------------------------------------------------------|
C#|-----------------------------------------------------------------|
G#|-5---5---5-7-5-------------7---------------2---------------------|
C#|-----------------7---7---7---7---2---2---2---2---4-4-4-4-6-6-6-6-|

1:00
F#|-----------------------------------------------------------------|
C#|---------------------------7-------------------------------------|
G#|-5---5---5---5---5---5---5---5-5---------------------------------|
C#|---------------------------------2---2---2---2---2---2---2-4-4-4-|

F#|-----------------------------------------------------------------|
C#|-----------------------------------------------------------------|
G#|-5---5---5---5---5---5---5-0-0-0---------------------------------|
C#|---------------------------------2---2---2---2---7-7-7-7-6-------|

1:12
F#|-----------------------------------------------------------------|
C#|-----------------------------------------------------------------|
G#|---------2-4-2-4-------------------------2-4-2-4-----------------|
C#|-4-4---4---------2-2---2-2-2---2-4-4---4---------0---0---0-0-----|

1:18
F#|-----------------------------------------------------------------|
C#|-----------------------------------------------------------------|
G#|---------2-4-2-4-------------------------2-4-2-4-----------------|
C#|-4-4---4---------2-2---2-2-2---2-4-4---4---------0-0---0-0-0-----|

F#|-----------------------------------------------------------------|
C#|-----------------------------------------------------------------|
G#|---------2-4-2-4-------------------------2-4-2-4-----------------|
C#|-4-4---4---------2-2---2-2-2---2-4-4---4---------7-7-7-7-6-6-6-6-|

F#|-----------------------------------------------------------------|
C#|-----------------------------------------------------------------|
G#|---------2-4-2-4-------------------------2-4-2-4-----------------|
C#|-4-4---4---------2-2---2-2-2---2-4-4---4---------0-0---0-0-0---0-|

F#|-----------------------------------------------------------------|
C#|-----------------------------------------------------------------|
G#|---------2-4-2-4-------------------------2-4-2-4-----------------|
C#|-4-4---4---------2-2---2-2-2---2-4-4---4---------7-7-7-7-6-6-6-6-|

F#|-------------------------------|
C#|-------------------------------|
G#|-------------------------------|
C#|-4-4-4-4-4-4-4-4-2-2-2-2-2-----|

1:43
F#|-----------------------------------------------------------------|
C#|-----------------------------------------------------------------|
G#|-----------4-2-------------7---------------2---------------------|
C#|-0---0---0-----6-7---7---7---7---2---2---2---2---4-4-4-4-6-6-6-6-|

F#|-----------------------------------------------------------------|
C#|-----------------------------------------------------------------|
G#|-5---5---5-7-5-------------7---------------2---------------------|
C#|-----------------7---7---7---7---2---2---2---2---4-4-4-4-6-6-6-6-|

1:53
F#|-----------------------------------------------------------------|
C#|---------------------------7-------------------------------------|
G#|-5---5---5---5---5---5---5---5-5---------------------------------|
C#|---------------------------------2---2---2---2---2---2---2-4-4-4-|

F#|-----------------------------------------------------------------|
C#|-----------------------------------------------------------------|
G#|-5---5---5---5---5---5---5-0-0-0---------------------------------|
C#|---------------------------------2---2---2---2---7-7-7-7-6-------|

Rest

2:10
F#|----------------------------------------------------------------------|
C#|----------------------------------------------------------------------|
G#|-5--------------/12---12---12---12--/7---7---7---7---9---9---11---11--|
C#|----------------------------------------------------------------------|

F#|-----------------------------------------------------------------|
C#|-----------------------------------------------------------------|
G#|-5---5---5---5---------------------------------------------------|
C#|-----------------7---7---7---7---2---2---2---2---4---4---6---6---|

F#|-----------------------------------------------------------------|
C#|-----------------------------------------------------------------|
F#|-5--------------/12---12---12---12--\7---7---7---7---9-9-9-9-9---|
C#|-----------------------------------------------------------------|

2:26
F#|-----------------------------------------------------------------|
C#|-----------------------------------------------------------------|
G#|-5---5---5-7-5-2-0---0---0-7-0-------------2---------------------|
C#|---------------------------------2---2---2---2---4-4-4-4-6-6-6-6-|

F#|-----------------------------------------------------------------|
C#|-----------------------------------------------------------------|
G#|-5---5---5-7-5-------------7---------------2---------------------|
C#|-----------------7---7---7---7---2---2---2---2---4-4-4-4-6-6-6-6-|

2:37
F#|-------------------------------------------------------------------|
C#|-------------------------------------------------------------------|
G#|-5-5-5-5-5-5-5-5-5-5-5-5-5-5-0-0-0---------------------------------|
C#|-----------------------------------2-2-2-2-2-2-2-2-2-2-2-2-2-4-4-4-|

F#|-------------------------------------------------------------------|
C#|-------------------------------------------------------------------|
G#|-5-5-5-5-5-5-5-5-5-5-5-5-5-5-0-0-0---------------------------------|
C#|-----------------------------------2-2-2-2-2-2-2-2-7-7-7-7-6-------|

Rest

2:54
F#|-----------------------------------------------------------------|
C#|-----------------------------------------------------------------|
G#|-----------4-2-------------7---------------2---------------------|
C#|-0---0---0-----6-7---7---7---7---2---2---2---2---4-4-4-4-6-6-6-6-|

F#|-----------------------------------------------------------------|
C#|-----------------------------------------------------------------|
G#|-5---5---5-7-5-------------7---------------2---------------------|
C#|-----------------7---7---7---7---2---2---2---2---4-4-4-4-6-6-6-6-|

3:05
F#|-----------------------------------------------------------------|
C#|---------------------------7-------------------------------------|
G#|-5---5---5---5---5---5---5---5-5---------------------------------|
C#|---------------------------------2---2---2---2---2---2---2-4-4-4-|

F#|-----------------------------------------------------------------|
C#|-----------------------------------------------------------------|
G#|-5---5---5---5---5---5---5-0-0-0---------------------------------|
C#|---------------------------------2---2---2---2---7-7-7-7-6-------|

3:16
F#|-----------------------------------------------------------------|
C#|-----------------------------------------------------------------|
G#|---------2-4-2-4-------------------------2-4-2-4-----------------|
C#|-4-4---4---------2-2---2-2-2---2-4-4---4---------0-0---0-0-0-----|

F#|-----------------------------------------------------------------|
C#|-----------------------------------------------------------------|
G#|---------2-4-2-4-------------------------2-4-2-4-----------------|
C#|-4-4---4---------2-2---2-2-2---2-4-4---4---------0---0---0-0-----|

===============================================================================

When It Rains

0:07
F#|-------------------------------------------------------------------|-----|
C#|o-----------------------2-2-2-2-----------------------------------o|-----|
G#|o-0-0-0-0-0-0-0-0-4-0-4---------2-0-0-0-0-0-0-0-0-2---2-4-4-4-4-2-o|-----|
C#|----------------------------------------------------4--------------|-2---|

Verse 0:27
F#|---------------------------------------------------------------------------|
C#|---------------------------------------------------------------------------|
G#|-----------4-4-4-4-4-4-4-4-4-4-4-4-4-4-4-4-0-0-0-0-0-0-0-0-----------------|
C#|-2-2-2-2-2-------------------------------------------------2-2-2-2-2-2-2-2-|

F#|-----------------------------------------------------------------|
C#|-----------------------------------------------------------------|
G#|-4-4-4-4-4-4-4-4-4-4-4-4-4-4-4-4-0-0-0-0-0-0-0-0-----------------|
C#|-------------------------------------------------2-2-2-2-2-2-2-2-|

F#|-----------------------------------------------------------------|
C#|-----------------------------------------------------------------|
G#|-----------------------------------------------------------------|
C#|-4-4-4-4-4-4-4-4-4-4-4-4-4-4-4-4-2-2-2-2-2-2-2-2-2-2-2-2-2-2-2-2-|

F#|-----------------------------------------------------------------|
C#|-----------------------------------------------------------------|
G#|---------------------------------------------------2-2-2-2-2-2-2-|
C#|-4-4-4-4-4-4-4-4-4-4-4-4-4-4-4-4-2-2-2-2-2-2-2-2-2---------------|

Chorus
F#|-------------------------------------------------------------------|
C#|o-----------------------2-2-2-2-2---------------------------------o|
G#|o-0-0-0-0-0-0-0-0-4-0-4-----------0-0-0-0-0-0-0-0-2---2-4-4-4-4-4-o|
C#|----------------------------------------------------4--------------|

Interlude
F#|---------------------------------|
C#|---------------------2---2---2---|
G#|-------------------2---2---2---2-|
C#|-2-2-2-2-2-2-2-2-2---------------|

Rest

Verse 1:25
F#|-----------------------------------------------------------------|
C#|---------------------------------------------------------2---2---|
G#|-4-4-4-4-4-4-4-4-4-4-4-4-4-2-0-4-0-0-0-0-0-0-0-0-----------2---2-|
C#|-------------------------------------------------2-2-2-2---------|

F#|-----------------------------------------------------------------|
C#|-----------------------------------------------------------------|
G#|-4-4-4-4-4-4-4-4-4-4-4-4-4-4-4-4-0-0-0-0-0-0-0-0-----------------|
C#|-------------------------------------------------2-2-2-2-2-2-2-2-|
1:41
F#|-----------------------------------------------------------------|
C#|-----------------------------------------------------------------|
G#|-----------------------------------------------------------------|
C#|-4-4-4-4-4-4-4-4-4-4-4-4-4-2-1-4-2-2-2-2-2-2-2-2-2-2-2-2-2-2-2-2-|

F#|-----------------------------------------------------------------|
C#|-----------------------------------------------------------------|
G#|---------------------------------------------------2-2-2-2-2-2-2-|
C#|-4-4-4-4-4-4-4-4-4-4-4-4-4-4-4-4-2-2-2-2-2-2-2-2-2---------------|

Chorus 1:58
F#|-------------------------------------------------------------------|
C#|o-----------------------2-2-2-2-2---------------------------------o|
G#|o-0-0-0-0-0-0-0-0-4-0-4-----------0-0-0-0-0-0-0-0-2---2-4-4-4-4-4-o|
C#|----------------------------------------------------4--------------|

Bridge 2:15
F#|-------------------------------------------------------------------|
C#|o-----------------------------------------------------------------o|
G#|o-----------4---4-2-----------2---0---0-----0---0-0---0---0-------o|
C#|--4---4---4---4-------2---2-2---2---------2---2---------2---5-4-2--|

F#|-----------------------------------------------------------------|
C#|-------------------------------------------2---2---------7-5-4-2-|
G#|-4---------4---4-2-----------2---0---0---0---0---0---0-----------|
C#|-----4---4---4-------2---2-2---2-----------------------2---------|

2:39
F#|---------------------------------------------------|
C#|---------------------------------------------------|
G#|-4---------4---4-2-----------2---5-----5-----5-----|
C#|-----4---4---4-------2---2-2---2-------------------|

Rest

2:53
F#|-----------------|
C#|-----------------|
G#|-2-2-2-4-4-4-4-4-|
C#|-----------------|

Chorus x3
F#|-------------------------------------------------------------------|
C#|o-----------------------2-2-2-2-2---------------------------------o|
G#|o-0-0-0-0-0-0-0-0-4-0-4-----------0-0-0-0-0-0-0-0-2---2-4-4-4-4-4-o|
C#|----------------------------------------------------4--------------|

F#|-----------------------------|
C#|-----------------------------|
G#|-----------------0---0---0---|
C#|-4--~----2--------------~----|

===============================================================================

Let The Flames Begin

0:11
F#|--------------------------------------------------|
C#|--------------------------------------------------|
G#|--------------------------------------------------|
C#|-535--535----888~~~~~~~-111--111----101010~~~~~~~-|

0:23
F#|------------------------------------------------------------------|
C#|------------------------------------------------------------------|
G#|------------------------------8--666-666-666-666-333-333-333-3531-|
C#|-555-555-555-555-888-888-888-8-8----------------------------------|

F#|------------------------------------------------------------------|
C#|----------------------------------------------------------31-1----|
G#|------------------------------8--666-666-666-666-333-333-3--3-313-|
C#|-555-555-555-555-888-888-888-8-8----------------------------------|

0:47
F#|---------------------------------|
C#|-1------1--------3---------------|
G#|----------3-------------3--------|
C#|--------------------------3------|

0:53
F#|----------------------------------------------|
C#|----------------------------------------------|
G#|------------------1(x16)-------------3(x16)---|
C#|-555-555-555-5555----------1(x16)-------------|

1:05
F#|------------------------------------------------------------------|
C#|------------------------------------------------------------------|
G#|------------------------------8--666-666-666-666-333-333-333-3531-|
C#|-555-555-555-555-888-888-888-8-8----------------------------------|

F#|------------------------------------------------------------------|
C#|----------------------------------------------------------31-1----|
G#|------------------------------8--666-666-666-666-333-333-3--3-313-|
C#|-555-555-555-555-888-888-888-8-8----------------------------------|

1:29
F#|------------------------------------------------------------------------------|
C#|-1--------------1-3-------1-3------3-1-0---1----------------3--------1--------|
G#|--------3-----3--------------------------3---------3--------------------------|
C#|-----------------------------------------------------------------------3------|

1:41
F#|-------------------------------------------------------------------------|
C#|-------------------------------------------------------------------------|
G#|----------1(x16)-------------3(x16)-----------1(x16)------------3(x16)---|
C#|-5(x16)------------1(x16)-------------5(x16------------1(x16)------------|

2:05
F#|-----------------------------------------------------------------------------------|
C#|----------------------------------------3-0-3-5-----------------3-1----------------|
G#|-------------1------------------3---------------------1-------1-----------3--------|
C#|-5-------3-5---------1-------1-----------------------------------------------------|

2:29
F#|-------------------------------------------------------------------------------|
C#|-------------------------------------------------------------------------------|
G#|----------1(x16)------------3(x16)-----------1(x16)------------3(x12)--3331----|
C#|-5(x16)------------1(x16)------------5(x16------------1(x16)---------------5---|

===============================================================================

Miracle


F#|------------------------------------------------------------|
C#|------------------------------------------------------------|
G#|-5-55--555-1-11--111-5-55--555-3-33--353-1-1111111----------|
C#|---------------------------------------------------333355-5-|

F#|------------------------------------------------------------|
C#|------------------------------------------------------------|
G#|-5-55--555-1-11--111-5-55--555-3-33--353-1-1111111--------1-|
C#|---------------------------------------------------3-3-55---|

Rest

0:30
F#|---------------------------------------------------------------------|
C#|---------------------------------------------------------------------|
G#|-8-\-1-1-1-1-1-1-1-1-3-3-3-3-0-0-0-0-1-1-1-1-1-1-1-1-----------------|
C#|-----------------------------------------------------3-3-3-3-3-3-3-3-|

F#|---------------------------------------------------------------|
C#|---------------------------------------------------------------|
G#|-1-1-1-1-1-1-1-1-3-3-3-3-0-0-0-0-1-1-1-1-1-1-1-1---------------|
C#|-------------------------------------------------3-3---5-5-----|

0:42
F#|------------------------------------------------------------|
C#|------------------------------------------------------------|
G#|-5-55--555-1-11--111-5-55--555-3-33--353-1-1111111----------|
C#|---------------------------------------------------3-3-55---|

F#|------------------------------------------------------------|
C#|------------------------------------------------------------|
G#|-5-55--555-1-11--111-5-55--555-3-33--353-1-1111111--------1-|
C#|---------------------------------------------------3-3-55---|

1:02
F#|-----------------------------------------------------------------|
C#|-----------------------------------------------------------------|
G#|-1-1-1-1-1-1-1-1-3-3-3-3-0-0-0-0-1-1-1-1-1-1-1-1-8-8-8-8-7-7-7-7-|
C#|-----------------------------------------------------------------|

F#|-------------------------------------------------------------------|
C#|o-----------------------------------------------------------------o|
G#|o-1-1-1-1-1-1-1-1-3-3-3-3-0-0-0-0-1-1-1-1-1-1-1-1-----------------o|
C#|--------------------------------------------------3-3-3-3-3-3-3-3--|

F#|---------------------------------------------------------------------------|
C#|---------------------------------------------------------------------------|
G#|-1-1-1-1-1-1-1-1-3-3-3-3-0-0-0-0-1-1-1-1-1-1-1-1-------------1-1---3-3-----|
C#|-------------------------------------------------3-3---5-5-----------------|

1:26
F#|------------------------------------------------------------|
C#|------------------------------------------------------------|
G#|-5-55--555-1-11--111-5-55--555-3-33--353-1-1111111----------|
C#|---------------------------------------------------3-3-55---|

F#|------------------------------------------------------------|
C#|------------------------------------------------------------|
G#|-5-55--555-1-11--111-5-55--555-3-33--353-1-1111111--------1-|
C#|---------------------------------------------------3-3-55---|

1:47
F#|---------------------------------------------------------------|
C#|-----------------------------------------------------------3---|
G#|-5-5-5-5-5-5-5-5-5-5-5-5-5-5-5-5-5-5-5-5-5-5-5-5-5-5-5-5-5---3-|
C#|---------------------------------------------------------------|

F#|-----------------------------------|
C#|-----------------------------------|
G#|-----------------3---3-3-3-3-3-3-3-|
C#|-3---3-3-3-3-3-3-------------------|

1:56
F#|------------------------------------------------------|
C#|o-----------------------------------------------------|
G#|o-5-5-5-5-5---5-5-5-5-5-------5-5-5-5-5---5-5-5-5-5---|
C#|------------------------------------------------------|

F#|------------------------------------|
C#|-----------------------------------o|
G#|-----------------3---3-3-3-3-3-3-3-o|
C#|-3---3-3-3-3-3-3--------------------|

Rest 

2:20
F#|-----------------------------------------------------------------|
C#|-----------------------------------------------------------------|
G#|-1-1-1-1-1-1-1-1-3-3-3-3-0-0-0-0-1-1-1-1-1-1-1-1-8-8-8-8-8-\-3---|
C#|-----------------------------------------------------------------|

F#|-----------------------------------------------------------------|
C#|-----------------------------------------------------------------|
G#|-1-1-1-1-1-1-1-1-3-3-3-3-0-0-0-0-1-1-1-1-1-1-1-1-----------------|
C#|-------------------------------------------------3-3-3-3-3-3-3-3-|

F#|-----------------------------------------------------------------|
C#|-----------------------------------------------------------------|
G#|-1-1-1-1-1-1-1-1-3-3-3-3-0-0-0-0-1-1-1-1-1-1-1-1---------------1-|
C#|-------------------------------------------------3-3-3-3-3-3-3---|

2:40
F#|------------------------------------------------------------|
C#|------------------------------------------------------------|
G#|-5-55--555-1-11--111-5-55--555-3-33--353-1-1111111----------|
C#|---------------------------------------------------3-3-55---|

F#|------------------------------------------------------------|
C#|------------------------------------------------------------|
G#|-5-55--555-1-11--111-5-55--555-3-33--353-1-1111111----------|
C#|---------------------------------------------------3-3-55---|

2:57
F#|--------------------------------------------------------------|
C#|--------------------------------------------------------------|
G#|-1(x32)----5(x28)---3(x4)-1(x32)------------5(x12)--3(x4)-1---|
C#|------------------------------------0(x16)--------------------|

===============================================================================

Crushcrushcrush

0:06
F#|-----------------------------------------------------------------------|
C#|-----------------------------------------------------------------------|
G#|-4-4-4-5-5-5-5-5-5-5-5-----------------3-3-3-3-3-3-3-3-5-5-5-5-5-3-0-3-|
C#|-----------------------3-3-3-3-3-3-3-3---------------------------------|

F#|-----------------------------------------------------------------|
C#|-----------------------------------------------------------------|
G#|-5-5-5-5-5-5-5-5-----------------3-3-3-3-3-3-3-3-3-3-3-3-3-3-3-3-|
C#|-----------------3-3-3-3-3-3-3-3---------------------------------|

0:20
F#|-----------------------------------------------------------------|
C#|---------------------------------0---0---0---0---0---0-2-3-2-0---|
G#|-1---1---1---1---3---3---3---3---------------------------------3-|
C#|-----------------------------------------------------------------|

F#|-----------------------------------------------------------------|
C#|---------------------------------0---0---0---0---0---0---0-2-0---|
G#|-1---1---1---1---3---3---3---3-------------------------3-------3-|
C#|-----------------------------------------------------------------|

F#|-----------------------------------------------------------------|
C#|-----------------------------------------------------------------|
G#|-1-1---1-1-1---1-0-0---0-0---------------------------------------|
C#|---------------------------------0---------------0---------------|

0:45
F#|-----------------------------------------------------------------|
C#|-----------------------------------------------------------------|
G#|---------------3---------1-------------3-----------------------3-|
C#|-0-----3-3---------------------0-0---------------0-----3-3-------|

F#|-----------------------------------------|
C#|-----------------------------------------|
F#|---------1-1-1-1-1-1-1-1-3-3-3-3-3-------|
C#|-----------------------------------------|

0:59
F#|-----------------------------------------------------------------|
C#|-----------------------------------------------------------------|
G#|-5---5---5---3---3---3---3---3---5---5---5---3---3---3-----4-4-4-|
C#|-----------------------------------------------------------------|

1:06
F#|-----------------------------------------------------------------|
C#|-----------------------------------------------------------------|
G#|-5-5-5-5-5-5-5-5-----------------3-3-3-3-3-3-3-3-5-5-5-5-5-3-0-3-|
C#|-----------------3-3-3-3-3-3-3-3---------------------------------|

F#|-----------------------------------------------------------------|
C#|-----------------------------------------------------------------|
G#|-5-5-5-5-5-5-5-5-----------------3-3-3-3-3-3-3-3-3-3-3-3-3-3-3-3-|
C#|-----------------3-3-3-3-3-3-3-3---------------------------------|

1:20
F#|-----------------------------------------------------------------|
C#|---------------------------------0---0---0---0---0---0-2-3-2-0---|
G#|-1---1---1---1---3---3---3---3---------------------------------3-|
C#|-----------------------------------------------------------------|

F#|-----------------------------------------------------------------|
C#|---------------------------------0---0---0---0---0---0---0-2-0---|
G#|-1---1---1---1---3---3---3---3-------------------------3-------3-|
C#|-----------------------------------------------------------------|

F#|-----------------------------------------------------------------|
C#|-----------------------------------------------------------------|
G#|-1-1---1-1-1---1-0-0---0-0---------------------------------------|
C#|---------------------------------0---------------0---------------|

1:45
F#|-----------------------------------------------------------------|
C#|-----------------------------------------------------------------|
G#|---------------3---------1-------------3-----------------------3-|
C#|-0-----3-3---------------------0-0---------------0-----3-3-------|

F#|-----------------------------------------|
C#|-----------------------------------------|
F#|---------1-1-1-1-1-1-1-1-3-3-3-3-3-3-3-3-|
C#|-----------------------------------------|

Rest
 
2:05
F#|-------------------------------|---------------------------------|
C#|-------------------------------|o-------------------------------o| x5
G#|-------------------------------|o-------------------------------o|
C#|-0-----3-----10----------8-8-\-|--0-----3-----10----------8-8-8--|

2:27
F#|---------------------------------------------------------------------------------|
C#|---------------------------------------------------------------------------------|
G#|-------------3-3-3-3-3-3-3-3-3-3-1-1-1-------3-3-3-3-3-3-4-4-4-4---------------3-|
C#|-0-0-0-3-3-3---------------------------0-0-0---------------------0-----3-3-------|

F#|-----------------------------------------|
C#|-----------------------------------------|
F#|---------1-1-1-1-1-1-1-1-3-3-3-3-3-3-3-3-|
C#|-----------------------------------------|

F#|-----------------------------------------------------------------|
C#|-----------------------------------------------------------------|
G#|---------------3---------1-------------3-----------------------3-|
C#|-0-----3-3---------------------0-0---------------0-----3-3-------|

F#|-----------------------------------------|
C#|-----------------------------------------|
F#|---------1-1-1-1-1-1-1-1-3-3-3-3-3-3-3-3-|
C#|-----------------------------------------|

2:54
F#|-----------------------------------------------------------------|
C#|-----------------------------------------------------------------|
F#|-5-5-5-5-5-5-5-5-4-4-4-4-4-4-4-4-3-3-3-3-3-3-3-3-2-2-2-2-2-2-2-2-|
C#|-----------------------------------------------------------------|

F#|-------------------------------------------|
C#|-------------------------------------------|
F#|-1-1-1-1-1-1-1-1-2-2-2-2-3-3-3-3-5---------|
C#|-------------------------------------------|

===============================================================================

We Are Broken

0:14
F#|-----------------------------------------------------------------|
C#|-----------------------------------------------------------------|
G#|-3---2-----------3---2-----------3---2-----------3---2-----------|
C#|---------2---5-----------2---5-----------2---5-----------2---5---|

0:40
F#|----------------------------------------------------------------------------|
C#|-5--/10----12-10-9----------------------10----12-10-9-----------------------|
G#|---------------------10---5---------5-------------------10---5--------5---7-|
C#|----------------------------------------------------------------------------|

0:54
F#|--------------------------------------------------------------|
C#|--------------------------------------------------------------|
G#|------------------------------5---35------------235---5-5-5---|
C#|-2-----/-5-5-5-5-\-0-----00-0-------2---025-5-5---------------|

F#|-----------------------------------------|
C#|-----------------------------------------|
G#|-3-------0-------3---3-3-0---------------|
C#|---------------------------------5-------|

1:18
F#|----------------------------------------------------------------|
C#|-------25------5-2------5-5------------25------5-2------5-5-575-|
G#|-3-------2-2----2----------------3-------2-2----2---------------|
C#|----------------------------------------------------------------|

F#|--------------------------------------------------------------|
C#|-------25------5-2---------------------25------5-2------5-5---|
G#|-3-------2-2----2----------------3-------2-2----2-------------|
C#|------------------------5-5-----------------------------------|

1:44
F#|------------------------------------------------------------------------------------|
C#|-5-7-10----12-10-9----------------------10----12-10-9--------------------5--5--7--7-|
G#|---------------------10---5---------5-------------------10---5--5--5--5-------------|
C#|------------------------------------------------------------------------------------|

1:59
F#|-----------------------------------------------------------------2----|
C#|----------------------------------------------------------------2-542-|
G#|------------------------------------------------2-235-5---5---25------|
C#|-2---2025-5-7542-0---0---0-00---001-2-2-2025555--5------0-------------|

2:12
F#|---------------------------------------------|
C#|---------------------------------------------|
G#|-3---3-3-0-0-0-0-3-3-3-3-0-0-0300--------5---|
C#|---------------------------------5-----------|

2:23
F#|-------------------------------------------------------|
C#|-------------------------------------------------------|
G#|-1(x8)-----------3(x16)---1(x8)-----------3(x13)---5---|
C#|---------3(x8)--------------------3(x8)----------------|

Rest

2:50
F#|---------------------------------|
C#|---------------------------------|
G#|-5-----------------------5-3-2---|
C#|-------------------------------5-|

2:57
F#|------------------------------------------------------------------2----|
C#|-----------------------------------------------------------------2-542-|
G#|-------------0-------------------------------------235-5---5---25------|
C#|-2-2-2025-55--542-0-0-0-0-0-00--0001-2-2-2025555-55------0-------------|

F#|------------------------------------------|
C#|------------------------------------------|
G#|-3-3-3-3-0-0-0-0-3-3-3-3-0-0-0300---------|
C#|---------------------------------5--------|

===============================================================================

Fences

F#|---------------------------------------------------------|
C#|----0--1--1h3p1-----0--1--1h3p1-----3--1--0-----3--5-----|
G#|-3---------------3---------------------------------------|
C#|---------------------------------5-----------5--------5--|

F#|------------------------------------------------------|
C#|----0--1--1h3-----0--1--1h3-----3--1--0--1--3--1-0----|
G#|-3-------------3-----------------------------------1--|
C#|-----------------------------5------------------------|

0:09
F#|-----------------------------------------------------|
C#|----0--1--3p1-----0--1--3p1-----3--1--0--3--5--3--1--|
G#|-3-------------3-------------------------------------|
C#|-----------------------------5-----------------------|

F#|-----------------------------------------------------|
C#|----0--1--1h3-----0--1--1h3-----3--1--0--3--5--3--1--|
G#|-3-------------3-------------------------------------|
C#|-----------------------------5-----------------------|

0:18
F#|------------------------------------------|
C#|-------------------3---3------------------|
G#|---------------------------1--1--1--1--1--|
C#|-3--3--3--3--3--3---3---3-----------------|

F#|--------------------------------------------------------|
C#|----0--1--1h3-----0--1--1h3p1-----3--1--0--3--5--3-1-0--|
G#|-3-------------3----------------------------------------|
C#|-------------------------------5------------------------|

0:28
F#|-------------------------------------------------------------------------|
C#|-------------------------------------------------------------------------|
G#|-------------------------------------1-----------------------------1-----|
C#|-3-----------------------1-----------------------3-----5-----6-----------|

F#|----------------------|
C#|----------------------|
G#|-------1--------------|
C#|-1-----------5555555--|

0:37
F#|-------------------------------------------------|
C#|-------------------------------------------------|
G#|-3-----------------------------------------------|
C#|-------------------------6-----------3-----5-----|

F#|-------------------------------------------------|
C#|-------------------------------------------------|
G#|-------------------------------------------------|
C#|-10-\--\--\--\-----------6-----------3-----5-----|

0:47
F#|----------------------------------------------------------------------------------|
C#|----------5--6-----6--------------------------------5--6--------------------------|
G#|----5--6--------6---6-------------------------5--6--------6-----6--1--1-----1--2--|
C#|-6---------------------3----3----3----3----6-----------------6-----------3--------|

F#|---------------------------------------------------------|
C#|----0--1--1h3p1-----0--1--1h3p1-----3--1--0-----3--5-----|
G#|-3---------------3---------------------------------------|
C#|---------------------------------5-----------5--------5--|

F#|------------------------------------------------------|
C#|----0--1--1h3-----0--1--1h3-----3--1--0--1--3--1-0----|
G#|-3-------------3-----------------------------------1--|
C#|-----------------------------5------------------------|
                                                                    
1:05
F#|-----------------------------------------------------|
C#|----0--1--3p1-----0--1--3p1-----3--1--0--3--5--3--1--|
G#|-3-------------3-------------------------------------|
C#|-----------------------------5-----------------------|

F#|-----------------------------------------------------|
C#|----0--1--1h3-----0--1--1h3-----3--1--0--3--5--3--1--|
G#|-3-------------3-------------------------------------|
C#|-----------------------------5-----------------------|

F#|------------------------------------------|
C#|-------------------3---3------------------|
G#|---------------------------1--1--1--1--1--|
C#|-3--3--3--3--3--3---3---3-----------------|

1:19
F#|-------------------------------------------------------------------------|
C#|-------------------------------------------------------------------------|
G#|-------------------------------------1-----------------------------1-----|
C#|-3-----------------------1-----------------------3-----5-----6-----------|

F#|----------------------|
C#|----------------------|
G#|-------1--------------|
C#|-1-----------5555555--|

1:29
F#|-------------------------------------------------|
C#|-------------------------------------------------|
G#|-3-----------------------------------------------|
C#|-------------------------6-----------3-----5-----|

F#|-------------------------------------------------|
C#|-------------------------------------------------|
G#|-------------------------------------------------|
C#|-10-\--\--\--\-----------6-----------3-----5-----|

1:39
F#|-------------------------------------------------------------------------------------------|
C#|----------5--6-----6--------------------------------5--6-----------------------------1-----|
G#|----5--6--------6---6-------------------------5--6--------6-----6--1--1-----1--2--2----2-2-|
C#|-6---------------------3----3----3----3----6-----------------6-----------3-----------------|

1:48
F#|--------------------------------------------------------------|
C#|o------------------------------------------------------------o|
G#|o---------------------------------6--6-----------1--1--------o|
C#|--3--3------------6--6----------------------------------------|

2:07
F#|----------------------------------------------------------------------------|
C#|----------------------------------------------------------------------------|
G#|-3--3--3--33--2--2--2---2---1--1--1-3-1--0--0--0--0-------------------------|
C#|---------------------3---3---------------------------6--6--6--6--6--6--6-8--|

2:14
F#|--------------------------------------------------------------------------|
C#|--------------------------------------------------------------------------|
G#|-3--3--3---3---2--2-----0--1--1--1--1--0--0--0--0-------------------------|
C#|--------3---3--------5-----------------------------6--6--6--6--6--6--6-8--|

2:22
F#|-----------------------------------------------|
C#|o----0--1--3--5--6--5---------1--3------------o|
G#|o-3--------------------6---3------------------o|
C#|------------------------5---------3-----5------|

F#|-------------------------------------------------------------|
C#|-------------------------------------------------------------|
G#|---------------------------------6--6-----------1--1---------|
C#|-3--3------------6--6----------------------------------------|

2:41
F#|-------------------------------------------------|
C#|-------------------------------------------------|
G#|-3-----------------------------------------------|
C#|-------------------------6-----------3-----5-----|

F#|-------------------------------------------------|
C#|-------------------------------------------------|
G#|-------------------------------------------------|
C#|-10-\--\--\--\-----------6-----------3-----5-----|

2:50
F#|-------------------------------------------------------------------------------------|
C#|----------5--6-----6--------------------------------5--6-----6-----------------------|
G#|----5--6--------6---6-------------------------5--6--------6---6----------------------|
C#|-6---------------------3----3----3----3----6---------------------3----3----3----3----|

F#|------------------------------------------|
C#|----------5--6----------------------------|
G#|----5--6--------6-----6--1--1-----1--2----|
C#|-6-----------------6-----------3----------|

3:04
F#|---------------------------------------------------------|
C#|----0--1--1h3p1-----0--1--1h3p1-----3--1--0-----3--5-----|
G#|-3---------------3---------------------------------------|
C#|---------------------------------5-----------5--------5--|

F#|-----------------------------------------------------|
C#|----0--1--1h3-----0--1--1h3-----3--1--0--1--3--5--5--|
G#|-3-------------3-------------------------------------|
C#|-----------------------------5-----------------------|

===============================================================================

Born For This

F#|-----------------------------------------------------------------|
C#|-----------------------------------------------------------------|
G#|-2-2-2---2-2-2-0---0-0---0-0-0---5-5-5---5-5-5-7---7-7---7h9p7---|
C#|-----------------------------------------------------------------|

F#|-----------------------------------------------------------------|
C#|-----------------------------------------------------------------|
G#|-2-2-2---2-2-2-0---0-0---0-0-0---5-5-5---5-5-5-7---7-7---7-9-7-5-|
C#|-----------------------------------------------------------------|

0:12
F#|------------------------------------------------------------|
C#|--------------------------------------------4-4-2-2---------|
G#|-0-2--------2-----------0-2---2-----2-5---5---------5-5-4-4-|
C#|--------------5---5-4-----------2---------------------------|

0:24
F#|----------------------------------------------------------|
C#|------------------------------------------4-4-4-4-4-2-4-2-|
G#|-2--------2-----------0-2---2-----2-5---------------------|
C#|------------5---5-4-----------2---------------------------|

0:33
F#|------------------------------------------------------------------|
C#|------------------------------------------------------------------|
G#|------------2-----------------------------------------------------|
C#|-2---------------------5----------2-2---2-2---2-2---2-2---2---2---|

F#|------------------------------------------------------------------|
C#|------------------------------------------------------------------|
G#|------------------------------------------------------------------|
C#|-7-7---7-7---7-7---7-7---7---7---9-\---------------9-\------------|

0:52
F#|------------------------------------------------------------------|
C#|------------------------------------------------------------------|
G#|------------------------------------------------------------------|
C#|-5------------5-0-0-0-0-0-0-0-0-0h4-4-4-4-4-4-4-4-5---------------|

F#|-------------------------------------------------------------------|
C#|-------------------------------------------------------------------|
G#|-0-2-2-2-2-2-2-2-2-0-0-0-0-0-0-0-0---------------------------------|
C#|-----------------------------------5-5-5-5-5-5-5-5-5-5-5-5-5-5-5-7-|

F#|-----------------------------------------------------------------|
C#|-----------------------------------------------------------------|
G#|-----------------------------------------------------------------|
C#|-0-0-0-0-0-0-0-0-4-4-4-4-4-4-4-4-5-5-5-5-5-5-5-5-5-5-5-5-5-5-5-5-|

F#|------------------------------------------|
C#|------------------------------------------|
G#|-2-2-2-2-2-2-2-2-0-0-0-0-0-0-0-0----------|
C#|---------------------------------5--------|

Rest

1:20
F#|---------------------------------------|
C#|-----------------------4-4-2-2---------|
G#|-0-0-2---2-----2-5---5---------5-5-4-4-|
C#|-----------2---------------------------|

F#|----------------------------------------------------------|
C#|------------------------------------------4-4-4-4-4-2-4-2-|
G#|-2--------2-----------0-2---2-----2-5---------------------|
C#|------------5---5-4-----------2---------------------------|

1:36
F#|--------------------------------------------------------------------|
C#|--------------------------------------------------------------------|
G#|--------------------------------------------------------------------|
C#|-2-------2-/-9-----------5----------2-2---2-2---2-2---2-2---2---2---|

F#|------------------------------------------------------------------|
C#|------------------------------------------------------------------|
G#|------------------------------------------------------------------|
C#|-7-7---7-7---7-7---7-7---7---7---9-\---------------9-\------------|

1:53
F#|-------------------------------------------------------------------------------|
C#|-------------------------------------------------------------------------------|
G#|-2-2-2-2-2-2-2-----/-10-\------------------------------------------------------|
C#|---------------5-\--------------5-0-0-0-0-0-0-0-0-0-4-4-4-4-4-4-4-4-5----------|

F#|---|------------------------------------------------------------------|
C#|---|o-----------------------------------------------------------------|
G#|-0-|o-2-2-2-2-2-2-2-2-0-0-0-0-0-0-0-0---------------------------------|
C#|---|----------------------------------5-5-5-5-5-5-5-5-5-5-5-5-5-5-5-7-|

F#|------------------------------------------------------------------|
C#|-----------------------------------------------------------------o|
G#|-----------------------------------------------------------------o|
C#|-0-0-0-0-0-0-0-0-4-4-4-4-4-4-4-4-5-5-5-5-5-5-5-5-5-5-5-5-5-5-5-5--|

F#|-----------------------------------|
C#|-----------------------------------|
G#|-2-2-2-2-2-2-2-2-0-0-0-0-0-0-0-----|
C#|-----------------------------------|

Rest

2:28
F#|-----------------------------------------------------------------|
C#|-----------------------------------------------------------------|
G#|-2-2-2---2-2-2-0---0-0---0-0-0---5-5-5---5-5-5-7---7-7---7h9p7---|
C#|-----------------------------------------------------------------|

F#|-----------------------------------------------------------------|
C#|-----------------------------------------------------------------|
G#|-2-2-2---2-2-2-0---0-0---0-0-0---5-5-5---5-5-5-7---7-7---7-9-7-5-|
C#|-----------------------------------------------------------------|

2:39
F#|------------------------------------------------------------------------|
C#|------------------------------------------------------------------------|
G#|--------0------2---------------------0------2--------------------0------|
C#|-5--------------------2------5---------------------2------5-------------|

F#|-----------------------------------------------------------------|
C#|-----------------------------------------------------------------|
G#|-----------------------------------------------------------------|
C#|-5-5-5-5-5-5-5-5-5-5-5-5-5-5-5-5-4-4-4-4-4-4-4-4-4-4-4-4-4-4-4-4-|

Rest

3:12
F#|----------------------------------------------|
C#|----------------------------------------------|
G#|-2--------------------------------------------|
C#|---0-0-0-0-0-0-0-0-4-4-4-4-4-4-4-4-5----------|

F#|---|------------------------------------------------------------------|
C#|---|o-----------------------------------------------------------------|
G#|-0-|o-2-2-2-2-2-2-2-2-0-0-0-0-0-0-0-0---------------------------------|
C#|---|----------------------------------5-5-5-5-5-5-5-5-5-5-5-5-5-5-5-7-|

F#|------------------------------------------------------------------|
C#|-----------------------------------------------------------------o|
G#|-----------------------------------------------------------------o|
C#|-0-0-0-0-0-0-0-0-4-4-4-4-4-4-4-4-5-5-5-5-5-5-5-5-5-5-5-5-5-5-5-5--|

3:38
F#|-----------------------------------------------------------------|
C#|-----------------------------------------------------------------|
G#|-2-2-2-2-2-2-2-2-0-0-0-0-0-0-0-0---------------------------------|
C#|---------------------------------5-5-5-5-5-5-5-5-5-5-5-5-5---5---|

F#|------------------------------|
C#|------------------------------|
G#|-2-----------------0---2------|
C#|--------2------5--------------|

Tabbed by Dave Vucko
comments
We did not receive enough feedback on this tab! Please rate:
1 2 3 4 5
I want to post or [tab]
guest
You may want to rate the tab now too:
select rating
Please do not post tabs as comments. Select "correction" instead!