Oops, an error
Loading. Please wait.

The Final Riot Bass Tab

4,107 views 9 this week
2 commentsread comments
1 2 3 4 5
excellent!
x 2
Autoscroll
+/-
esc
set tempo
stop
Contributor
WARNING: You are trying to view
                                    content from Ultimate-Guitar.com
                                    in an unauthorized application,
                                    which is prohibited.

                                    Please use an official Ultimate
                                    Guitar Tabs application for iPhone,
                                    iPad or Android to access legitimate
                                    chords, guitar, bass, and drum tabs
                                    from Ultimate-Guitar.com database.

                                    Type "ultimate guitar tabs" in Apple
                                    App Store's or Android Market's
                                    search to find the application.
-------------------------------------------------------------------------------
			     THE FINAL RIOT! - Paramore
-------------------------------------------------------------------------------

Tabbed By : Alex Diaz	
e-mail: AlexD97@live.se

Note, I updated this tab 2011-08-13 so if anyone actually uses this,
you probably want to see the fixes and that. It's mostly When It Rains
and Let the Flames Begin that has been fixed.


1. 	Born for This   	
2. 	That's What You Get	
3. 	Here We Go Again  	
4. 	Fences    
5. 	crushcrushcrush  	
6. 	Let the Flames Begin  	
7. 	When It Rains	
8. 	My Heart	
9. 	Decoy	
10.	Pressure	
11.	For a Pessimist, I'm Pretty Optimistic   	
12.	We Are Broken  	
13.	Emergency   	
14.	Hallelujah 
15. 	Misery Business 
_________________________________________________________________________
Born For This. Track one, obviously. 
Tuning is Drop C#/Db.

Live intro:
Gb|---------------------------------------------------------------------|
Db|----------------------555555444--------------------------------------|
Ab|---1010101010101010------------55------------------------------------|
Db|555----------------555-----------77777777777777444444444444444-------|2x

Gb|---------------------------------------------------------------------|
Db|----------------------555555444--------------------------------------|
Ab|---1010101010101010------------5555555555555555----------------------|
Db|555----------------555--------------------------7777777777777777-----|

Gb|---------------------------------------------------------------------|
Db|----------------------555555444--------------------------------------|
Ab|---1010101010101010------------55------------------------------------|
Db|555----------------555-----------77777777777777444444444444444-------|

Gb|-------------|
Db|-------------|
Ab|-------------|
Db|2-2-2---2-2-2|

Intro 
Gb|-----------------------------------|
Db|-----------------------------------|
Ab|------------------55555-7-77-7h9p7-|
Db|99999999-77777777------------------|x2


Verse 1: Oh no, I just keep falling
Gb|-------------------------------------|
Db|------------------00442200-----------|
Ab|-0h2---5^-2---------------4-2-0h2----| 
Db|-------------------------------------|


Refrain:
Gb|-----------------------------------------------------------|
Db|-----------------------------------------------------------|
Ab|------2~/5-------------------------------------------------|
Db|-2~----------5~--22p0-22-22p0-22-2-2-55-55-55-55-5-9\1-9\1-|

Chorus:
Gb|---------------------------------------------|
Db|---------------------------------------------|
Ab|----------------------------22222222-00000000|
Db|-55--55--0000000044444444-55-----------------|

Gb|-----------------------------------------------------------------------|
Db|-----------------------------------------------------------------------|
Ab|----------------------------------------------------22222222-00000000--|
Db|-5555555555555555--0000000044444444-5555555555555555-----------------5~|


Verse 2: Time out...
Gb|----------------------------------------------------------|
Db|-------2--2p0--00442200----------------2-2p0--------------|
Ab|0h2--2------------------4---------0h2-2-----99999999-7h9p7| 
Db|--------------------------0h5-5p4-------------------------|

Refrain:
Gb|------------------------------------------------------------|
Db|------------------------------------------------------------|
Ab|------2~/5--------------------------------------------------|
Db|-2~----------5~---22p0-22-22p0-22-2-2-55-55-55-55-55-9\1-9\1|

Right before chorus
Gb|-------------|
Db|-------------|
Ab|99999999-----|
Db|-------------|

Chorus:
Gb|---------------------------------------------|
Db|---------------------------------------------|
Ab|----------------------------22222222-00000000|
Db|-55--55--0000000044444444-55-----------------|

Only this part of chorus 2x
Gb|---------------------------------------------------------------------|
Db|---------------------------------------------------------------------|
Ab|----------------------------------------------------22222222-00000000|
Db|-5555555555555555--0000000044444444-5555555555555555-----------------| 

Intro 
Gb|-----------------------------------|
Db|-----------------------------------|
Ab|------------------55555-7-77-7h9p7-|
Eb|99999999-77777777------------------|x2

Alright, so you think you're ready:
Gb|---------------------------------------------------------------------|
Db|---------------------------------------------------------------------|
Ab|---------------------------------------------------------------------|
Db|-5~---7~---9—--2-—5~---7~----9—--2-—5--7~-—55555555-4444444444444-12\|

Chorus:
Gb|--------------------------------------|
Db|--------------------------------------|
Ab|---------------------22222222-00000000|
Eb|0000000044444444-55-------------------|

Only this part of chorus 2x
Gb|---------------------------------------------------------------------|
Db|---------------------------------------------------------------------|
Ab|----------------------------------------------------22222222-00000000|
Eb|-5555555555555555--0000000044444444-5555555555555555-----------------| 

We were born for this:
Gb|-------------------------------------------------------------|
Db|-------------------------------------------------------------|
Ab|-------------------------------------------------------------|
Db|---9—--2-—5---7--9----9---9---9--7-9-7-7-9-7-7-9-9-7-9-7-9-7-|

I don't know how many 9's and 7's there are, just stop when Hayley shouts HEY.
_________________________________________________________________________
That's What You Get. Track 2.
Nice song, Drop C#.

Intro x2
Gb|--------------------------------|
Db|--------------------------------|
Ab|--------------------------------|
Db|7-7-7--7-7-7--9-9-9--11-11-11-6-|

Verse 
Gb|-----------------------------------------------------------------|
Db|-----------------------------------------------------------------|
Ab|-----------------------------------------------------------------|
Db|7-7-7--7-7-7--9-9-9--11-11-11--7-7-7--7-7-7--9-9-9--11-11-11-15/-|

Intro 1x

Verse
Gb|--------------------------------------------------------------------|
Db|---------------------------------9----------------------------------|
Ab|-----------------------------1111-11--------------------------------|
Db|7-7-7--7-7-7--9-9-9--11-11-11-------7-7-7--7-7-7--9-9-9--11-11-11-2~|

Chorus 
Gb|------------------------------------------------|
Db|------------------------------------------------|
Ab|--------------------------------------------7---|
Db|77777777-22222222-1111111111111111-9999-9-11-11-|

Gb|--------------------------------------------|
Db|--------------------------------------------|
Ab|----------------------------------------7---|
Db|77777777-22222222-9999999999999999--9-11-11-|

Gb|--------------------------------------------------------------|
Db|--------------------------------------------------------------|
Ab|-------------------------------7-----------------------11-11-9|
Db|1111111111111111-999999999-9-11-11-1111111111111111-9999------|

Gb|-----------------------------------|
Db|-----------------------------------|
Ab|-----------------------------------|
Db|77777777-22222222-9999999999999999-|

Ladies and gentlemen, Taylor York!

Intro	
Gb|--------------------------------|
Db|--------------------------------|
Ab|--------------------------------|
Db|7-7-7--7-7-7--9-9-9--11-11-11-6-|

Verse 2x
Gb|----------------------------------------------------------------------|
Db|---------------------------------9------------------------------------|
Ab|-----------------------------1111--11---------------------------------|
Db|7-7-7--7-7-7--9-9-9--11-11-11-----------7-7-7--7-7-7--9-9-9--11-11-11-|

Gb|--|
Db|--|
Ab|--|
Eb|2~|

Chorus 
Gb|------------------------------------------------|
Db|------------------------------------------------|
Ab|--------------------------------------------7---|
Db|77777777-22222222-1111111111111111-9999-9-11-11-|

Gb|--------------------------------------------|
Db|--------------------------------------------|
Ab|----------------------------------------7---|
Db|77777777-22222222-9999999999999999--9-11-11-|

Gb|--------------------------------------------------------------|
Db|--------------------------------------------------------------|
Ab|-------------------------------7-----------------------11-11-9|
Db|1111111111111111-999999999-9-11-11-1111111111111111-9999------|

Gb|-----------------------------------|
Db|-----------------------------------|
Ab|-----------------------------------|
Db|77777777-22222222-9999999999999999-|

Bridge x4
Gb|---------------------------------|
Db|---------------------------------|
Ab|-----------------------------9---|
Db|7-7-7--7-7-7--9-9-9--11-11-11--11|

Intro 2x
Gb|--------------------------------|
Db|--------------------------------|
Ab|--------------------------------|
Db|7-7-7--7-7-7--9-9-9--11-11-11-6-|

Pause, when Hayley shouts Chicago.

Chorus 
Gb|------------------------------------------------|
Db|------------------------------------------------|
Ab|--------------------------------------------7---|
Db|77777777-22222222-1111111111111111-9999-9-11-11-|

Gb|--------------------------------------------|
Db|--------------------------------------------|
Ab|----------------------------------------7---|
Db|77777777-22222222-9999999999999999--9-11-11-|

Gb|--------------------------------------------------------------|
Db|--------------------------------------------------------------|
Ab|-------------------------------7-----------------------11-11-9|
Db|1111111111111111-999999999-9-11-11-1111111111111111-9999------|

Gb|-----------------------------------|
Db|-----------------------------------|
Ab|-----------------------------------|
Db|77777777-22222222-9999999999999999-|

Outro
Gb|---------------|
Db|---------------|
Ab|---------------|
Db|7-7-7--7-7-7-2~|
_________________________________________________________________________

Here We Go Again, E flat. Track 3.

Intro
Gb|-------------------------|
Db|-------------------------|
Ab|-------6h7p6-------7p6h7-|
Eb|-5-5-5-------9-9-9-------|

Verse
Gb|-----------------------------------------|
Db|-----------------------------------------|
Ab|-------6h7p6-------7p6h7-------6h7p6-----|
Eb|-5-5-5-------9-9-9-------5-5-5-------9-9-|

Gb|----------------------------------------------------|
Db|-----------------------------------------------6----|
Ab|-------6h7p6-------7p6h7-------6h7p6-------7-9---7--|
Eb|-5-5-5-------9-9-9-------5-5-5-------99999----------|

Chorus 
Gb|-------------------------------------|
Db|-------------------------------------|
Ab|------------------44444444-6666-7777-|
Eb|-5555-5-5-5-5555-5-------------------|2x

Gb|--------------------------------------------|
Db|-------------------7---5--------------------|
Ab|---------------------9---44444444-6666-7777-|
Eb|-5555-5-5-5-5555-5--------------------------|


Gb|---------------------------------------|
Db|---------------------------------------|
Ab|------------------------44444444-------|
Eb|-5555-5-5-5-5555-5-5-5-5---------444444|

Intro
Gb|-------------------------|
Db|-------------------------|
Ab|-------6h7p6-------7p6h7-|
Eb|-5-5-5-------9-9-9-------|

Verse
Gb|-------------------------------------------|
Db|-------------------------------------------|
Ab|-------6h7p6-------7p6h7-------6h7p6-------|
Eb|-5-5-5-------9-9-9-------5-5-5-------9-9-9-|

Gb|----------------------------------------------------|
Db|-----------------------------------------------6----|
Ab|-------6h7p6-------7p6h7-------6h7p6-------7-9---7--|
Eb|-5-5-5-------9-9-9-------5-5-5-------99999----------|

Chorus 
Gb|-------------------------------------|
Db|-------------------------------------|
Ab|------------------44444444-6666-7777-|
Eb|-5555-5-5-5-5555-5-------------------|2x

Gb|--------------------------------------------|
Db|-------------------7---5--------------------|
Ab|---------------------9---44444444-6666-7777-|
Eb|-5555-5-5-5-5555-5--------------------------|


Gb|---------------------------------------|
Db|---------------------------------------|
Ab|------------------------44444444-------|
Eb|-5555-5-5-5-5555-5-5-5-5---------444444|

Bridge 
Gb|----------------------------------------------|
Db|----------------------------------------------|
Ab|-00000----2----44444-----00000---2---44444444-|
Eb|--------2----4-------020-------2---4----------|


Gb|---------------------------------------------------------------------------|
Db|---------------------------------------------------------------------------|
Ab|-0000000000000000-5-3--44444444-6666-7777-0000000000000000-5-3-44444444----|
Eb|----------------------3---------------------------------------3---------4\-|

Chorus 
Gb|-------------------------------------|
Db|-------------------------------------|
Ab|------------------44444444-6666-7777-|
Eb|-5555-5-5-5-5555-5-------------------|2x

Gb|--------------------------------------------|
Db|-------------------7---5--------------------|
Ab|---------------------9---44444444-6666-7777-|
Eb|-5555-5-5-5-5555-5--------------------------|

Outro
Gb|------------------------------------------|
Db|------------------------------------------|
Ab|------------------------44444444----------|
Eb|-5555-5-5-5-5555-5-5-5-5---------444444-5~|


_________________________________________________________________________
Fences, track four. I like this one. E flat tuning

Intro
Gb|------------------------------------------------------------|
Db|----------------------------5-------------------------------|
Ab|----6-8p6-----6-8p6--865--8---6------6-8-----6-8--865-6865--|
Eb|8-10------8-10------3---3--------8-10----8-10----3----------|


Verse: I am sitting in a room...
Gb|--------------------------------------------------------|
Db|----------------------------5---------------------------|
Ab|----6-8-----6-8--865--8---6------6-8-----6-8--865-6865--|
Eb|8-10----8-10----3---3--------8-10----8-10----3----------|

Gb|---------------------|
Db|---------------------|
Ab|---------------------|
Eb|1-1-1-1-1-1-1-6-6-6-6|

Gb|-----------------------------|
Db|----------------------------5|
Ab|----6-8-----6-8--865--8---6--|
Eb|8-10----8-10----3---3--------|

Pre-Chorus 
Gb|---------------------------------|
Db|---------------------------------|
Ab|----6~----------------6----------|
Eb|1~------6~--1--3--4-6----6-33333-|

Gb|-----------------------------------------------------------|
Db|-----------------------------------------------------------|
Ab|-----------------------------------------------------------|
Eb|8---4-1-3-8-8\-4--1-3--44444444-1-1-1-1--44444444-6-6-6-0p8|

Intro 1x

Verse 1x

Gb|---------------------|
Db|---------------------|
Ab|---------------------|
Eb|1-1-1-1-1-1-1-6-6-6-6|

Prechorus x1

Chorus
Gb|------------------------------------|
Db|------------------------------------|
Ab|------------------------------------|
Eb|8---4-1-3-8-8\----4--1-3---44444444-|

Gb|---------------------------------|
Db|---------------------------------|
Ab|---------------------------------|
Eb|1-1-1-1--44444444-6-6-6-0-8-8-8-8|


Bridge: Yeah, you're asking for it...
Gb|-------------| Gb|--------------|
Db|-------------| Db|--------------|
Ab|-------6-6---| Ab|-------6-6----|
Eb|1-1-4-4---6-6| Eb|1-1-4-4---6-6~|

Guitar solo
Gb|---------------------------------------------------|
Db|---------------------------------------------------|
Ab|---------------------------------------------------|
Eb|8-8-8-8p7-7-7-7p6-6-6-6p5-5-5-5-4p4-4-4-4-4-4-4-46-|2x

Gb|-------------------------------|
Db|-------------------------------|
Ab|-------------------------------|
Eb|8-8-8-8-8-8-4-4-4-4-1-1-4-4-4-4|


Gb|-------------| 
Db|-------------| 
Ab|-------6-6---| 
Eb|1-1-4-4---6-6| 

Chorus 
Gb|---------------------------------------|
Db|---------------------------------------|
Ab|5/6------------------------------------|
Eb|---8---4-1-3-8-8\----4--1-3---44444444-|

Gb|------------------|   
Db|------------------|    
Ab|------------------|   
Eb|1-1-1-1--44444444-|3x 

Gb|---------|
Db|---------|
Ab|---------|
Eb|6-6-6-0p8|

Outro
Gb|------------------------------------------------------|
Db|----------------------5-------------------------------|
Ab|----6-5----6-5--865-8--6------6-5----6-5---865--8-----|
Eb|8-10---8-10---3----3------8-10---8-10----3----3---3333|
_________________________________________________________________________

crushcrushcrush. 
Drop Db. Track 5.

Intro
Gb|-------------------------------------|
Db|-------------------------------------|
Ab|1~-3~-5~-----1~-3~--5~----1~--3~-----|
Db|----------9\-----------9\------------|

Chorus
Gb|-----------------------------------------------|
Db|-------------5---------------------------------|
Ab|--55-88-3~-33-3-11-55-3~---55-88-3~-3-3-3-3-3--|
Db|-----------------------------------------------|

Gb|---------------------|
Db|---------------------|
Ab|--11111111--33333333-|
Db|---------------------|

Pre-verse
Gb|------------------------------------|
Db|------------------------------------|
Ab|-5-5-5-3-3-3-3-3-5-5-5-3-3-3-555----|
Db|------------------------------------|

Verse
Gb|----------------------------------|
Db|----------------------------------|
Ab|-5-5-5-5---------3-3-3-3-5-5-5-303|
Db|---------3-3-3-3------------------|

Gb|----------------------------------|
Db|----------------------------------|
Ab|-5-5-5-5---------3-3-3-3-3-3-3-3--|
Db|---------3-3-3-3------------------|

Gb|----|
Db|----|
Ab|-12\|
Db|----|

Interlude
Gb|------------------------------------------------------------------|
Db|------------------------------------------------------------------|
Ab|-1-1-1-1-3-3-3-3-5-5-5-5-5-578753-1-1-1-1-3-3-3-3-5-5-5-535-5-5-5-|
Db|------------------------------------------------------------------|

Gb|-----------------------|
Db|-----------------------|
Ab|-11-111-00-00----------|
Db|---------------0~---0~-|

Chorus
Gb|--------------------------------------------------|
Db|--------------5-----------------------------------|
Ab|--55-88-3~-33---5-11-55-3~--12\-55-88-3~-3-3-3-3-3|
Db|--------------------------------------------------|

Gb|---------------------|
Db|---------------------|
Ab|--11111111--33333333-|
Db|---------------------|

Pause

Bridge 4x
Gb|------------------|
Db|------------------| 
Ab|--5--8--3----111--|
Db|------------------|

Chorus 2
Gb|--------------------------------|
Db|--------------------------------|
Ab|--55-88-3333333-11-55-33333-444-|
Db|--------------------------------|

Gb|----------------------------------------------|
Db|------------5---------------------------------|
Ab|--55-88-3-33-3-3333333-11111111-33333333--12\-|
Db|----------------------------------------------|

Chorus 1
Gb|-----------------------------------------|
Db|-------------5---------------------------|
Ab|--55-88-3~-33-3-11-55-3~-55-88-3~-3-3-3-3|
Db|-----------------------------------------|

Gb|---------------------|
Db|---------------------|
Ab|--11111111--33333333-|
Db|---------------------|

Outro
Gb|----------------------------------------------------|
Db|----------------------------------------------------|
Ab|-5555-4444h5p4-3333h4p3-2222h3p2-7\-1111-2222-3333-5|
Db|----------------------------------------------------|
_________________________________________________________________________
Let The Flames Begin, Drop C#. The ending is awesome.
Track 6.

Intro
Gb|-------------------------------------------|
Db|-------------------------------------------|
Ab|-------------------------------------------|
Db|5555555-8-7-5-5555/7777\555-8-7-5-55555555-|

Gb---------10-----------------------------|
Db-----------12/88888888-1010101010101010-|
Ab----------------------------------------|
Db|88888888-------------------------------|

Gb|-----------------------------------------|
Db|-----------------------------------------|
Ab|-----------------------------------------|
Db|5555555-8-7-5-5555/777\555-8-7-5-55555555|

Gb|-------------------------------------------|
Db|---------7/12-10-88888888-1212121212121212-|
Ab|-55555555----------------------------------|
Db|-------------------------------------------|

Verse 1
Gb|----------------------------------------------------------------|
Db|----------------------------------------------------------------|
Ab|------------------------------------------------3-3-3-3-3-3-3-3-|
Db|5-5-5-5-5-5-5-5-8-8-8-8-8-8-8-8-1-1-1-1-1-1-1-1-----------------|

Drums
Gb|---------|     
Db|---------| 
Ab|---------|     
Db|-0003h5\-|     

Gb|-------------------------------------------------------------------|
Db|-------------------------------------------------------------------|
Ab|---------------------------------------------------3-3-3-3-3-3-3-3-|
Db|5-5-5-5-5-5-5-5-8-8-8-8-8-8-8-8--1-1---1-1-1-1-1-1-----------------|

Pre-chorus
Gb|----------------------------------------|
Db|----------------------------------------|
Ab|----------------------------------------|
Db|-1-1-1-1-1-1-1-1-1-1-1-1-1-3-3-3-3-3333-|

Chorus
Gb|---------------------------------------------|
Db|---------------------------------------------|
Ab|--------------------------------333-33-3-3-33|
Db|-555555555--88888888-111111111---------------|

Verse 2 2x
Gb|---------------------------------------------------------------|
Db|-----55555555555555557-888888888888888-------------------------|
Ab|3-4-5----------------------------------666666666---------------|
Db|--------------------------------------------------10(16x)------|

slide down A|5 quickly

Pre-chorus 2x
Gb|------------------|
Db|------------------|
Ab|------------8-8h10|
Db|1~----10h12~------|

Chorus 
Gb|-------------------------------------------------------------------|
Db|-------------------------------------------------------------------|
Ab|---------------------------------------------------3333333333333333|
Db|5555555555555555-8888888888888888-1111111111111111-----------------|

Gb|-------------------------------------------------------------------|
Db|-------------------------------------------------------------------|
Ab|---------------------------------------------------33-3-33-33-3-333|
Db|5555555555555555-8888888888888888-1111111111111111-----------------|

slide up A|5 

Interlude
Gb|---------------------|
Db|---------------------|
Ab|-------------4\333333|
Db|-5~--8~-5\1~---------| 

In the second time, after the Ab|3'a play high Db|10 about six times.

Chorus 
Gb|-------------------------------------------------------------------|
Db|-------------------------------------------------------------------|
Ab|---------------------------------------------------3333333333333333|
Db|5555555555555555-8888888888888888-1111111111111111-----------------|

Gb|-------------------------------------------------------------------|
Db|-------------------------------------------------------------------|
Ab|---------------------------------------------------33-3-33-33-3-333|
Db|5555555555555555-8888888888888888-1111111111111111-----------------|

Outro
Gb|----|
Db|----|
Ab|----|
Db|-5~-|

Gb|-------------------------------------------------------|
Db|-5555555555-8888888888--------------10-10-101010101010-|
Ab|-----------------------66666666666---------------------|
Db|-----------—----------------------------—--------------|

1's
Gb|-------------------------------------------------------------------|
Db|-------------------------------------------------------------------|
Ab|---------------------------------------------------3333333333333333|
Db|5555555555555555-8888888888888888-1111111111111111-----------------|2x

Oh, father...
1's and 10's
Gb|---------------------------------------------------------|
Db|---------------------------------------------------------|
Ab|--------------------------------------------333333333333-|
Db|-5-5-5-55-55555—8-88-88-88888---11-1-1-1111--------------|2x

Gb|----|
Db|----|
Ab|----|
Db|-5~-|
_________________________________________________________________________
When It Rains, track 7.
E Flat tuning. Good song.

Chorus/Intro
Gb|-----------------------------------------------|  
Db|-----------------------------------------------|  
Ab|---------4---4-777777-----------------------11-| 
Eb|55555555---5----------55555555-7-5-7--999999--9|

Gb|-------------------------------------------------|  |--------------------|
Db|-------------------------------------------------|  |--------------------|
Ab|---------4---4-777777----------------------------|  |----------------7777|
Eb|55555555---5----------55555555-7-5-7--999999999\-|2x|-000000000000000----|

Verse "And when it rains..."
Gb|------------------------------------|
Db|------------------------------------|
Ab|------------------------------------|
Eb|9999999999999999-55555555-00000000--|2x

Pre-chorus "We don't miss a thing..."
G|----------------------------------------------------------|
D|----------------------------------------------------------|
A|----------------------------------7p6-4-2-----------------|
E|2222222222222222-0000000000000000---------222222222222222-|

G|--------------------------|
D|----------9----9999-------|
A|------------77------------|
E|000000000-----------------|

Chorus
Gb|-----------------------------------------------------|  
Db|-----------------------------------------------------|  
Ab|---------4---4-777777---------------------------11---|  
Eb|55555555---5----------55555555-7-5-7--999999999----9-|  

Gb|----------------------------------------------------|  
Db|----------------------------------------------------|  
Ab|---------4---4-777777-------------------------------|  
Eb|55555555---5----------55555555-7-5-7--999999999--12\|  
  
|--------------------|
|--------------------|
|----------------7777|
|-000000000000000----|

Verse 
Gb|---| Gb|------------------------------------|
Db|---| Db|------------------------------------|
Ab|12\| Ab|------------------------------------|
Eb|---| Eb|9999999999999999-55555555-00000000--|2x

Pre-chorus "We don't miss a thing..."
Gb|----------------------------------------------------------|
Db|----------------------------------------------------------|
Ab|----------------------------------7p6-4-2-----------------|
Eb|2222222222222222-0000000000000000---------222222222222222-|

Gb|--------------------------|
Db|----------9----9999-------|
Ab|------------77------------|
Eb|000000000-----------------|

Chorus
Gb|-----------------------------------------------------|  
Db|-----------------------------------------------------|  
Ab|---------4---4-777777---------------------------11---|  
Eb|55555555---5----------55555555-7-5-7--999999999----9-|  

Gb|----------------------------------------------------|  
Db|----------------------------------------------------|  
Ab|---------4---4-777777-------------------------------|  
Eb|55555555---5----------55555555-7-5-7--999999999--12\|

Bridge "Take my time..."
Gb|--------------------------------------|
Db|-----4--4-----------------6-777726666-|
Ab|--------------7-7-------7-------------|
Eb|2-2~--2---0-0~-0--5-5~5---------------|3x

Gb|------------------------|
Db|-----4--4----------7~---|
Ab|-----------------5~--5~-|
Eb|2-2~--2---0-0~-0--------|

Pause

Let's start
Gb|----------|
Db|9--9999---|
Ab|-77-------|
Eb|----------|

Chorus
Gb|-----------------------------------------------------|  
Db|-----------------------------------------------------|  
Ab|---------4---4-777777---------------------------11---|  
Eb|55555555---5----------55555555-7-5-7--999999999----9-|2x 

Gb|----------------------------------------------------|  
Db|----------------------------------------------------|  
Ab|---------4---4-777777-------------------------------|  
Eb|55555555---5----------55555555-7-5-7--999999999--12\| 

Outro "You can take your time..."
Gb|-------------------|
Db|---4----2----------|
Ab|-------------------|
Eb|2~2--0~0----5-5-5~-|


_________________________________________________________________________

My Heart, track nr. 8. 
There is no bass here, so... yeah...

You can however use other bass tabs, and play on them
instead if you really want bass in the song.
_________________________________________________
Decoy. B-side of Hallelujah.
Drop D. I think that Jeremy uses some kind of effect sometimes, 
in the verse, so it might be wrong.

Intro 
G|--------------------|-----------|
D|--------------------|-----------|
A|--------------------|-----------|
D|5--88--33--33-55-33-|-5-88-33-33|

Verse: Close your eyes... 
G|-------------------------------------------------|
D|----------8------------------------8-------------|
A|-----------6-----8-10-6~------------6-----8-10-6~|
D|-8--8/13------------------8--8/13----------------|2x

Pre-chorus: Oh, oh ooh
G|---------------------|
D|---------------------|
A|-----1~--------------|
D|-3\-----1---3-4-1----|

Chorus
G|--------------------------------------------------------------------|
D|--------------------------------------------------------------------|
A|--------------------------------------------------------------------|
D|-5-5-5-5-5-5-5-5-5-5-5-5-5-5-5-5-1-1-1-1-1-1-1-1-3-3-3-3-3-3-3-3----|2x

Intro 
G|--------------------|-----------|
D|--------------------|-----------|
A|--------------------|-----------|
D|5--88--33--33-55-33-|-5-88-33-33|

Verse 
G|-------------------------------------------------|
D|----------8------------------------8-------------|
A|-----------6-----8-10-6~------------6-----8-10-6~|
D|-8--8/13------------------8--8/13----------------|2x

Pre-chorus: Oh, oh ooh
G|-------------------------|
D|-------------------------|
A|-----1~------------------|
D|-3\-----1-----3--4--1----|

Chorus
G|--------------------------------------------------------------------|
D|--------------------------------------------------------------------|
A|--------------------------------------------------------------------|
D|-5-5-5-5-5-5-5-5-5-5-5-5-5-5-5-5-1-1-1-1-1-1-1-1-3-3-3-3-3-3-3-3----|2x

Bridge: 
G|---------------------|
D|---------------------|
A|---------------------|
E|-/10~10/13~13\5~5\3~-|2x

G|----------------------|
D|----------------------|
A|----------------------|
E|-/10~10/13~13\5~5/13\-|

Outro
G|---------------------|   
D|---------------------|   
A|---------------------|   
D|5--88--33--33-55-33--|4x 

_________________________________________________________________________
Pressure. This is my favourite song in All We Know Is Falling. 
It's even better in The Final Riot!. Track number 10.
Drop D.

0:10
G|---------|
D|---------|
A|---------|
D|77-5/12\-|

Intro
G|--------------------------------------|
D|--------------------------------------|
A|--------------------------------------|
D|9-9-9999--0-0-0000--5-5-5555--0-0-0000|

Verse
G|---------------------------|   G|--------|
D|---------------------------|   D|-----4--|	
A|---------------------------|   A|2--4----|
D|-99-9/-55-5/-00-0\-44-4\---|2x D|--------|

Pre-chorus
G|---------------------------------------|
D|---------------------------------------|
A|---------------------------------------|
D|-9-9-9-97/-5-5-5-55/-0-0-0-0\-74-4-4-4\|2x

Chorus 2x
G|----------------------------------------------------------|
D|---------------------------4h5p4--------------------------|
A|-------------------------5--------------------------------|
D|-555555000000444444555555------55555500000044444455555555-|

Verse
G|---------------------------| G|--------|
D|---------------------------| D|-----4--|	
A|---------------------------| A|2--4----|
D|-99-9/-55-5/-00-0\-44-4\---| D|--------|

Pre-chorus
G|---------------------------------------|
D|---------------------------------------|
A|---------------------------------------|
D|-9-9-9-97/-5-5-5-55/-0-0-0-0\-74-4-4-4\|2x

Chorus 2x
G|----------------------------------------------------------|
D|---------------------------4h5p4--------------------------|
A|-------------------------5--------------------------------|
D|-555555000000444444555555------55555500000044444455555555-|

Pause

Just before the interlude:
G|---------|
D|---------|
A|---------|
D|77-5/12\-|

Interlude
G|-------------------------------------|
D|-------------------------------------|
A|-------------------------------------|
D|-8-88-8-8-0-00-0-0-4-44-4-4-0-00-0-0-|

G|-------------------------|
D|-------------------------|
A|-------------------------|
D|-8-88-8-8-0-00-0-0-4-44~-|

Pre-chorus
G|---------------------------------------|
D|---------------------------------------|
A|---------------------------------------|
D|-9-9-9-97/-5-5-5-55/-0-0-0-0\-74-4-4-4\|2x

Chorus 2x
G|----------------------------------------------------------|
D|---------------------------4h5p4--------------------------|
A|-------------------------5--------------------------------|
D|-555555000000444444555555------55555500000044444455555555-|

G|---------------------------------|
D|---------------------------4h5p4-|
A|-------------------------5-------|
D|-555555000000444444555555--------|

Outro 
G|-------------------------------------|
D|-------------------------------------|
A|----------------------------8h9p6----|  
D|-555555000000444444555555---------0~-|
_________________________________________________________________________

For A Pessimist, I Am Pretty Optimistic, Drop C#.
Track nr. 11.

Intro 2x
Gb|---------------------------------------------------------|
Db|---------------------------------------------------------|
Ab|333333---------------------333333----------------7777999-|
Db|-------555555-222222-000000-------555555-0000000---------|

Verse
Gb|-----------| Gb|----------------------------------|
Db|-----------| Db|----------------------------------|
Ab|-----------| Ab|----------------------------------|
Db|5~---------| Db|101010101010101010101010101010\5~-|

Gb|-------------------------------|
Db|-------------------------------|
Ab|-------------------------------|
Db|-101010101010101010101010101010|

Gb|-----------------------------------------------|
Db|-----------------------------------------------|
Ab|-----------------------------------------------|
Db|-55-555-555-555-577-777-777-777--2-2--12\-0-0~-|

Pre Chorus
Gb|---------------------------|--------------------|
Db|---------------------------|--------------------|
Ab|--0~-0h2--2h3--3h5---------|--------------------|  
Db|---------------------------|--2--2h4--4h5--5h7~-| 

Chorus
Gb|--------------------------------------------------------|
Db|--------------------------------------------------------|
Ab|--333333-555555-------------333333--------555555555555--|
Db|----------------222222222222-------555555---------------|

Gb|-------------------------------------------------------|
Db|-------------------------------------------------------|
Ab|--333333-555555--------------333333-555555-------------|
Db|----------------222222222222---------------55-5-0-0-0--|

Inderlude
Gb|--------------------------------------------------------|
Db|--------------------------------------------------------|
Ab|333333---------------------333333----------------777999-|
Db|-------555555-222222-000000-------555555-0000000--------|

Verse
Gb|-----------| Gb|----------------------------------|
Db|-----------| Db|----------------------------------|
Ab|-----------| Ab|----------------------------------|
Db|5~---------| Db|101010101010101010101010101010\5~-|

Gb|---------|
Db|55555555-|
Ab|---------|
Db|---------|

Gb|-------------------------------|
Db|-------------------------------|
Ab|-------------------------------|
Db|-101010101010101010101010101010|

Gb|---------------------------------------------|
Db|---------------------------------------------|
Ab|---------------------------------------------|
Db|-55-555-555-555-577-777-777-777--2-2----0-0~-|

Pre Chorus
Gb|---------------------------|---------------------------------|
Db|---------------------------|---------------------------------|
Ab|--0~-0h2--2h3--3h5---------|---------------------------------|  
Db|---------------------------|--22222222/44444444/55555555/7---| 

Chorus
Gb|--------------------------------------------------------|
Db|--------------------------------------------------------|
Ab|--333333-555555-------------333333--------555555555555--|
Db|----------------222222222222-------555555---------------|

Gb|-------------------------------------------------------|
Db|-------------------------------------------------------|
Ab|--333333-555555--------------333333-555555-------------|
Db|----------------222222222222---------------55-5-0-0-0--|

Interlude
Gb|--------------------------------------------------------|
Db|--------------------------------------------------------|
Ab|333333---------------------333333----------------777999-|
Db|-------555555-222222-000000-------555555-0000000--------|

Bridge
Gb|-----------------------------------|
Db|-----------------------------------|
Ab|------------------333322220000-----|
Db|--2222222244445555------------4444-|
  
Gb|-----------------------------------|
Db|-----------------------------------|
Ab|------------------333322220000-----|
Db|--1111222244445555------------4444-|

Gb|-----------------------|  
Db|-----------------------|
Ab|-------------3-2--0----|
Db|--1--2--4--5--------4--|

Gb|----------------------------------|
Db|----------------------------------|
Ab|-------------3-2--0---------------|
Db|--1--2--4--5--------4--5~---------|

Chorus 2
Gb|--------------------------------------------------------|
Db|--------------------------------------------------------|
Ab|333333---------------------333333----------------777999-|
Db|-------555555-222222-000000-------555555-0000000--------|

Chorus
Gb|---------------------------------------------------------|
Db|---------------------------------------------------------|
Ab|--333333-555555--------------333333-555555---------------|
Db|----------------222222222222---------------555555555555--|

Gb|-------------------------------------------------------|
Db|-------------------------------------------------------|
Ab|--333333-555555--------------333333--------555555-7-9--|
Db|----------------222222222222--------555555-------------|

Gb|-----------------------------------------|
Db|-----------------------------------------|
Ab|--3333-5555----------3333-5555-----------|
Db|------------22222222-----------55555555--|


Gb|---------|
Db|---------|
Ab|---------|
Db|--2-2--4~|
_________________________________________________________________________
Track 12. We Are Broken. This is one of my favourite's. 

Half step down.

Verse 1 ~1:04
Gb|--------------------------------------------------|
Db|------------------18-17-15~-----------------------|
Ab|--------------------------------------------------|
Eb|-9~--9h11p9-8-4-6~-------------9h11p9-8-4-6~--6-6-|

Chorus 1: 'Cause we are broken
Gb|---------------------------|
Db|---------------------------|
Ab|--------------6~--6~--6-6\-|
Eb|1~-1-1--4~-4-4-------------|2x

Gb|----------------------|
Db|----------------------|
Ab|-4~4--8~8--4~4--8~8---|
Eb|-------------------4~-|

Verse 2: Lock the doors...
Gb|-------------------------------|
Db|-------------------------------|
Ab|-4~--3~--8~--------------------|
Eb|------------4~-----------------|2x

Gb|------------------------------------|
Db|------------------------------------|
Ab|-12\5-4~--3~--8~--------------------|
Eb|-----------------4~-----------------|

Gb|-------------------------------|
Db|-------------------------------|
Ab|-4~--3~--8~--------------------|
Eb|------------4~-----------------|

Verse 1 
Gb|------------------13-12-10----------------------|
Db|------------------------------------------------|
Ab|------------------------------------------------|
Eb|-9~--9h11p9-8-4-6~-----------9h11p9-8-4-6~--6-6-|

Chorus 1: 'Cause we are broken
Gb|---------------------------|
Db|---------------------------|
Ab|--------------6~--6~--6-6\-|
Eb|1~-1-1--4~-4-4-------------|2x

Gb|----------------------|
Db|----------------------|
Ab|-4~4--8~8--4~4--8~8---|
Eb|-------------------4~-|

Interlude: Tower over me...
Gb|-----------------|
Db|-----------------|
Ab|-4~--6~--8~---11~|
Eb|-----------------|3x

Gb|-----------|
Db|-----------|
Ab|-4~--6~----|
Eb|--------4~-|

Pause

Bridge: We just wanna be whole...
Gb|------------------------|
Db|------------------------|
Ab|-4~--6~--8~---11-111111-|
Eb|------------------------|

Gb|---------------------|
Db|---------------------|
Ab|-4~--6~--8~---111111-|
Eb|---------------------|

Gb|---------------------|
Db|---------------------|
Ab|-4~--6~--8~---111111-|
Eb|---------------------|

Outro
Gb|-------------------------------------------------------|
Db|-------------------------------------------------------|
Ab|-4-4-4-4h6p4-6-6-6-6h8p6-8-8-8-8h11p8-11-11-11-11h13p11|
Eb|-------------------------------------------------------|4x



_________________________________________________________________________
Emergency. Drop C#. Awesome song.

After piano:
Gb|---------------------------------|
Db|---------------------------------|
Ab|---------------------------------|
Db|-4~--4~--4~--4-4-4-4-4-4444444444|

Verse
Gb|----------------------|   Gb|-------------|
Db|----------------------|   Db|-------------|
Ab|----------------------|   Ab|-------------|
Db|-2/4--444-4-4-4-4-222-|2x Db|0-0-0-0-0-0-0| whole thing five times

Pre-Chorus: it's really not your fault...
Gb|----------------------------------------------------------|
Db|----------------------------------------------------------|
Ab|-------------------------------3h5/7------------3333-5555-|
Db|-22-2-2-2-2-2-2-44-4-4-4-4-4-4-------0-0-0-0-0-0----------|

Gb|-----|
Db|-----|
Ab|-----|
Db|-4/9-|

Chorus 2x
Gb|-----------------------------------------------------------------|
Db|-----------------------------------------------------------------|
Ab|-----------------------------------------------------------------|
Db|--99999999-000000-444444-7777-7-7-99999999-0000000-444444-222222-|

Verse
Gb|----------------------|   Gb|-------------|
Db|----------------------|   Db|-------------|
Ab|----------------------|   Ab|-------------| <- not the last time
Db|-2/4--444-4-4-4-4-222-|2x Db|0-0-0-0-0-0-0| whole thing five times

Pre-Chorus: it's really not your fault...
Gb|----------------------------------------------------------|
Db|----------------------------------------------------------|
Ab|-------------------------------3h5/7------------3333-5555-|
Db|-22-2-2-2-2-2-2-44-4-4-4-4-4-4-------0-0-0-0-0-0----------|

Gb|-----|
Db|-----|
Ab|-----|
Db|-4/9-|

Chorus 2x
Gb|-----------------------------------------------------------------|
Db|-----------------------------------------------------------------|
Ab|-----------------------------------------------------------------|
Db|--99999999-000000-444444-7777-7-7-99999999-0000000-444444-222222-|

Gb|-------------|
Db|-------------|
Ab|-------------|
Db|0-0-0-0-0-0-0|

                     Breakdown
Gb|-----------------|--------------------------------|   
Db|-----------------|--------------------------------|   
Ab|-----------------|-----------------------------5--|
Db|-0-0-0-0-0-0-0-0-|-2-22-22h4/7-2-4-4-4-4-4/7h8--8-|2x 

Slide down Db|12

Solo, it was quite hard to hear the bass here.
Gb|----------------------------------------7777-----------------------------|
Db|-------------------------------------------------------------------------|
Ab|-----------------------------------55555--------66666----6h77---77-------|
Db|-2-2-2-2-2-2-2-2-4-4-4-4-4-4-4-4-11----------11-------11------1----333555|

Gb|-------------------------------|
Db|-------------------------------|
Ab|---777----6h77---77------------|
Db|11-----11------1----333-555-12\|

Gb|-----------------|
Db|-----------------|
Ab|-----------------|
Db|-0-0-0-0-0-0-0-0-|

Chorus 2x
Gb|-----------------------------------------------------------------|
Db|-----------------------------------------------------------------|
Ab|-----------------------------------------------------------------|
Db|--99999999-000000-444444-7777-7-7-99999999-0000000-444444-222222-|

Gb|-------------------|
Db|-------------------|
Ab|-------------------|
Db|-0-0-0-0-0-0-0-0-4~|

_________________________________________________________________________


Track 14. Hallelujah

Intro
G|---------------------------------------|
D|---------------------------------------|
A|---------------------------------------| 
D|8888888888888888-55555555-111111111111-|

G|----------------------------------------|
D|------------------------------11111h3p1-|
A|----------------------------------------| 
D|8888888888888888-55555555-1111----------|

Verse 
G|---------------------|
D|---------------------|
A|---------------------|
D|88-8~---55-5~--77-7~-|

G|----------------------------------|
D|--------11------------------------|
A|------11--1111~-------------------|
D|88-8~-------------55-5~--77-7~----|

G|---------------------|
D|---------------------|
A|---------------------|
D|88-8~---55-5~--77-7~-|

G|----------------------------------|
D|--------11------------------------|
A|------11--1111~-------------------|
D|88-8~-------------55-5~--77-7~----|

Pre-Chorus
G|----------|
D|----------|
A|----------|
D|8~---5p3-7|

Chorus
G|-------------------------------------|
D|-------------------------------------|
A|-------------------------------------| 
D|8888888888888888-55555555-1111111111-|

G|-------------------------------------|
D|--------------------------1111111111-|
A|-------------------------------------| 
D|8888888888888888-55555555------------|

G|------------------------|
D|------------------------|
A|------------------------|
D|888-88-888-888-5-555-1~-|

G|-----------------------|
D|--------------------1~-|
A|-----------------------|
D|888-88-888-888-5-555---|

Verse 
G|------------------|
D|------------------|
A|------------------|
D|8~---55-5~--77-7~-|

G|----------------------------------|
D|--------11------------------------|
A|------11--1111~-------------------|
D|88-8~-------------55-5~--77-7~----|

G|---------------------|
D|---------------------|
A|---------------------|
D|88-8~---55-5~--77-7~-|

G|---------------------------------------|
D|--------11-----------------------------|
A|------11--1111~------------------------|
D|88-8~-------------555555--777777\5-2/8~|

G|--------|
D|--------|
A|7-5-3-1~|
D|--------|

Chorus
G|-------------------------------------|
D|-------------------------------------|
A|-------------------------------------| 
D|8888888888888888-55555555-1111111111-|

G|-------------------------------------|
D|--------------------------1111111111-|
A|-------------------------------------| 
D|8888888888888888-55555555------------|

G|------------------------|
D|------------------------|
A|------------------------| this part only
D|888-88-888-888-5-555-1~-|2x

Bridge start at ~3:35 
G|------------------------------------------------|
D|------------------------------------------------|
A|------------------------------------------------|
D|000-111-3333333333333333-000-111-33333-88888888-|2x

G|-------------------------|
D|-------------------------|
A|-------------------------|
D|000-111-3333333333333333-|

G|-------------------------------------------------|
D|-------------------------------------------------|
A|-------------------------------------------------|
D|000-111-333-8888888888888-000-111-666666666666\--|
 
Chorus
G|-------------------------------------|
D|-------------------------------------|
A|-------------------------------------| 
D|8888888888888888-55555555-1111111111-|

G|-------------------------------------|
D|--------------------------1111111111-|
A|-------------------------------------| 
D|8888888888888888-55555555------------|

G|------------------------|
D|------------------------|
A|------------------------|
D|888-88-888-888-5-555-1~-|

G|-----------------------|
D|--------------------1~-|
A|-----------------------|
D|888-88-888-888-5-555---|

G|------|
D|------|
A|------|
D|-88-8~|
_________________________________________________________________________

Misery Business. Track 15, last song. Great song.

Wait before guitars palm muting is finished.
Drop C#

Intro/Verse whole thing 3 times
Gb|---------------------------------------------------|
Db|---------------------------------------------------|
Ab|--------2h4-2h4---------------2h4-2h4--------------|
Db|---44-4---------22-2-22-244-4---------00-0-00------|

Gb|--------------------------------------------------|
Db|--------------------------------------------------|
Ab|--------2h4-2h4---------------2h4-2h4-------------|
Db|---44-4---------22-2-22-244-4-----------77776666--|

Pre-chorus
Gb|-----------------------|
Db|-----------------------|
Ab|-----------------------|
Db|----44444444-22222-----|

Chorus
Gb|---------------------------------------------|
Db|---------------------------------------------|
Ab|----------0----------7----------2------------|
Db|--00000000-0-77777777-7-22222222-2-4444-6666-|

Gb|-------------------------------------------|
Db|---------5---------------------------------|
Ab|--5555555-5--------7----------2------------|
Db|------------7777777-7-22222222-2-4444-6666-|

Gb|----------------------------------------|
Db|----------------------------------------|
Ab|--5-5-5-5-5-5-50000---------------------|
Db|--------------------2-2-2-2-2-2-2444----|

Gb|---------------------------------------|
Db|---------------------------------------|
Ab|--5-5-5-5-5-5-5000---------------------|
Db|-------------------2-2-2-2-77776-------|

Bridge
Gb|----------------------------------------------|
Db|----------------------------------------------|
Ab|--------2h4-2h4---------------2h4-2h4---------|
Db|---44-4---------22-2-22-244-4---------0-0-0-0-|

Verse whole thing three times
Gb|---------------------------------------------------|
Db|---------------------------------------------------|
Ab|--------2h4-2h4---------------2h4-2h4--------------|
Db|---44-4---------22-2-22-244-4---------00-0-00------|

Gb|--------------------------------------------------|
Db|--------------------------------------------------|
Ab|--------2h4-2h4---------------2h4-2h4-------------|
Db|---44-4---------22-2-22-244-4-----------77776666--| 

Pre-chorus
Gb|-----------------------|
Db|-----------------------|
Ab|-----------------------|
Db|----44444444-22222-----|

Chorus
Gb|---------------------------------------------|
Db|---------------------------------------------|
Ab|----------0----------7----------2------------|
Db|--00000000-0-77777777-7-22222222-2-4444-6666-|

Gb|-------------------------------------------|
Db|---------5---------------------------------|
Ab|--5555555-5--------7----------2------------|
Db|------------7777777-7-22222222-2-4444-6666-|


Gb|----------------------------------------|
Db|----------------------------------------|
Ab|--5-5-5-5-5-5-50000---------------------|
Db|--------------------2-2-2-2-2-2-2444----|

Gb|---------------------------------------|
Db|---------------------------------------|
Ab|--5-5-5-5-5-5-5000---------------------|
Db|-------------------2-2-2-2-77776-------|

Short pause

Interlude: Now, I have watched his wildest dreams...
Gb|-------------------------------------|
Db|-------------------------------------|
Ab|--/5~---0~-------9-11--5-------------|
Db|-------------2~----------7--2--4--6\-|

Guitar solo: HEY JOSH!
Gb|------------------------------------------------|
Db|----------0-------------------------------------|
Ab|--55555555-5---------7----------2---------------|  
Db|-------------77777777-7-22222222-2-4444-6666----|2x

Gb|-------------------------------------------------------------|
Db|-------------------------------------------------------------|
Ab|--55555555555-------------------55555555555------------------|
Db|-------------777\22222222222/444-----------777/2222222/77776-|

Chorus
Gb|---------------------------------------------|
Db|---------------------------------------------|
Ab|----------0----------7----------2------------|
Db|--00000000-0-77777777-7-22222222-2-4444-6666-|

Gb|-------------------------------------------|
Db|---------5---------------------------------|
Ab|--5555555-5--------7----------2------------|
Db|------------7777777-7-22222222-2-4444-6666-|


Gb|----------------------------------------|
Db|----------------------------------------|
Ab|--5-5-5-5-5-5-50000---------------------|
Db|--------------------2-2-2-2-2-2-2444----|

Gb|---------------------------------------|
Db|---------------------------------------|
Ab|--5-5-5-5-5-5-5000---------------------|
Db|-------------------2-2-2-2-77776-------|

Outro
Gb|---------------------------------------------|
Db|---------------------------------------------|
Ab|--------2h4-2h4---------------2h4-2h4--------|
Db|---44-4---------22-2-22-244-4---------00-0-0-|

Gb|-----------------------------------------------|
Db|-----------------------------------------------|
Ab|--------2h4-2h4---------------2h4-2h4----------|
Db|---44-4---------22-2-22-244-4---------0-0-0-0~-|

I've done a tab of the Final Riot! ... now what? 



| /  slide up
| \  slide down
| h  hammer-on
| p  pull-off
| ~  vibrato
| +  harmonic
| x  Mute note
==============================================================================
comments
We did not receive enough feedback on this tab! Please rate:
print report bad tab
1 2 3 4 5
2 comments total.
+1 reply
KaitoNyappy wrote on July 22 2010, 05:09 am

Thnak you so freaking much man, this rules!!!!!

0 reply
AlexD97 wrote on July 22 2010, 05:10 am

Thank you.

I want to post or [tab]
guest
You may want to rate the tab now too:
select rating
Please do not post tabs as comments. Select "correction" instead!