Oops, an error
Loading. Please wait.

The Final Riot Tab

70,048 views 54 this week
27 commentsread comments
1 2 3 4 5
excellent!
x 25
Autoscroll
+/-
esc
set tempo
stop
Contributor
Tabbers playing skills
advanced +
Hey! There's an official Ultimate Guitar app which is ideal
for learning songs when you're away from computer. Get the app
WARNING: You are trying to view
                                    content from Ultimate-Guitar.com
                                    in an unauthorized application,
                                    which is prohibited.

                                    Please use an official Ultimate
                                    Guitar Tabs application for iPhone,
                                    iPad or Android to access legitimate
                                    chords, guitar, bass, and drum tabs
                                    from Ultimate-Guitar.com database.

                                    Type "ultimate guitar tabs" in Apple
                                    App Store's or Android Market's
                                    search to find the application.
PLS LIKE OUR BAND FAN PAGE @ FACEBOOK - https://www.facebook.com/SinceAstrid

Tabbed By Francis Twister
From Paramore Philippines(PARAWHORE)



1. Born For This
2. That's What You Get
3. Here We Go Again
4. Fences
5. crushcrushcrush
6. Let The Flames Begin
7. When It Rains
8. My Heart
9. Decoy
10. Pressure
11. For A Pessimist, I'm Pretty Optimistic
12. We Are Broken
13. Emergency
14. Hallelujah
15. Misery Business 

born for this LIVE - Final Riot


Drop  C#

born for this LIVE - Final Riot
Intro I

GtrI 4x

eb|--------------------------------------------------------------------------|
Bb|--------------------------------------------------------------------------|
Gb|-xxxx-4-4-4-4-4-4-4-4-4-4-4-4-4-4-4-4--1111111111111111-9-9-9-9-9-9-9-9-9-|
Db|-xxxx-x-x-x-x-x-x-x-x-x—x-x-x-x-x-x-x--x-x-x-x-x-x-x-x—-x-x-x-x-x-x-x-x-x-|
Ab|-xxxx-2-2-2-2-2-2-2-2-2-2-2-2-2-2-2-2--9-9-9-9-9-9-9-9--7-7-7-7-7-7-7-7-7-|
Db|-xxxx---------------------------------------------------------------------|

eb|----------------------------------------------------------------------|
Bb|----------------------------------------------------------------------|
Gb|--4-4-4-4-4-4-4-4-4-4-4-4-4-4-4-4--1111111111111111-6-6-6-6-6-6-6-6---|
Db|--x-x-x-x-x-x-x-x-x—x-x-x-x-x-x-x--x-x-x-x-x-x-x-x—-x-x-x-x-x-x-x-x---|
Ab|--2-2-2-2-2-2-2-2-2-2-2-2-2-2-2-2--9-9-9-9-9-9-9-9—-4-4-4-4-4-4-4-4---|
Db|----------------------------------------------------------------------|

GtrII 2x enters
eb|------------------------------------------------------------------------|
Bb|------------------------------------------------------------------------|
Gb|-xxxx-7-7-7-7-7-7-7-7-7-7-7-7-7-7-7-7--7-7-7-7-7-7-7-7—-6-6-6-6-6-6-6-6-|
Db|-xxxx-5-5-5-5-5-5-5-5-5-5-5-5-5-5-5-5--0-0-0-0-0-0-0-0—-4-4-4-4-4-4-4-4-|
Ab|-xxxx-5-5-5-5-5-5-5-5-5-5-5-5-5-5-5-5--0-0-0-0-0-0-0-0—-4-4-4-4-4-4-4-4-|
Db|-xxxx-5-5-5-5-5-5-5-5-5-5-5-5-5-5-5-5--0-0-0-0-0-0-0-0--4-4-4-4-4-4-4-4-|
Then
GtrI
eb|--0-0-0----0-0-0---------------------------|
Bb|--0-0-0----0-0-0---------------------------|
Gb|--9-9-9----9-9-9---------------------------|
Db|--9-9-9----9-9-9---------------------------|
Ab|--7-7-7----7-7-7---------------------------|
Db|-------------------------------------------|
GtrI
eb|--0-0-0----0-0-0---------------------------|
Bb|--0-0-0----0-0-0---------------------------|
Gb|--4-4-4----4-4-4---------------------------|
Db|--2-2-2----2-2-2---------------------------|
Ab|--2-2-2----2-2-2---------------------------|
Db|--2-2-2----2-2-2---------------------------|


IntroII
eb|---------------------------------------|    |-14^(15)14-12-------------------12---12---|
Bb|--7^(8)-5-----------------5---5--------|    |--------------15-12---14-141414---14---14-|
Gb|----------7--4-----6-6-6----6---6------|    |--------------------14--------------------|
Db|---------------7-----------------------|2xor|------------------------------------------|2x
Ab|---------------------------------------|    |------------------------------------------|
Db|---------------------------------------|    |------------------------------------------|

INTRO GTR 2 : TWO TIMES
eb|---------------------------------------------------------------------|
Bb|---------------------------------------------------------------------|
Gb|---------------------------------------------------------------------|
Db|--9-9-9-9-7-7-7-7-0-0-0-0-2-2-2-2--9-9-9-9-7-7-7-7-0-0-0-0-2-2-2-2---|
Ab|--9-9-9-9-7-7-7-7-0-0-0-0-2-2-2-2--9-9-9-9-7-7-7-7-0-0-0-0-2-2-2-2---|
Eb|--9-9-9-9-7-7-7-7-0-0-0-0-2-2-2-2--9-9-9-9-7-7-7-7-0-0-0-0-2-2-2-2---|


Verse-

GtrI

eb|------------------------------------------------------------------|
Bb|------------------------------------------------------------------|
Gb|-11111111111111-1111-7-7-7-7-6-6-6-6--11111111-7-7-7-7-9-9-9-9-9~-|
Db|-9-9-9-9-9-9-9--9-9--5-5-5-5-4-4-4-4--9-9-9-9--5-5-5-5-7-7-7-7----|2x
Ab|------------------------------------------------------------------|
Db|------------------------------------------------------------------|

GtrII
eb|----------------------------------------------------------------------------------------------|
Bb|----------------------------------------------------------------------------------------------|
Gb|-11--------------------------------------------------11/------------------------1111-99-77-44-|
Db|-9/--------------------------------------------------9/---------------------------------------|
Ab|-9/--------------------------------------------------9/--------------------------9-9-77-55-66-|
Db|-9/--------------------------------------------------9/---------------------------------------|


GtrII
eb|----------------------------------------------------------------------------------------------|
Bb|----------------------------------------------------------------------------------------------|
Gb|-11--------------------------------------------------11/--------------------------------------|
Db|-9/--------------------------------------------------9/---------------------------------------|
Ab|-9/--------------------------------------------------9/---------------------------------------|
Db|-9/--------------------------------------------------9/---------------------------------------|
Refrain I
eb|-------------------------------------------------------------------------------|
Bb|-------------------------------------------------------------------------------|
Gb|-4~------11~-------7~------44-44-44-44-4-4—-99-99-99-99-9-9---11/-------11/----|
Db|-2~-------9~-------5~------22-22-22-22-2-2—-77-77-77-77-7-7----9/--------9/----|
Ab|-2~-------9~-------5~------22-22-22-22-2-2—-77-77-77-77-7-7----9/--------9/----|
Db|-2~-------9~-------5~------22-22-22-22-2-2-—77-77-77-77-7-7----9/--------9/----|

Chorus-
GtrI
eb|-------------------------------------------------------|
Bb|-------------------------------------------------------|
Gb|-------------------1111111111111111-9-9-9-9-9-9-9-9----|
Db|-5-----------------------------------------------------|
Ab|-5-555555555555555-9-9-9-9—9-9-9-9--7-7-7-7-7-7-7-7----|
Db|-5-xxxxxxxxxxxxxxx-------------------------------------|


eb|-------------------------------------------------------|
Bb|-------------------------------------------------------|
Gb|-7-----------------1111111111111111-14141414141414----|
Db|-5-----------------------------------------------------|
Ab|-5-555555555555555-9-9-9-9—9-9-9-9--12121212121212—----|
Db|-5-xxxxxxxxxxxxxxx-------------------------------------|

GtrII
eb|-------------------------------------------------------|
Bb|-------------------------------------------------------|
Gb|-------------------------------------------------------|
Db|-5-xxxxxxxxxxxxxxx-0-0-0-0-0-0-0-0—-4-4-4-4-4-4-4-4----|
Ab|-5-555555555555555-0-0-0-0-0-0-0-0—-4-4-4-4-4-4-4-4----|
Db|-5-xxxxxxxxxxxxxxx-0-0-0-0-0-0-0-0—-4-4-4-4-4-4-4-4----|

eb|-------------------------------------------------------|
Bb|-------------------------------------------------------|
Gb|-------------------------------------------------------|
Db|-5-xxxxxxxxxxxxxxx-9-9-9-9-9-9-9-9—-7-7-7-7-7-7-7-7----|
Ab|-5-555555555555555-9-9-9-9-9-9-9-9—-7-7-7-7-7-7-7-7----|
Db|-5-xxxxxxxxxxxxxxx-9-9-9-9-9-9-9-9—-7-7-7-7-7-7-7-7----|

GtrI
eb|-------------------------------------------------------|
Bb|-------------------------------------------------------|
Gb|-7-777777777777777-1111111111111111-9-9-9-9-9-9-9-9----|
Db|-------------------------------------------------------|
Ab|-5-555555555555555-9-9-9-9—9-9-9-9--7-7-7-7-7-7-7-7----|
Db|-------------------------------------------------------|


eb|-------------------------------------------------------|
Bb|-------------------------------------------------------|
Gb|-7-777777777777777-1111111111111111-14141414141414-----|
Db|-------------------------------------------------------|
Ab|-5-555555555555555-9-9-9-9—9-9-9-9--12121212121212—----|
Db|-------------------------------------------------------|

GtrII
eb|-------------------------------------------------------|
Bb|-------------------------------------------------------|
Gb|-------------------------------------------------------|
Db|-5-555555555555555-0-0-0-0-0-0-0-0—-4-4-4-4-4-4-4-4----|
Ab|-5-555555555555555-0-0-0-0-0-0-0-0—-4-4-4-4-4-4-4-4----|
Db|-5-555555555555555-0-0-0-0-0-0-0-0—-4-4-4-4-4-4-4-4----|

eb|-------------------------------------------------------|
Bb|-------------------------------------------------------|
Gb|-------------------------------------------------------|
Db|-5-555555555555555-9-9-9-9-9-9-9-9—-7-7-7-7-7-7-7-7-5~-|
Ab|-5-555555555555555-9-9-9-9-9-9-9-9—-7-7-7-7-7-7-7-7-5~-|
Db|-5-555555555555555-9-9-9-9-9-9-9-9—-7-7-7-7-7-7-7-7-5~-|


Repeat Verse
gTRi dO VERSE
GtrII
eb|-----------------------------------------------------------------|
Bb|-----------------------------------------------------------------|
Gb|-----------------------------------------------------------------|
Db|-9-9-9-9-9-99—9-9-9-9-9-9-9-9-9-9-5-5-5-5-5-4-4-4-4--------------|4X
Ab|-9-9-9-9-9-99—9-9-9-9-9-9-9-9-9-9-5-5-5-5-5-4-4-4-4--------------|
Db|-9-9-9-9-9-99—9-9-9-9-9-9-9-9-9-9-5-5-5-5-5-4-4-4-4--------------|





-refrain

gTRS Do Chorus

Do Intro2

Chorus-
GtrI
eb|----------------------------------------------------------------------------------------------|
Bb|----------------------------------------------------------------------------------------------|
Gb|-7~---9~---11------4------7~-----6~-----11------4------7-------6~------77777777-6666666666666-|
Db|-5~---7~---9—xx-x--2-x-xx—5~-----4~-----9—xx-x--2-x-xx—5-x-xx--4~-x-xx—55555555-4444444444444-|
Ab|-5~---7~---9—xx-x--2-x-xx—5~-----4~-----9—xx-x--2-x-xx—5-x-xx--4~-x-xx—55555555-4444444444444-|
Db|-5~---7~---9—xx-x--2-x-xx—5~-----4~-----9—xx-x--2-x-xx—5-x-xx--4~-x-xx—55555555-4444444444444-|
                                                                                   ***********

GtrII
GtrII
eb|--------------------------------------------------------------------------------------------|
Bb|--------------------------------------------------------------------------------------------|
Gb|--------------------------------------------------------------------------------------------|
Db|-5~---7~---9—xx-x--2-x-xx—5~----7~----9—xx-x--2-x-xx—5-x-xx--7~-x-xx—55555555-4444444444444-|
Ab|-5~---7~---9—xx-x--2-x-xx—5~----7~----9—xx-x--2-x-xx—5-x-xx--7~-x-xx—55555555-4444444444444-|
Db|-5~---7~---9—xx-x--2-x-xx—5~----7~----9—xx-x--2-x-xx—5-x-xx--7~-x-xx—55555555-4444444444444-|
                                                                                 ***********

Chorus                                                                                

eb|-1010101010101010-------------------------------------|
Bb|-8-8-8-8-8-8-8-8--------------------------------------|
Gb|-7-7-7-7-7-7-7-7--1111111111111111-9-9-9-9-9-9-9-9----|
Db|------------------------------------------------------|
Ab|------------------9-9-9-9—9-9-9-9--7-7-7-7-7-7-7-7----|
Db|------------------------------------------------------|

eb|-------------------------------------------------------|
Bb|-------------------------------------------------------|
Gb|-7-----------------1111111111111111-14141414141414-----|
Db|-5-----------------------------------------------------|
Ab|-5-555555555555555-9-9-9-9—9-9-9-9--12121212121212—----|
Db|-5-xxxxxxxxxxxxxxx-------------------------------------|

GtrII Do chorus

Do CHorus 2
GtrI@ last chorus part

eb|--------------------|
Bb|--------------------|
Gb|-7~-9—11~--111111---|
Db|--------------------|
Ab|—5~-7~-9~--9-9-9----|
Db|--------------------|

End with
GtrII
eb|--------------------------------------------------------------------------------------------|
Bb|-----------------------------------------------------15---15---15---------------------------|
Gb|-----------------------------------------------------14---14---14---------------------------|
Db|--9—xx-x--2-x-xx—5-x-xx--4~-x-xx—------------------------------------xxx--------------------|
Ab|--9—xx-x--2-x-xx—5-x-xx--4~-x-xx—------------------------------------xxx--------------------|
Db|--9—xx-x--2-x-xx—5-x-xx--4~-x-xx—------------------------------------xxx--------------------|


eb|-------------------------1717----1717-17----|
Bb|--15---15---15---1515-15------15---------15-|
Gb|--14---14---14------------------------------|
Db|--------------------------------------------|
Ab|--------------------------------------------|
Db|--------------------------------------------|


GtrII
eb|--------------------------------------------------------------------------------------------|
Bb|--------------------------------------------------------------------------------------------|
Gb|--------------------------------------------------------------------------------------------|
Db|--9—xx-x--2-x-xx—5-x-xx--4~-x-xx—--7-9-7—-7-9-7--7-9----9----9---9--xxx-7-9-7—-7-9-7--7-9---|
Ab|--9—xx-x--2-x-xx—5-x-xx--4~-x-xx—--7-9-7—-7-9-7--7-9----9----9---9--xxx-7-9-7—-7-9-7--7-9---|
Db|--9—xx-x--2-x-xx—5-x-xx--4~-x-xx—--7-9-7—-7-9-7--7-9----9----9---9--xxx-7-9-7—-7-9-7--7-9---|


eb|-----------------------------------------|
Bb|-----------------------------------------|
Gb|-----------------------------------------|
Db|--9-xxx-9-xxx-9--xxx-7-9-7—-7-9-7--7-9---|
Ab|--9-xxx-9-xxx-9--xxx-7-9-7—-7-9-7--7-9---|
Db|--9-xxx-9-xxx-9--xxx-7-9-7—-7-9-7--7-9---|

----------------------------------------------------------------------------

That's What you Get

Guitar1- {eb bb gb db Ab Db}
Guitar2- {eb bb gb db Ab Db}


Intro-



Guitar1

   
|-----------------------------------------------------|
|-----------------------------------------------------|
|-------------------------------------------131313-11-|2x
|-------4h6------6h9----------9h11----------x-x-x--x--|
|-4-4-4-----4-4-4-----6-6-6-----------------111111-9--|
|-----------------------------------------------------|

Guitar2

|-------------------------------------------------|
|-------------------------------------------------|
|---------------------------------13-13-13---11---|
|-111111-----111111-----131313----11-11-11---9----|2x
|-7-7-7------7-7-7------9-9-9-----11-11-11---9----|
|-7-7-7------7-7-7------9-9-9-----11-11-11---9----|



Verse-



Guitar1 


|---7---|---7---|----7----|---7-----|
|---9---|---7---|----9----|---7-----|
|---9---|---9---|----9----|---9-----|
|-------|-------|---------|---------|2x
|-------|-------|---------|---------|
|-------|-------|---------|---------|


Guitar2PALM MUTE

|--------------------------------|
|--------------------------------|
|--------------------------------|
|-7-7-7--7-7-7---9-9-9---111111--|4x
|-7-7-7--7-7-7---9-9-9---111111--|
|-7-7-7--7-7-7---9-9-9---111111--|
  * * *  * * *   * * *   * * *


Continued...

gTRi
|-----------------------------------------------------|
|-----------------------------------------------------|
|-------------------------------------------131313-11-|2x
|-------4h6------6h9----------9h11----------x-x-x--x--|
|-4-4-4-----4-4-4-----6-6-6-----------------111111-9--|
|-----------------------------------------------------|

Guitar2

|-------------------------------------------------|
|-------------------------------------------------|
|---------------------------------13-13-13---11---|
|-111111-----111111-----131313----11-11-11---9----|2x
|-7-7-7------7-7-7------9-9-9-----11-11-11---9----|
|-7-7-7------7-7-7------9-9-9-----11-11-11---9----|

REPEAT Verse





Pre-chorus

G1

|----|
|----|
|-4~-|
|-2~-|
|-2~-|
|-2~-|



G2

|-0--|
|-0--|
|-9~-|
|-9~-|
|-7~-|
|----|





Chorus-

Guitar1

|--------------------------------|
|--------------------------------|
|---------------6666--44444------|
|-77777--22222--6666--44444------|
|-77777--22222--4444--22222------|
|-77777--22222-------------------|



Guitar2



|-16~------16~-------------------|--16~------16~-----14~------14~-------|
|-----17~-------17~--16h17-16----|-------17~-----17~--------------------|
|----------------------------16--|----------------------16~-------16~---|
|--------------------------------|--------------------------------------|
|--------------------------------|--------------------------------------|
|--------------------------------|--------------------------------------|

GUITAR1

|--------------------------------|
|--------------------------------|
|----------------4444444444------|
|-77777--222222--4444444444------|
|-77777--222222--2222222222------|
|-77777--222222------------------|

GUITAR2



|-16~------16~-------------------|--14~------14~----14~------14~--------|
|-----17~-------17~--16h17-16----|--------------------------------------|
|----------------------------16--|------16~-------16~----16~-------16~--|
|--------------------------------|--------------------------------------|
|--------------------------------|--------------------------------------|
|--------------------------------|--------------------------------------|


GUITAR1

|-------------------------|   
|-------------------------|   
|---6666666--4444444------|   
|---6666666--4444444------|2x
|---4444444--2222222------|   
|-------------------------|

GUITAR2(I CAN HEAR GUITAR 2 AT THIS PART...)
not sure of this tab..
|--------------------------------------------------------------------|
|--------------------------------------------------------------------|
|---------------------13-13----1616---13--13-13----------------------|
|--14-14-14--16-16--------------------------------16--16--16--16-----|
|--------------------------------------------------------------------|
|--------------------------------------------------------------------|


|--------------------------------------------------------------------|
|--------------------------------------------------------------------|
|---------------------13-13----1616---13--13-13----------------------|
|--14-14-14--16-16--------------------------------14--16--16--16-----|
|--------------------------------------------------------------------|
|--------------------------------------------------------------------|

GUITAR1
|--------------------------------|
|--------------------------------|
|----------------4444444444------|
|-77777--222222--4444444444------|
|-77777--222222--2222222222------|
|-77777--222222------------------|   



Guitar2
|-16~------16~-------------------|--14~------14~----14~------14~--------|
|-----17~-------17~--16h17-16----|--------------------------------------|
|----------------------------16--|------16~-------16~----16~-------16~--|
|--------------------------------|--------------------------------------|
|--------------------------------|--------------------------------------|
|--------------------------------|--------------------------------------|





Interlude-



Guitar2

|-------------------------------------------------|
|-------------------------------------------------|
|---------------------------------13-13-13---11---|
|-111111-----111111-----131313----11-11-11---9----|2x
|-7-7-7------7-7-7------9-9-9-----11-11-11---9----|
|-7-7-7------7-7-7------9-9-9-----11-11-11---9----|

then...
do intro




repeat verse

Pre-chorus

Repeat Chorus


Verse-



Continued...
Do intro





Chorus-



Drum beats then



|-----------------------------|
|-----------------------------|
|--4-4-4-4-4-44444444---------|
|--4-4-4-4-4-44444444---------|
|--2-2-2-2-2-22222222---------|
|-----------------------------|
   * * * * * *   


Repeat chorus then



G1
|-16~---14~------12~~------|
|-17~---14-------12~~------|
|-16----16~------11--------|
|--------------------------|
|--------------------------|
|--------------------------|


G2

|-------------------0--|
|-------------------0--|
|-------------------4--|
|-777-xxxx-777-xxxx-2~-|
|-777-xxxx-777-xxxx-2~-|
|-777-xxxx-777-xxxx-2~-|

-----------------------------------------------------------------------------

Here We Go Again



Tuning: drop C#


Intro -

GtrI
eb|----------------------------------------------------------------------------|
bb|----------------------------------------------------------------------------|
gb|--16-16--11-11/13---9--8—8/9/8---/16-16--11-11/13---9--8--4--4--6--6---4/6--|
db|----------------------------------------------------------------------------|
ab|--14-14--9--9/11----7--6—6/7/6---/14-14--9--9/11----7--6--2--2--4--4---2/4--|
Db|----------------------------------------------------------------------------|

Verse 1

eb|--------------------------------------|
bb|---9---10--12--12--12--12--12--12-----|(3x)
gb|-----9----9---9---9---9---9---9-------|
db|--------------------------------------|
ab|--------------------------------------|
Db|--------------------------------------|

Then

eb|--------------------------------------|
bb|---9---10--12--12--10--10--12--12--12-|(3x)
gb|-----9----9---9---9---9---9---9---9---|
db|--------------------------------------|
ab|--------------------------------------|
Db|--------------------------------------|


Chorus 

eb|----------------------------------------------12-12-12-12-11-11-11-11-11-11-11-11-11-11-11-11-|
b-9-9-9-9-10-10-10-10--12-12-12-12-10-10--9-9--9--9--9--9--9--9--9--9--9--9--9--9--9--9--9--9--|
gb|-9-9-9-9-9--9--9--9---9--9--9--9---9--9--9-9--9--9--9--9--9--9--9--9--9--9--9--9--9--9--9--9--|
db|----------------------------------------------------------------------------------------------|
ab|----------------------------------------------------------------------------------------------|
Db|----------------------------------------------------------------------------------------------|
(x3)

Then
eb|----------------------------------------------12-12-12-12-11-11-11-11-11-11-11-11-11-11-11-11-|
bb|-9-9-9-9-10-10-10-10--12-12-12-12-10-10--9-9--9--9--9--9--9--9--9--9--12-12-12-12-12-12-12-12-|
gb|-9-9-9-9-9--9--9--9---9--9--9--9---9--9--9-9--9--9--9--9--9--9--9--9--9--9--9--9--9--9--9--9--|
db|----------------------------------------------------------------------------------------------|
ab|----------------------------------------------------------------------------------------------|
Db|----------------------------------------------------------------------------------------------|

Then (same as intro)

eb|--------------------------------|
bb|--------------------------------|
gb|--16-16--11-11/13---9--8—8/9/8--|
db|--------------------------------|(x2)
ab|---14-14--9--9/11----7--6—6/7/6--|
Db|--------------------------------|


eb|-------------------------------------------|
bb|-------------------------------------------|
gb|--16-16--11-11/13---9--8--4--4--6--6---4/6-|
db|-------------------------------------------|
ab|--14-14--9--9/11----7--6--2--2--4--4---2/4-|
Db|-------------------------------------------|

do Verse 2
Chorus

Bridge (starts with intro riff)

eb|----------------------------------------------------------------------|
bb|----------------------------------------------------------------------|
gb|--16-16--11-11/13---9--8—8/9/8-----16-16--11-11/13---9--8--4--4--6--6-|
db|----------------------------------------------------------------------|
ab|--14-14--9--9/11----7--6—6/7/6-----14-14--9--9/11----7--6--2--2--4--4-|
Db|----------------------------------------------------------------------|

eb|-----------------------------------------------------------------------|
bb|-----------------------------------------------------------------------|
gb|--16-16--11-11/13---9--8—8/9/8-----16-16--11-11/13---9-9-9-9-8-8-8-8-8-|
db|-----------------------------------------------------------------------|
ab|--14-14--9--9/11----7--6—6/7/6-----14-14--9--9/11----7-7-7-7-6-6-6-6-6-|
Db|-----------------------------------------------------------------------|

eb|---------------------------------------------------------------------------|
Bb|--9-9-9-7-7-9-9-7--9-9-9-7-7-9-9-7--9-9-9-7-7-9-9-7--12-12-10-10-9-9-------|
Gb|--9-9-9-8-8-9-9-8--9-9-9-8-8-9-9-8--9-9-9-8-8-9-9-8--11-11--9--9-9-9-------|
Db|---------------------------------------------------------------------------|
Ab|---------------------------------------------------------------------------|
Eb|---------------------------------------------------------------------------|

eb|---------------------------------------------------------------------------|
Bb|--9-9-9-7-7-9-9-7--9-9-9-7-7-9-9-7--9-9-9-7-7-9-9-7------------------------|
Gb|--9-9-9-8-8-9-9-8--9-9-9-8-8-9-9-8--9-9-9-8-8-9-9-8--9-9-9-9-8-8-8-8-------|
Db|---------------------------------------------------------------------------|
Ab|---------------------------------------------------------------------------|
Eb|---------------------------------------------------------------------------|


Do Chorus

Chords
For GtrII
Intro: A C#m x2


A                   C#m
 And here we go again
                          A
With all the things we said
                     C#m
And not a minute spent
                        A
To think that we'd regret
                      C#m
So we just take it back
                              A
These words and hold our breath
           C#m               A
Forget the things we swore we meant


Chorus:
C#m                             A                     C#m
 I'll write you just to let you know that I'm alright
              G#m            A
Can't say I'm sad to see you go
            C#m           A
Cause I'm not. Well, I'm not.

C#m G#m A
 A  C#m

A                    C#m
 And here we go again
                        A
With all the things we did
                     C#m
And now I'm wondering
                       A
Just who would I have been
                       C#m
To be the one attached
                      A
At all times to your hip
           C#m               A
Forget the things we swore we meant


Chorus:
C#m                             A                    C#m
 I'll write you just to let you know that I'm alright
              G#m            A
Can't say I'm sad to see you go
            C#m           A     C#m  G#m  A
Cause I'm not. Well, I'm not. Ooh

A C#m x2(palm mute)
A    C#m    A    C#m   (break)


A  C#m                          A                   C#m
      I'll write you to let you know that I'm alright
                            A
Can't say I'm sad to see you go
          C#m
Cause I'm not (I'm not)
           A
Well, I'm not (I'm not)
     C#m   G#m A
I'm not, I'm   not.


Fences

Guitar1(eb bb gb db Ab Db)

Guitar2(eb bb gb db Ab Db)

INTRO-

GUITAR1

|--------2~----|--------2~----|
|-------3~-----|-------3~-----|
|------4~------|------4~------|
|-----4~-------|-----4~-------|
|----2~--------|----2~--------|
|--------------|--------------|

Verse-

|--------2~----|--------2~----|
|-------3~-----|-------3~-----|
|------4~------|------4~------|
|-----4~-------|-----4~-------|
|----2~--------|----2~--------|
|--------------|--------------|

REFRAIN1

|--x-x-x-x-x-x--|--x-x-x-x-x--|
|--8-8-8-8-8-8--|--5-5-5-5-5--|
|--9-9-9-9-9-9--|--6-6-6-6-6--|
|--9-9-9-9-9-9--|--7-7-7-7-7--|
|--7-7-7-7-7-7--|--7-7-7-7-7--|
|---------------|--x-x-x-x-x--|

VERSE2-

|-------2~----|
|------3~-----|
|-----4~------|
|----4~-------|
|---2~--------|
|-------------|

REFRAIN2
|--------|------|-------|---------|-----------|
|-----8~-|---7~-|----5~-|-----8~--|------5~---|
|-----9~-|---7~-|----6~-|-----9~--|------6~---|
|----9~--|--7~--|---7~--|----9~---|-----7~----|
|---7~---|-5~---|--7~---|---7~----|----7~-----|
|--------|------|-x-----|---------|---x-------|


Chorus-
Guitar1
|----------------------------|--------|--------|
|-----12121212121212121212---|---7777-|--------|
|-----11111111111111111111---|---7777-|--------|
|--99------------------------|--5-----|--2--4--|2x
|--99------------------------|--5-----|--2--4--|
|--99------------------------|--5-----|--2--4--|

Guitar2
|----------------------------|--------|--------|
|----------------------------|--------|--------|
|----------------------------|--------|--------|
|--99------------------------|--5-----|--2--4--|2x
|--99------------------------|--5-----|--2--4--|
|--99------------------------|--5-----|--2--4--|


Guitar1 & 2
|------------|--------------|
|------------|--------------|
|------------|--------------|
|--5-555555--|--2--2--2--2--|
|--5-555555--|--2--2--2--2--|
|--5-555555--|--2--2--2--2--|


|--------------------X---|
|--------------------X---|
|--------------------X---|
|--5-5555555-7777-8--X---|
|--5-5555555-7777-8--X---|
|--5-5555555-7777-8--X---|

Continued..
Guitar1
|--------2~----|--------2~----|
|-------3~-----|-------3~-----|
|------4~------|------4~------|
|-----4~-------|-----4~-------|
|----2~--------|----2~--------|
|--------------|--------------|


Verse-

|--------2~----|--------2~----|
|-------3~-----|-------3~-----|
|------4~------|------4~------|
|-----4~-------|-----4~-------|
|----2~--------|----2~--------|
|--------------|--------------|

REFRAIN1
|--x-x-x-x-x-x--|--x-x-x-x-x--|
|--8-8-8-8-8-8--|--5-5-5-5-5--|
|--9-9-9-9-9-9--|--6-6-6-6-6--|
|--9-9-9-9-9-9--|--7-7-7-7-7--|
|--7-7-7-7-7-7--|--7-7-7-7-7--|
|---------------|--x-x-x-x-x--|

REFRAIN2
|--------|------|-------|---------|-----------|
|-----8~-|---7~-|----5~-|-----8~--|------5~---|
|-----9~-|---7~-|----6~-|-----9~--|------6~---|
|----9~--|--7~--|---7~--|----9~---|-----7~----|
|---7~---|-5~---|--7~---|---7~----|----7~-----|
|--------|------|-x-----|---------|---x-------|


Repeat Chorus
Then

|-----------|-----------|-----------|-----------|
|-----------|-----------|-----------|-----------|
|-----------|-----------|---7---7---|-----------|
|---2---2---|---5---5---|---0---0---|---7---7---|
|---2---2---|---5---5---|---0---0---|---7---7---|
|---2---2---|---5---5---|---0---0---|---7---7---|


|-----------|-----------|-----------|-----------|
|-----------|-----------|-----------|-----------|
|-----------|-----------|---7---7---|-----------|
|---2---2---|---5---5---|---0---0---|---8---8---|
|---2---2---|---5---5---|---0---0---|---8---8---|
|---2---2---|---5---5---|---0---0---|---8---8---|



Solo-
1.
Guitar1
|-----------------------------------------------------|
|-----------------------------------------------------|
|-----------------------------------------------------|
|--9-9-9-9-8-8-8-8-7-7-7-7-6-6-6-6-5-5-5-5-5-5---5-7--|
|--9-9-9-9-8-8-8-8-7-7-7-7-6-6-6-6-5-5-5-5-5-5---5-7--|
|--9-9-9-9-8-8-8-8-7-7-7-7-6-6-6-6-5-5-5-5-5-5---5-7--|

Guitar2
|-----------------------------------------------------|
|-----------------------------------------------------|
|-----------------------------------------------------|
|----9^------7^-----9^-----7^-----9^--7^--------------|
|-----------------------------------------10^--9^-----|
|-----------------------------------------------------|


2.
Guitar1
|-----------------------------------------------------|
|-----------------------------------------------------|
|-----------------------------------------------------|
|--9-9-9-9-8-8-8-8-7-7-7-7-6-6-6-6-5-5-5-5-5-5---5-7--|
|--9-9-9-9-8-8-8-8-7-7-7-7-6-6-6-6-5-5-5-5-5-5---5-7--|
|--9-9-9-9-8-8-8-8-7-7-7-7-6-6-6-6-5-5-5-5-5-5---5-7--|

Guitar2
|----------------------------------------------|
|----------------------------------------------|
|----------------------------------------------|
|----9^------7^-----11^------9^-------12^------|
|----------------------------------------------|
|----------------------------------------------|


3.
Guitar1
|-------------|--------|--------|
|-------------|--------|--------|
|-------------|--------|--------|
|--9999999----|--55555-|--2--4--|2x
|--9999999----|--55555-|--2--4--|
|--9999999----|--55555-|--2--4--|

Guitar2
|--77777777-9999--10101010-1212121212121212-141414141414-121212---|
|--xxxxxxxx-xxxx--xxxxxxxx-xxxxxxxxxxxxxxxx-xxxxxxxxxxxx-xxxxxx---|
|--44444444-6666--7-7-7-7--9-9-9-9-9-9-9-9--111111111111-9-9-9----|
|-----------------------------------------------------------------|
|-----------------------------------------------------------------|
|-----------------------------------------------------------------|

Bridge
Guitar1

|-----------|-----------|-----------|-----------|
|-----------|-----------|-----------|-----------|
|-----------|-----------|---7---7---|-----------|
|---2---2---|---5---5---|---0---0---|---8---8---|
|---2---2---|---5---5---|---0---0---|---8---8---|
|---2---2---|---5---5---|---0---0---|---8---8---|


Guitar2
|---------x-x-x-x--|---------x-x-x-x--|----------x-x-x-x-|--------x-x-x-x--|
|---------x-x-x-x--|---------x-x-x-x--|----------x-x-x-x-|--------x-x-x-x--|
|---------x-x-x-x--|---------x-x-x-x--|---7---7--x-x-x-x-|--------x-x-x-x--|
|---2---2-x-x-x-x--|---5---5-x-x-x-x--|---0---0--x-x-x-x-|--8---8-x-x-x-x--|
|---2---2-x-x-x-x--|---5---5-x-x-x-x--|---0---0--x-x-x-x-|--8---8-x-x-x-x--|
|---2---2-x-x-x-x--|---5---5-x-x-x-x--|---0---0----------|--8---8-x-x-x-x--|

Do Chorus-

Guitar1 & 2
|------------|--------------|
|------------|--------------|
|------------|--------------|
|--5-555555--|--2--2--2--2--|2x
|--5-555555--|--2--2--2--2--|
|--5-555555--|--2--2--2--2--|


|--------------------X---|
|--------------------X---|
|--------------------X---|
|--5-5555555-7777-8--X---|
|--5-5555555-7777-8--X---|
|--5-5555555-7777-8--X---|


OUTRO-

GUITAR1
|--------2~----|--------2~----|
|-------3~-----|-------3~-----|
|------4~------|------4~------|
|-----4~-------|-----4~-------|
|----2~--------|----2~--------|
|--------------|--------------|


Crushcrushcrush Live Tab by Paramore


Drop C#

INTRO-
GtrI 2x
|-------------------------------------------------------------------5-------|
|-6-5-6----6-5-6-----6-5-6----6-5-6----6-5-6----6-5-6-----6-5-6-------------|
|--------7--------7---------7--------7--------7--------7---------7-5---5-5--|
|---------------------------------------------------------------------------|
|---------------------------------------------------------------------------|
|---------------------------------------------------------------------------|
  * * *  * * * *  *  * * *  * * * *  * * * *  * * * *  *  * * *  *     * *
GtrII Palm mute
|---------------------------------------------------------------------------|
|---------------------------------------------------------------------------|
|---------------------------------------------------------------------------|
|---------------------------------------------------------------------------|
|-55555555-55555555-55555555-55555555--55555555-55555555-55555555-----------|
|---------------------------------------------------------------------------|
Verse-
GtrI 2x
|-------------------------------------------------------------------5-------|
|-6-5-6----6-5-6-----6-5-6----6-5-6----6-5-6----6-5-6-----6-5-6-------------|
|--------7--------7---------7--------7--------7--------7---------7-5---5-5--|
|---------------------------------------------------------------------------|
|---------------------------------------------------------------------------|
|---------------------------------------------------------------------------|
  * * *  * * * *  *  * * *  * * * *  * * * *  * * * *  *  * * *  *     * *

GtrII palm mute
|---------------------------------------------------------------------------|
|---------------------------------------------------------------------------|
|---------------------------------------------------------------------------|
|---------------------------------------------------------------------------|
|-55555555-88888888-33333333-55555555--55555555-88888888-33333333-----------|
|---------------------------------------------------------------------------|
 
Ref.1
GtrI
|-------------------------|-----------------------------------------|
|------10~----8~------6~--|-----10~----8~------6~---------10--8~----|
|---7~------5~------7~----|--7~------5~------7~--------7~-----5~----|
|-------------------------|-----------------------------------------|
|-------------------------|-----------------------------------------|
|-------------------------|-----------------------------------------|

|----------------------------------------------------------------|
|----------------------------------------------------------------|
|----------------------------------------------------------------|2x
|----------------------------------------------------------------|
|-1-1-1-1-1-1-1-1-3-3-3-3-3-3-3-3-5-5-5-5-5-5-5-5-5-5-5-5-3333---|
|----------------------------------------------------------------|
  * * * * * * * * * * * * * * * * * * * * * * * * * * * * ****

|----------------------------------------------------------------|
|----------------------------------------------------------------|
|----------------------------------------------------------------|2x
|----------------------------------------------------------------|
|-1-1-1-1-1-1-1-1-3-3-3-3-3-3-3-3-3-3-3-3-3----------------------|
|----------------------------------------------------------------|
  * * * * * * * * * * * * * * * * * * * * *


interlude1

Chorus
Gtr1
|--------------------|-----------------------|
|--------------------|-----------------------|
|--------------------|-----------------------|
|--00----33-----5~---|--88----00----5~-------|
|--00----33-----3~---|--88----00----3~-------|
|--00----33----------|--88----00-------------|

|--------------------|------------------------------|
|--------------------|------------------------------|
|--------------------|------------------------------|
|--00----33-----5~---|--88888888-1010101010---------|
|--00----33-----3~---|--88888888-1010101010-(break)-|
|--00----33----------|--88888888-1010101010---------|

Gtr2
|--------------------|-----------------------|
|--------------------|-----------------------|
|--77---1010----12~--|--1212---1010---12~----|
|--xx---x-x-----x----|--x-x----x-x----x------|
|--55---8-8-----10~--|--8-8----1212---10~----|
|--00-----------10~--|--8-8----0-0-----------|

|--------------------|------------------------------|
|--------------------|------------------------------|
|--77---1010--12~----|--1010101010101010-1212121212-|
|--xx---x-x---x------|--x-x-x-x-x-x-x-x--x-x-x-x-x--|
|--55---8-8---10~----|--8-8-8-8-8-8-8-8--1010101010-|
|--00---------10~----|--8-8-8-8-8-8-8-8--1010101010-|

interlude2
G1
|---------------------------------|-------------------------------------|
|-10-12-10------------------------|-10-12-10-----------------------15~--|
|---------12-10-9-10-9------------|---------12-10-9-10-9----------------|
|---------------------12-10-10-10-|----------------------12-10----------|
|---------------------------------|-------------------------------------|
|---------------------------------|-------------------------------------|

G2

|---------------------------------|-------------------------------------|
|---------------------------------|-------------------------------------|
|---------------------------------|-------------------------6666--------|
|-----0--0--0---10-10-10-10-10----|-0--0--0-----10-10-10----7777--------|
|-----0--0--0---10-10-10-10-10----|-0--0--0-----10-10-10----4444--------|
|-----0--0--0---10-10-10-10-10----|-0--0--0-----10-10-10----------------|

repeat verse,

ref1

GtrI & II
|-----1~----3~------5~----|--1~----3~------5~------------|
|-----1~----3~------6~----|--1~----3~------6~------------|
|-----3~----5~------7~----|--3~----5~------7~------------|
|-----3~----5~------7~----|--3~----5~------7~------------|
|-----1~----3~------5~----|--1~----3~------5~------------|
|-------------------------|------------------------------|


interlude1
G1
|----12-13-12--------13--12-----------------|
|------------13-----------------------------|
|---------------12--------------------------|
|-------------------------------------------|
|-------------------------------------------|
|-------------------------------------------|

G2
|-------------------------------------------|
|-------------------------------------------|
|-------------------------------------------|
|----88---888----877-77---------------------|
|----88---888----877-77-----(BREAK)---------|
|----88---888----877-77---------------------|


Do chorus-


Bridge.
GtrII
|----------------------------------------------------|
|----------------------------------------------------|
|----------------------------------------------------|
|--0---3---5---88/---0---3---5----88/----------------|4x
|--0---3---3---88/---0---3---3----88/----------------|
|--0---3-------88/---0---3--------88/----------------|

enters at pt3
GtrI
xxxx|-131313-121212-101010-101010101010-|
xxxx|-101010-101010-101010-101010101010-|3x
xxxx|-----------------------------------|
xxxx|-----------------------------------|
xxxx|-----------------------------------|
xxxx|-----------------------------------|



do Chorus-

Chorus2
Gtr1
|--------------------|-----------------------|
|--------------------|-----------------------|
|--------------------|----------------xx6666-|
|-000-333-5555555555-|-888-000-55555--xx7777-|
|-000-333-3333333333-|-888-000-33333--xx4444-|
|-000-333------------|-888-000---------------|

|--------------------|------------------------------|
|--------------------|------------------------------|
|--------------------|------------------------------|
|--00----33-----5~---|--88888888-1010101010---------|
|--00----33-----3~---|--88888888-1010101010---------|
|--00----33----------|--88888888-1010101010---------|

GtrII do chorus

Repeat chorus-

OUTRO-
Gtri

|-12^(13)-12~--12^(13)-12~----10-12~-12^(13)-12~--10-10~-------|
|--------------------------------------------------------------|
|--------------------------------------------------------------|
|--------------------------------------------------------------|
|--------------------------------------------------------------|
|--------------------------------------------------------------|

|--------------------------------------------------------------|
|---------------------------------10----10-13-15~-s------------|
|----------------------10-9-10-12----12------------------------|
|-8-7-8-7--12-10-12-10-----------------------------------------| 
|--------------------------------------------------------------|
|--------------------------------------------------------------| 

GtrII
|--------------------------------------------------------------|
|--------------------------------------------------------------|
|--77777777-66666666-55555555-44444444-3333333-55555666---7/---|
|--77777777-77777777-55555555-55555555-3333333-55555777---7/---|END
|--55555555-44444444-33333333-22222222-1111111-33333444---0/---|
|---------------------------------------------------------0/---|



Final Riot:Let the flames begin Live
Drop C#
Intro-
GtrI
|------------------------------------|------------------------------------|
|-8~(32x)-11~(16x)--13~(8x)--15~(8x)-|-8~(32x)-11~(16x)--13~(8x)--15~(8x)-|
|------------------------------------|------------------------------------|
|------------------------------------|------------------------------------|
|------------------------------------|------------------------------------|
|------------------------------------|------------------------------------|

GtrII
|------------------------------------------------------------------------|
|------------------------------------------------------------------------|
|-3-------7--------5----------3-------10-------8-------------------------|
|-x-(32x)-x-(16x)--x-(8x)-----x-(32x)-x-(32x)--x-(8x)--------------------|
|-1-------5--------3----------1-------8--------6-------------------------|
|------------------------------------------------------------------------|

Verse-
GtrII 2x
|----------------------------------------------------------|
|----------------------------------------------------------|
|-----7-----7----7-----7-----10------10-----10-----10------|
|--5-----5-----5----5-----8-------8------8------8----------|
|----------------------------------------------------------|
|-5-5---5-5---5-5--5-5---8-8-----8-8----8-8----8-8---------|

|----------------------------------------------------------|
|-----1-----3----1---------10--------11--------10----------|
|--1-----1-----1-------------------------------------------|
|----------------------10--------10--------10--------------|
|----------------------------------------------------------|
|-1-1---1-1---1-1----10--10----10--10----10--10------------|


then


GtrI

GtrII
|----------------------------------------------------------|
|----------------------------------------------------------|
|----------------------------------------------------------|
|-1-1-1-1-1-1-1-1-1-1-1-1-1-3-3-3-3-3-3-3-3----------------|
|-1-1-1-1-1-1-1-1-1-1-1-1-1-3-3-3-3-3-3-3-3----------------|
|-1-1-1-1-1-1-1-1-1-1-1-1-1-3-3-3-3-3-3-3-3----------------|

Chorus-

GtrI
|-------------------------------------------------------|
|-------------------------------------------------------|
|-----------33333333------------55555555----------------|
|-555555555-33333333-111111111--555555555---------------|3x
|-555555555-11111111-111111111--333333333---------------|
|-555555555----------111111111--------------------------|

GtrIi

ChemyVamp's
|-----------------------------------------------------|
|------------------------------10^(11)10--------------|
|--------------------10----(10)-----------------------|
|--12-13-12-10----10---(10)---------------------------|
|--------------13-------------------------------------|
|-----------------------------------------------------|

|-----------------------------------------------------|
|--------------------------------10^(11)10------------|
|--------------------10-------------------------------|
|--12-13-12-10----10----10-12-10----------------------|
|--------------13-------------------------------------|
|-----------------------------------------------------|


|--------------------------------------------------------|
|------------------------------10^(11)10---10-11--10-11--|
|--------------------10----(10)----------10--10-10--10---|
|--12-13-12-10----10---(10)------------------------------|
|--------------13----------------------------------------|
|--------------------------------------------------------|

Verse2

GtrI
|-10-------------------------------------------------------|
|------(4x)--11---(4x)----13---(4x)------------------------|
|---12---------12------------12----------------------------|
|----------------------------------------------------------|4x
|----------------------------------------------------------|
|----------------------------------------------------------|

GrtII
|-10---10---10-----10---10---10----8----8----8----8----8----8---|
|---8----8-----------8----8---------8----8---------8----8-------|
|----10---10---10-----10---10---10----10---10--10---10---10--10-|
|---------------------------------------------------------------|2x
|---------------------------------------------------------------|
|---------------------------------------------------------------|

|------6-(6)--------------|-------6-(6)----------------------|
|------------6------------|------------6------8--------------|
|-3/7------------7--5-----|-3/7------------7-----------------|
|-------------------------|----------------------------------|
|-------------------------|----------------------------------|
|-------------------------|----------------------------------|



Refrain-
Guitar1
|-------------------------------------------------------|
|-------------------------------------------------------|
|-----8~----------------10~-----------------------------|2x
|---8~-----------------10~------------------------------|
|-6~------------------8~--------------------------------|
|-------------------------------------------------------|

Guitar2-delay

|-------------------------------------------------------|
|-------------------------------------------------------|
|--10~----8~---7~---5~------7~--5~----------------------|
|-----------------------------------7~----8~------------|2x
|-------------------------------------------------------|
|-------------------------------------------------------|


Do Chorus-


Interlude-

GuitarII 4x
|-10----------------------------|  -----------|
|---8-----8---------------------|  -----------|
|------10----10-----------------|  -----------|
|----------------8--8p7h8-------|3x-7-8-s-10--|  
|-------------------------10----|  -----------|
|-------------------------------|  -----------|

GtrI enters
|----------------------------------------------------------------|
|-1515151515-^(16)(16)-1515151515-^(16)(16)-1515151515-11~-10~---|
|----------------------------------------------------------------|continuous
|----------------------------------------------------------------|
|----------------------------------------------------------------|
|----------------------------------------------------------------|


GtrI 

GtrIIDo chorus

GtrIdo chorus chords

GtrII Do chorus then
|-10----------------------------|  -----------|
|---8-----8---------------------|  -----------|
|------10----10-----------------|  -----------|
|----------------8--8p7h8-------|3x-7-8-s-10--|  continuous ,til interlude
|-------------------------10-10-|  -----------|
|-------------------------------|  -----------|


Interlude2-
3:43
GtrI-let rung (555xxx)
GtrII
|-10----------------------------|  -----------|
|---8-----8---------------------|  -----------|
|------10----10-----------------|  -----------|
|----------------8--8p7h8-------|3x-7-8-s-10--|  continuous 
|-------------------------10-10-|  -----------|
|-------------------------------|  -----------|



do this @ 4:19
|-10-----10----10-----10-----8-----8----8-----8--------|
|----8-----8------8-----8------8-----8----8-----8------|continuos
|------10----10-----10----10-----10---10----10----10---|
|------------------------------------------------------|
|------------------------------------------------------|
|------------------------------------------------------|
then
@ 4:07
GtrI
|----------------------------------------------------------------|
|-1515151515-^(16)(16)-1515151515-^(16)(16)-1515151515-11~-10~---|
|----------------------------------------------------------------|continuous
|----------------------------------------------------------------|
|----------------------------------------------------------------|
|----------------------------------------------------------------|



.........
then..oh..father???



@4:43
GtrI-pause..then do chorus Chords @ 4:56 then end with
end with G(dropped chord)
GtrII
|------------------------------------|
|-11----10---8---8---8---------------|
|-10-10-10-10--10--10----(c0ntinuous)|
|------------------------------------|
|------------------------------------|
|------------------------------------|



@5:16
|----1313131313-15151515-|
|------------------------|
|------------------------|
|------------------------|
|------------------------|
|------------------------|

When It Rains
TUNING - eb Bb Gb Db Ab Eb

Intro- 
1.Guitar1 - C#m 2x delay

2.Guitar1 - A C#m-E   A B-C#m  2X  E

Guitar2

|----------------14-----16---|-------------------------------|
|------17---17---------------|-------17---17-------12--------|
|-14/16--16---16-----16---16-|--14/16--16---16--14----14--13-|
|----------------------------|-------------------------------|2x
|----------------------------|-------------------------------|
|----------------------------|-------------------------------|


Verse-     
           C#m          
And when it rains,
                A          E       C#m       
On this side of town it touches, everything.

             A              E
Just say it again and mean it.
We don't miss a thing.

Refrain-  
|-00000000000000000000000000000000000000000000000000000000000000-|
|-77777777777777779999999999999999777777777777777799999999777777-|
|-99999999999999999999999999999999999999999999999999999999999999-|
|----------------------------------------------------------------|2x
|----------------------------------------------------------------|
|----------------------------------------------------------------|
F#m                                               E
You made yourself a bed at the bottom of the blackest hole (blackest hole)
 F#m                                                                E 
And convinced yourself that it's not the reason you don't see the sun anymore.


Chorus-
  A         C#m             E   
And oh, oh, how could you do it?
 A     B                C#m  
Oh I, I never saw it coming.
  A         C#m             E  
And oh, oh, I need the ending.
  A               B                C#m             E
So why can't you stay just long enough to explain?

Do Verse
And when it rains,
Will you always find an escape?
Just running away,

Do refrain
From all of the ones who love you, from everything.
You made yourself a bed at the bottom of the blackest hole (blackest hole)
And you'll sleep 'til May and you'll say that you don't wanna see the sun anymore.

Do Chorus-

And oh, oh, how could you do it?
Oh I, I never saw it coming.
And oh, oh, I need the ending.

So why can't you stay just long enough to explain?

Bridge-
|-----------------------------------------------------|
|-5----7~-----------5------7~---------5~--------------|
|-----------------------------------------------------|cont..
|-----------------------------------------------------|
|-----------------------------------------------------|
|-----------------------------------------------------|
 F#m  E    A
Take your time.
 F#m  E    A
Take my time.

   F#m                E              A      
Take these chances to turn it around. (take your time)
   F#m                E              A    
Take these chances, we'll make it somehow
   F#m                E              A 
And take these chances to turn it around. (take my...)
Just turn it around.

Bridge end-

|-9----|
|--9-10|
|------|
|------|
|------|
|------|

Do chorus 1x
Oh, how could you do it?
Oh I, I never saw it coming.

Do chorus 3x
Oh, oh, how could you do it?
Oh I, I never saw it coming.
Oh, oh, how could you do it?
Oh I, I never saw it coming.
Oh, oh I need an ending.
So why can't you stay just long enough to explain?

F#m              E
You can take your time,
A 
Take my time. 

GUITAR2 END

|-121212121212-16161616161616-|-0-0-0------|
|-----------------------------|-0-0-0------|
|-----------------------------|-2-2-2------|
|-----------------------------|-2-2-2------|
|-----------------------------|-0-0-0------|
|-----------------------------|------------|

Final Riot - my heart live

Drop C#

Intro-

|-7-----------7------------------------------------|
|-----9---9-------7---7----7h9--9---9---9---9------|
|---9---9---9----9--9---9---------9---9---9---9----|
|--------------------------------------------------|
|--------------------------------------------------|
|--------------------------------------------------|

|----------------7---------------7----7--7---7-7---|
|-9s12---9---9--------7---7------7-----------7-7---|
|------9---9---9----9---9------9----9---9--9--9----|
|-----------------------------------x--------------|
|--------------------------------------------------|
|--------------------------------------------------|


|--0~---|---0~--|--0~---|---0~--|--0~---|
|--0~---|---0~--|--0~---|---0~--|--0~---|
|--4~---|---9~--|--x----|---x---|--9~---|
|--2~---|---9~--|--13~--|---9~--|--9~---|
|--2~---|---7~--|--11~--|---6~--|--7~---|
|--2~---|---7~--|--11~--|---6~--|--7~---|

Verse-
|---0~------|----0~-----|----0~-----|
|---0~------|----0~-----|----0~-----|
|---x-------|----x------|----9~-----|
|---13~-----|---11~-----|----9~-----|6x
|---11~-----|----9~-----|----7~-----|
|---11~-----|----9~-----|----7~-----|


Chorus-
|--0~---|---0~--|--0~---|---0~--|--0~---|
|--0~---|---0~--|--0~---|---0~--|--0~---|
|--4~---|---9~--|--x----|---x---|--9~---|
|--2~---|---9~--|--13~--|---9~--|--9~---|2x
|--2~---|---7~--|--11~--|---6~--|--7~---|
|--2~---|---7~--|--11~--|---6~--|--7~---|

Verse-
|---0~------|----0~-----|----0~-----|
|---0~------|----0~-----|----0~-----|
|---x-------|----x------|----9~-----|
|---13~-----|---11~-----|----9~-----|6x
|---11~-----|----9~-----|----7~-----|
|---11~-----|----9~-----|----7~-----|

Chorus-
|--0~---|---0~--|--0~---|---0~--|--0~---|
|--0~---|---0~--|--0~---|---0~--|--0~---|
|--4~---|---9~--|--x----|---x---|--9~---|
|--2~---|---9~--|--13~--|---9~--|--9~---|2x
|--2~---|---7~--|--11~--|---6~--|--7~---|
|--2~---|---7~--|--11~--|---6~--|--7~---|

Bridge-
|---0~-----|----0~-----|----0~----|---0~-----|
|---0~-----|----0~-----|----0~----|---0~-----|
|---x------|----4~-----|----9~----|----x-----|continuous...
|---13~----|----4~-----|----9~----|---11~----|
|---11~----|----2~-----|----7~----|----9~----|
|---11~----|----2~-----|----7~----|----9~----|


|---0----------|
|---0----------|
|---0----------|
|---13---------|
|---11---------|
|---11---------|

|---0~------|----0~-----|----0~-----|
|---0~------|----0~-----|----0~-----|
|---x-------|----x------|----x------|
|---9~~-----|---13~-----|---11~-----|continuous til fade..
|---7~------|---11~-----|----9~-----|
|---7~------|---11~-----|----9~-----|




Paramore - Decoy (The Final Riot DVD)
Drop C#
Paramore - Decoy (The Final Riot DVD)
Intro-
GtrI
|------------------------|---------------------------------|
|------------------------|---------------------------------|
|-4--1111-66--66-88-66---|---4--1111-66--66-88-66----------|
|-6--9-9--44--44-66-44---|---6--9-9--44--44-66-44----------|2x
|-6--9-9--44--44-66-44---|---6--9-9--44--44-66-44----------|
|-6--9-9--44--44-66-44---|---6--9-9--44--44-66-44----------|

GtrII
|--------------------------|-------------------------------|
|--------------------------|-------------------------------|
|--------------------------|-8--1111-1111--1111-1313-1111--|
|--------------------------|-6-----------------------------|
|--------------------------|-6--9-9--9-9---9-9--1111-9-9---|
|--------------------------|-6-----------------------------|

|------------------------------|------------------------------|
|------------------------------|------------------------------|
|-8--1111-1111--1111-1313-1111-|-8--1111-1111--1111-1313-1111-|
|-6----------------------------|-6----------------------------|
|-6--9-9--9-9---9-9--1111-9-9--|-6--9-9--9-9---9-9--1111-9-9--|
|-6----------------------------|-6----------------------------|


Verse-
GtrI
|-------11~---11~-------9~----9~----|
|-----9~----9~-------9~-----9~------|
|--11~------------11~---------------|
|-----------------------------------|4x
|-----------------------------------|
|-----------------------------------|
GtrII
|----------------|------9---------|----------------|----------------|
|-0--7~--0-0-0~--|-0-7-----0-0-0~-|-0-0-7~--0-0-0~-|-0--7~--0-0-0~--|
|-8--8~--3-4-1~--|-8-8-8---3-4-1~-|-8-9-8~--3-4-1~-|-8--8~--3-4-1~--|
|----------------|----------------|----------------|----------------|
|----------------|----------------|----------------|----------------|
|----------------|----------------|----------------|----------------|

Refrain-

|----2~---0~--0~----0~-----|
|----2~---0~--0~----0~-----|
|---------3~--4~----1~-----|
|-1~-----------------------|
|--------------------------|
|--------------------------|

Chorus-
Gtrs
|-----------------------------------------------------------------|
|-----------------------------------------------------------------|
|-8-8-8-8-8-8-8-8-8-8-8-8-8-8-8-8-4-4-4-4-4-4-4-4-6-6-6-6-6-6-6-6-|
|-6-6-6-6-6-6-6-6-6-6-6-6-6-6-6-6-2-2-2-2-2-2-2-2-4-4-4-4-4-4-4-4-|2x
|-6-6-6-6-6-6-6-6-6-6-6-6-6-6-6-6-2-2-2-2-2-2-2-2-4-4-4-4-4-4-4-4-|
|-6-6-6-6-6-6-6-6-6-6-6-6-6-6-6-6-2-2-2-2-2-2-2-2-4-4-4-4-4-4-4-4-|



GtrI
|-----------------------------|----------------------------|
|-----------------------------|----------------------------|
|-xxxx-4--1111-66--66-88-66---|---4--1111-66--66-88-66-----|
|-xxxx-6--9-9--44--44-66-44---|---6--9-9--44--44-66-44-----|2x
|-xxxx-6--9-9--44--44-66-44---|---6--9-9--44--44-66-44-----|
|-xxxx-6--9-9--44--44-66-44---|---6--9-9--44--44-66-44-----|

|------------------------------|------------------------------|
|------------------------------|------------------------------|
|-8--1111-1111--1111-1313-1111-|-8--1111-1111--1111-1313-1111-|
|-6----------------------------|-6----------------------------|
|-6--9-9--9-9---9-9--1111-9-9--|-6--9-9--9-9---9-9--1111-9-9--|
|-6----------------------------|-6----------------------------|

Bridge-
|-11-----11------11--------11-----11------11-------|
|---12-----12----------------12-----12-------------|
|--------------------------------------------------|
|------14-----14-----14--------14-----14-----------|
|--------------------------------------------------|
|--------------------------------------------------|

|--------------------------------------|
|-------12-----12---12--12-11----------|
|----11------11---11----------11-------|
|-13-------13--------------------11----|
|--------------------------------------|
|--------------------------------------|


|-11-----11------11--------11-----11------11-------|
|---12-----12----------------12-----12-------------|
|--------------------------------------------------|
|------14-----14-----14--------14-----14-----------|
|--------------------------------------------------|
|--------------------------------------------------|

|-------------------------------|
|-------12-----12---12---11~----|
|----11------11---11-----11~----|
|-13-------13------------11~----|
|-------------------------------|
|-------------------------------|

Do Chorus

Outro-
GtrI
|------------------------|---------------------------------|
|------------------------|---------------------------------|
|-4--1111-66--66-88-66---|---4--1111-66--66-88-66----------|
|-6--9-9--44--44-66-44---|---6--9-9--44--44-66-44----------|2x
|-6--9-9--44--44-66-44---|---6--9-9--44--44-66-44----------|
|-6--9-9--44--44-66-44---|---6--9-9--44--44-66-44----------|

GtrII
|------------------------|---------------------------------|
|------------------------|---------------------------------|
|------------------------|---------------------------------|
|-6~---------------------|-6~------------------------------|
|-6~---------------------|-6~------------------------------|
|-6~---------------------|-6~------------------------------|



GtrI
|------------------------|---------------------------------|
|------------------------|---------------------------------|
|-4--1111-66--66-88-66---|---4--1111-66--66-88-66----------|
|-6--9-9--44--44-66-44---|---6--9-9--44--44-66-44----------|2x
|-6--9-9--44--44-66-44---|---6--9-9--44--44-66-44----------|
|-6--9-9--44--44-66-44---|---6--9-9--44--44-66-44----------|

GtrII
|----------------------------------------------------------|
|----------------------------------------------------------|
|-11111111111111111111111111--1111111111111111111111111111-|
|----------------------------------------------------------|2x
|-9-9-9-9-9-9-9-9-9-9-9-9-9---9-9-9-9-9-9-9-9-9-9-9-9-9-9--|
|----------------------------------------------------------|


GtrI
end with dropd E Chord
GtrII
|----------------------------------------------------------|
|----------------------------------------------------------|
|-11~------9~-------8~-------------4~----------------------|
|---------------------------------2~-----------------------|
|-9~-------7~-------6~-----------2~------------------------|
|-------------------------------2~-------------------------|


Pressure
Tuning Drop C#

 Pressure Tab by Paramore, www.Ultimate-Guitar.Com

Send "Pressure" to Cell Phone

-------------------------------------------------------------------------------
                             Pressure - Paramore
-------------------------------------------------------------------------------
Tabbed by: mnbz
Email: who_lies@hotmail.com

Tuning:DADGBE

Guitar 2   Distortion all the way
========
Intro  (00:00) 
E|-------------------------------------|
B|-------------------------------------|
G|-777777-777777-777777-777777---------|
D|-777777-777777-777777-777777---------| x2
A|-999999-000000-555555-000000---------|
D|-999999-000000-555555-000000---------|

Verse   (00:12)
e|---------------------------------------|
B|---------------------------------------|
G|---------------------------------------|
D|-999---9/555---5/---000---0\---444—4\--|
A|-999---9/555---5/---000---0\---444—4\--| X2
D|-999---9/555---5/---000---0\---444—4\--|
   ...     ...        ...        ...

Pre Chorus   (00:24)
e|---------------------------------------|
B|---------------------------------------|
G|---------------------------------------|
D|-9-9-9-9/-5-5-5-5/-0-0-0-0\-4-4-4-4\---| X2
A|-9-9-9-9/-5-5-5-5/-0-0-0-0\-4-4-4-4\---|
D|-9-9-9-9/-5-5-5-5/-0-0-0-0\-4-4-4-4\---|

Chorus     (00:36)
e|--------------------------------------------------------------|
B|--------------------------------------------------------------|
G|--------------------------11b12r11----------------------------|
D|-777777777777777777777777--x--x--x-77777777777777777777777777-| X2
A|-555555000000444444555555—-9b10r-9-55555500000044444455555555-|
D|-555555000000444444555555----------55555500000044444455555555-|
                         ..
Verse     (00:59)
e|---------------------------------------|
B|---------------------------------------|
G|---------------------------------------|
D|-999---9/555---5/---000---0\---444—4\--|
A|-999---9/555---5/---000---0\---444—4\--| 
D|-999---9/555---5/---000---0\---444—4\--|
   ...     ...        ...        ...

Pre Chorus    (01:11)
e|---------------------------------------|
B|---------------------------------------|
G|---------------------------------------|
D|-9-9-9-9/-5-5-5-5/-0-0-0-0\-4-4-4-4\---| X2
A|-9-9-9-9/-5-5-5-5/-0-0-0-0\-4-4-4-4\---|
D|-9-9-9-9/-5-5-5-5/-0-0-0-0\-4-4-4-4\---|








Chorus     (01:23)
e|--------------------------------------------------------------|
B|--------------------------------------------------------------|
G|--------------------------11b12r11----------------------------|
D|-777777777777777777777777--x--x--x-77777777777777777777777777-| X2
A|-555555000000444444555555—-9b10r-9-55555500000044444455555555-|
D|-555555000000444444555555----------55555500000044444455555555-|
                         ..

Interlude  (01:47)
E|-----------------------------|
B|-----------------------------|
G|-777777-777777-777777-777777-|
D|-777777-777777-777777-777777-|
A|-999999-000000-999999-000000-|
D|-999999-000000-999999-000000-|

|-------------------------------------|
|-------------------------------------|
|-777777-777777-777777-777777---------|
|-777777-777777-777777-777777---------| x2
|-999999-000000-555555-000000---------|
|-999999-000000-555555-000000---------|

Bridge   (02:04)
e|---------------------------------------|
B|---------------------------------------|
G|---------------------------------------|
D|-9-9-9-9/-5-5-5-5/-0-0-0-0\-4-4-4-4\---| X2
A|-9-9-9-9/-5-5-5-5/-0-0-0-0\-4-4-4-4\---|
D|-9-9-9-9/-5-5-5-5/-0-0-0-0\-4-4-4-4\---|

Chorus    (02:31)
e|-------------------------------------------------------|
B|----------------------------------------------------B--|
G|----------------------------------------------------R--|
D|-77777777777777777777777777777777777777777777777777-E--|
A|-55555500000044444455555555555555000000444444555555-A--|
D|-55555500000044444455555555555555000000444444555555-K--|

 (02:43)                                   End on
e|-----------------------------------|    |------|
B|-----------------------------------|    |------|
G|--------------------------11b12r11-|    |------|
D|-777777777777777777777777--x--x--x-| X2 |---7~-| 
A|-555555000000444444555555—-9b10r-9-|    |---0~-|
D|-555555000000444444555555----------|    |---0~-|
                         ..

Guitar 1    Distortion all the way except for bridge
========

Intro   (00:00)
e|------------------------------------------------------------------|
B|------------------------------------------------------------------|
G|-11--11-11/9-9-9\-14--14-14/11-11-11—-11-11-11\9-9-9-6-6-6\7-7-7--|
D|--x---x--x-x-x-x---x---x--x--x--x--x—--x--x--x-x-x-x-x-x-x-x-x-x--| X2
A|--9---9—-9/7-7-7\-12--12-12/-9--9--9---9—-9--9\7-7-7-4-4-4\5-5-5--|
D|------------------------------------------------------------------|

Verse   (00:24)
e|---------------------------------------|
B|---------------------------------------|
G|---------------------------------------|
D|-999---9/555---5/---000---0\---444—4\--|
A|-999---9/555---5/---000---0\---444—4\--| X2
D|-999---9/555---5/---000---0\---444—4\--|
   ...     ...        ...        ...




Pre Chorus   (00:36)
e|-------------------------------------------5--|
B|-7-7-7-7-7-5-5-5-5-5--5-5-5-5-5—-5-5----------|
G|-7-7-7-7-7-7-7-7-7-7—-7-7-7-7-7—-6-6—6h7-7----|
D|----------------------------------------------| X2
A|----------------------------------------------|
D|----------------------------------------------|

Chorus    (00:59)
E|----------17----------------17----------------17----------------14b15r14---
B|----15-------15-------15-------15----15----14----14-------15---------------
G|-16----16-------16-14----14-------14----14----------14-16----16------------
D|---------------------------------------------------------------------------
A|---------------------------------------------------------------------------
E|---------------------------------------------------------------------------

----------17----------------17----------------17----------------17----------|
----15-------15-------15-------15----15----14----14-------15-------15----15-|
-16----16-------16-14----14-------14----14----------14-16----16-------16----|
----------------------------------------------------------------------------| X2
----------------------------------------------------------------------------|
----------------------------------------------------------------------------|

Verse   (01:11)
e|---------------------------------------|
B|---------------------------------------|
G|---------------------------------------|
D|-999---9/555---5/---000---0\---444—4\--|
A|-999---9/555---5/---000---0\---444—4\--| X2
D|-999---9/555---5/---000---0\---444—4\--|
   ...     ...        ...        ...

Pre Chorus    (01:23)
e|-------------------------------------------5--|
B|-7-7-7-7-7-5-5-5-5-5--5-5-5-5-5—-5-5----------|
G|-7-7-7-7-7-7-7-7-7-7—-7-7-7-7-7—-6-6—6h7-7----|
D|----------------------------------------------| X2
A|----------------------------------------------|
D|----------------------------------------------|

Chorus    (01:47)
E|----------17----------------17----------------17----------------14b15r14---
B|----15-------15-------15-------15----15----14----14-------15---------------
G|-16----16-------16-14----14-------14----14----------14-16----16------------
D|---------------------------------------------------------------------------
A|---------------------------------------------------------------------------
E|---------------------------------------------------------------------------

----------17----------------17----------------17----------------17----------|
----15-------15-------15-------15----15----14----14-------15-------15----15-|
-16----16-------16-14----14-------14----14----------14-16----16-------16----|
----------------------------------------------------------------------------| X2
----------------------------------------------------------------------------|
----------------------------------------------------------------------------|

Interlude    (01:53)
e|------------------------------------------------------------------|
B|------------------------------------------------------------------|
G|-11--11-11/9-9-9\-14--14-14/11-11-11—-11-11-11\9-9-9-6-6-6\7-7-7--|
D|--x---x--x-x-x-x---x---x--x--x--x--x—--x--x--x-x-x-x-x-x-x-x-x-x--| X2
A|--9---9—-9/7-7-7\-12--12-12/-9--9--9---9—-9--9\7-7-7-4-4-4\5-5-5--|
D|------------------------------------------------------------------|




Bridge    (02:04)
e|--------9----------------9-----------------9----------------9---------|
B|---10-----10---10---10-----10---10----10-----10---10---10-----10---10-|
G|------7------7---------7------7----------7------7---------7------7----|
D|-9----------------9-----------------0---------------------------------| X4
A|-----------------------------------------------------9----------------|
E|----------------------------------------------------------------------|

|--------9----------------9----------|
|---10-----10---10---10-----10---10--|
|------7------7---------7------7-----|
|-9----------------9-----------------|
|------------------------------------|
|------------------------------------|

Chorus   (02:31)
e|----------17----------------17----------------17----------------17----------
b|----15-------15-------15-------15----15----14----14-------15-------15----15-
g|-16----16-------16-14----14-------14----14----------14-16----16-------16----
D|---------------------------------------------------------------------------- 
A|----------------------------------------------------------------------------
D|----------------------------------------------------------------------------

----------17----------------17----------------17----------------17--B----
----15-------15-------15-------15----15----14----14-------15--------R----
-16----16-------16-14----14-------14----14----------14-16----16-----E----
--------------------------------------------------------------------A---- 
--------------------------------------------------------------------K----
-------------------------------------------------------------------------

(02:43)                                                                   End on
----------17----------------17----------------17----------------14b15r14-|------|
----15-------15-------15-------15----15----14----14-------15-------------|-15~--|
-16----16-------16-14----14-------14----14----------14-16----16----------|------|
-------------------------------------------------------------------------|------|
-------------------------------------------------------------------------|------|
-------------------------------------------------------------------------|------|

I’m pretty sure bout this. . . . 99.9% sure…!


| /  slide up
| \  slide down
| h  hammer on
| b  bend note
| r  release
| ~  let it ring
| .  palm Mute 
===============================================================================

For A Pessimist Im Preety Optimistic Live Tab by Paramore
Tabbed by : Doobidoo    Votes : 0 / 0   
Guitar 1 - { eb bb gb db Ab Db )

Guitar 2 - { eb bb gb db Ab Db )


Intro 2x

Guitar1
|------------------------------------------|
|------------------------------------------|
|--555555----------------------------------|
|--555555---555555---222222---000000-------|
|--333333---555555---222222---000000-------|
|-----------555555---222222---000000-------|

|--------------------------------|
|--------------------------------|
|--555555------------------------|
|--555555---555555---000000000---|
|--333333---555555---000000000---|
|-----------555555---000000000---|

Guitar2
|-------------------------------|-------------------------|
|-------------------------------|-------------------------|
|--13-13/16-16-16-16------------|--12-12-/11-11-11-11-----|
|--x--x--x--x--x--x-------------|--x---x--x--x--x---x-----|
|--15-15/14-14-14-14------------|--10-10-/9--9--9---9-----|
|-------------------------------|-------------------------|

|----------------------|-----------------------|
|----------------------|-----------------------|
|--13-13/16-16-16-16---|--19-19-19-19-19-19----|
|--x--x--x--x--x--x----|--x--x--x--x--x--x-----|
|--15-15/14-14-14-14---|--17-17-17-17-17-17----|
|----------------------|-----------------------|

Verse-
G1
G2
|--------------|------------------|
|--------------|------------------|
|---7----------|--5555555555555---|
|---5~---------|--5555555555555---|
|---5~---------|--3333333333333---|
|---5~---------|------------------|



Verse2

Guitar1
|--------------------------------|-----|---------------|--------|
|--------------------------------|-----|---------------|--------|
|--------------------------------|-----|---------------|--------|
|-55-555-555-555-577-777-777-777-|-2-2-|---------------|--0~-0~-|
|-55-555-555-555-577-777-777-777-|-2-2-|---------------|--0~-0~-|
|-55-555-555-555-577-777-777-777-|-2-2-|---------------|--0~-0~-|
Guitar2
|--------------------------------|-----|---------------|--------|
|--------------------------------|-----|-5555/88888888-|--------|
|-77-777-777-777-799-999-999-999-|-4-4-|-4444/7777777--|--2~-2~-|
|-55-555-555-555-577-777-777-777-|-2-2-|---------------|--0~-0~-|
|-55-555-555-555-577-777-777-777-|-2-2-|---------------|--0~-0~-|
|-55-555-555-555-577-777-777-777-|-2-2-|---------------|--0~-0~-|


Refrain-
Not sure if this part
GtrI

1.
|------12*-|
|---12*----|
|----------|
|----------|
|----------|
|----------|

|-----7*---|
|--7*------|
|----------|w/ harmonics
|----------|
|----------|
|----------|
GtrII
|--------------|--------------|
|--------------|--------------|
|--------------|--------------|
|--------------|--------------|
|-7--9--10--0~-|--2-4-5-7-----|
|-7--9--10--0~-|--2-4-5-7-----|


Chorus-

Guitar1
|-----------------------------------------|-------------------------------|
|-----------------------------------------|-------------------------------|
|-999-11-11-11-11-11-12-12-12-12-12-12----|---999--12121212-141414141414--|
|-xxx-x--x--x--x--x---x--x--x--x--x-x-----|---xxx--x-x-x-x--x-x-x-x-x-x---|
|-777-9--9--9--9--9--10-10-10-10-10-10----|---777--14141414-121212121212--|
|-----------------------------------------|-------------------------------|

|----------------------------------------|----------------------------------|-------|
|----------------------------------------|----------------------------------|-------|
|-999-11-11-11-11-11-12-12-12-12-12-12---|---999-12121212-12-12-12-12-12-12-|-7-7-7-|
|-xxx-x--x--x--x--x---x--x--x--x--x-x----|---xxx-x-x-x-x--x--x---x--x-x--x--|-x-x-x-|
|-777-9--9--9--9--9--10-10-10-10-10-10---|---777-9-9-9-9--10-10-10-10-10-10-|-5-5-5-|
|----------------------------------------|----------------------------------|-------|

GtrII
|-----------------|------------------------|
|-----------------|------------------------|
|-555-------------|-555--------------------|
|-555-0000-222222-|-555-0000-777777--------|
|-333-0000-222222-|-333-0000-777777--------|
|-----0000-222222-|-----0000-777777--------|

|-----------------|------------------------|
|-----------------|------------------------|
|-555-------------|-555--------------------|
|-555-0000-222222-|-555-0000-555555--0-0-0-|
|-333-0000-222222-|-333-0000-555555--0-0-0-|
|-----0000-222222-|-----0000-555555--0-0-0-|

Continued..

Guitar1

|------------------------------------------|
|------------------------------------------|
|--555555----------------------------------|
|--555555---555555---222222---000000-------|
|--333333---555555---222222---000000-------|
|-----------555555---222222---000000-------|

|--------------------------------|
|--------------------------------|
|--555555------------------------|
|--555555---555555---000000000---|
|--333333---555555---000000000---|
|-----------555555---000000000---|

Guitar2
|-------------------------------|-------------------------|
|-------------------------------|-------------------------|
|--13-13/16-16-16-16------------|--12-12-/11-11-11-11-----|
|--x--x--x--x--x--x-------------|--x---x--x--x--x---x-----|
|--15-15/14-14-14-14------------|--10-10-/9--9--9---9-----|
|-------------------------------|-------------------------|

|----------------------|-----------------------|
|----------------------|-----------------------|
|--13-13/16-16-16-16---|--19-19-19-19-19-19----|
|--x--x--x--x--x--x----|--x--x--x--x--x--x-----|
|--15-15/14-14-14-14---|--17-17-17-17-17-17----|
|----------------------|-----------------------|

Repeat verse 1&2,

refrain2.

|--------------|---------------------------------|
|--------------|---------------------------------|
|--------------|---------------------------------|
|--------------|--22222222-44444444-555555-7-----|
|--------------|--22222222-44444444-555555-7-----|
|-7--9--10--0~-|--22222222-44444444-555555-7-----|
                  ******** ******** ******
,chorus


Bridge-P.M.
Guitar1
|---------------------------------------------|
|---------------------------------------------|
|---------------------------------------------|
|-22222222-4444-5555-10101010-9999-7777-44444-|
|-22222222-4444-5555-10101010-9999-7777-44444-|
|-22222222-4444-5555-10101010-9999-7777-44444-|

|----------------------------------------------|
|----------------------------------------------|
|----------------------------------------------|
|-2222-4444-5555-7777-10101010-9999-7777-4444--|
|-2222-4444-5555-7777-10101010-9999-7777-4444--|
|-2222-4444-5555-7777-10101010-9999-7777-4444--|

GtrII
|----------------7~---------------------------|
|-----------------8~--------------------------|
|-9~---------------9~-------------------------|
|---------------------------------------------|
|---------------------------------------------|
|---------------------------------------------|

Continued-



Guitar1

|----------------------------------------------|  ----------|
|----------------------------------------------|  ----------|
|----------------------------------------------|2x----------|
|-2~---4~---5~---7~---10~------9~---7~---4~----|  ----5~----|
|-2~---4~---5~---7~---10~------9~---7~---4~----|  ----5~----|
|-2~---4~---5~---7~---10~------9~---7~---4~----|  ----5~----|


Guitar2

|----------------------------------|---------------------------------|
|-12-----12-----12-----12-----12---|-8----8-----8--------------------| 
|---12-9---12-9---12-9---12-9------|---5----7-5----5-4-2-4-2~--------|
|----------------------------------|---------------------------------| 
|----------------------------------|---------------------------------|
|----------------------------------|---------------------------------|


|----------------------------------|---------------------------------|
|-12-----12-----12-----12-----12---|-8----8------8-------------------| 
|---12-9---12-9---12-9---12-9------|---7-5----7-5----5-4-2-4-2---4~--|
|----------------------------------|---------------------------------| 
|----------------------------------|---------------------------------|
|----------------------------------|---------------------------------|


Outro-

Guitar1
|------------------------------------------|
|------------------------------------------|
|--555555----------------------------------|
|--555555---555555---222222---000000-------|
|--333333---555555---222222---000000-------|
|-----------555555---222222---000000-------|

|--------------------------------|
|--------------------------------|
|--555555------------------------|
|--555555---555555---000000000---|
|--333333---555555---000000000---|
|-----------555555---000000000---|

Guitar2
|-------------------------------|-------------------------|
|-------------------------------|-------------------------|
|--13-13/16-16-16-16------------|--12-12-/11-11-11-11-----|
|--x--x--x--x--x--x-------------|--x---x--x--x--x---x-----|
|--15-15/14-14-14-14------------|--10-10-/9--9--9---9-----|
|-------------------------------|-------------------------|

|----------------------|-----------------------|
|----------------------|-----------------------|
|--13-13/16-16-16-16---|--19-19-19-19-19-19----|
|--x--x--x--x--x--x----|--x--x--x--x--x--x-----|
|--15-15/14-14-14-14---|--17-17-17-17-17-17----|
|----------------------|-----------------------|

Continued...

Guitar1

|----------------------------------------|----------------------------------|
|----------------------------------------|----------------------------------|
|-999-11-11-11-11-11-12-12-12-12-12-12---|---999-12121212-12-12-12-12-12-12-|
|-xxx-x--x--x--x--x---x--x--x--x--x-x----|---xxx-x-x-x-x--x--x---x--x-x--x--|
|-777-9--9--9--9--9--10-10-10-10-10-10---|---777-9-9-9-9--10-10-10-10-10-10-|
|----------------------------------------|----------------------------------|


|-----------------------------------------|-------------------------------|
|-----------------------------------------|-------------------------------|
|-999-11-11-11-11-11-12-12-12-12-12-12----|---999--12121212-141414141414--|
|-xxx-x--x--x--x--x---x--x--x--x--x-x-----|---xxx--x-x-x-x--x-x-x-x-x-x---|
|-777-9--9--9--9--9--10-10-10-10-10-10----|---777--14141414-121212121212--|
|-----------------------------------------|-------------------------------|

|----------------------------------------|----------------------------------|
|----------------------------------------|----------------------------------|
|-999-11-11-11-11-11-12-12-12-12-12-12---|---999-12121212-12-12-12-12-12-12-|
|-xxx-x--x--x--x--x---x--x--x--x--x-x----|---xxx-x-x-x-x--x--x---x--x-x--x--|
|-777-9--9--9--9--9--10-10-10-10-10-10---|---777-9-9-9-9--10-10-10-10-10-10-|
|----------------------------------------|----------------------------------|

GtrII

|-----------------|------------------|
|-----------------|------------------|
|-555-------------|-555--------------|
|-555-0000-222222-|-555-0000-555555--|
|-333-0000-222222-|-333-0000-555555--|
|-----0000-222222-|-----0000-555555--|


|-----------------|------------------------|
|-----------------|------------------------|
|-555-------------|-555--------------------|
|-555-0000-222222-|-555-0000-777777--------|
|-333-0000-222222-|-333-0000-777777--------|
|-----0000-222222-|-----0000-777777--------|


|-----------------|------------------|
|-----------------|------------------|
|-555-------------|-555--------------|
|-555-0000-222222-|-555-0000-555555--|
|-333-0000-222222-|-333-0000-555555--|
|-----0000-222222-|-----0000-555555--|

Continued..



End

G1

|----------|------------|
|----------|------------|
|---9~-----|---11~------|
|---x------|---x--------|
|---7~-----|---9~-------|
|----------|------------|


G2

|----------|------------|
|----------|------------|
|----------|------------|
|---2~-----|----4~------|
|---2~-----|----4~------|
|---2~-----|----4~------|




Final Riot We are Broken Live
Standard 
Intro- C C/B Em G
|--------------------------------------------|
|-8---8---7---7---10--10----7----7-----------|
|---7---7---7---7----7---7-----7----7--------|
|--------------------------------------------|4x
|--------------------------------------------|
|--------------------------------------------|

Verse- C C/B Em G 4x
|--------------------------------------------|
|-8---8---7---7---10--10----7----7-----------|
|---7---7---7---7----7---7-----7----7--------|
|--------------------------------------------|4x
|--------------------------------------------|
|--------------------------------------------|

Refrain
 C C/B D 2x
|--------------------------------------------|
|-8---8---7---7---10--10----10---10----------|
|---7---7---7---7----7---7-----7----7--------|
|--------------------------------------------|2x
|--------------------------------------------|
|--------------------------------------------|

Chorus-Em G D 2x
       C Am C Am G

Do verse 

Bridge-
C D  Em G do 'til fade
|--------------------------------------------|
|-8~----10~----12~-----15~-------13~-12~-----|
|--------------------------------------------|
|--------------------------------------------|
|--------------------------------------------|
|--------------------------------------------|



Final riot Emegency

tuning - Drop C#
Intro-
1.piano
2.
|--------10~------9~-----------|-------------10~------9~-------------|
|------------------------------|------------------------9~-----------|
|--11~-------------------------|------11~----------------------------|
|------------------------------|-------------------------------------|2x
|--9---------------------------|------9------------------------------|
|------------------------------|-------------------------------------|


|------------------------------|-------------------------------------|
|------------------------------|-------------------------------------|
|------------------------------|-------------------------------------|2x
|-4~---------------------------|--4~---------------------------------|
|-4~---------------------------|--4~---------------------------------|
|-4~---------------------------|--4~---------------------------------|


3.
GtrI
|---------9-----9-----9--------|--------7-----7-----7 ---------------|
|----7------7-----7-----7---7--|-----7-----7-----7-----7----7--------|
|--9---9-----9-----9------9----|---9---9-----9-----9------9----------|
|------------------------------|-------------------------------------|
|------------------------------|-------------------------------------|
|------------------------------|-------------------------------------|

4..
GtrI
|------------------------------|-------------------------------------|
|-9/10-101010--10-10-10-10/999-|---9/10-101010--10-10-10-10/999------|
|-9/11-111111--11-11-11-11/999-|---9/11-111111--11-11-11-11/999------|
|-x-x--x-x-x---x--x--x--x--xxx-|---x-x--x-x-x---x--x--x--x--xxx------|
|-7/9--9-9-9---9--9--9--9/-777-|---7/9--9-9-9---9--9--9--9/-777------|
|------------------------------|-------------------------------------|
GtrII
|------------------------------|-------------------------------------|
|------------------------------|-------------------------------------|
|------------------------------|-------------------------------------|
|-2/4--444---4--4--4--4---222--|----2/4--444---4--4--4--4---222------|
|-2/4--444---4--4--4--4---222--|----2/4--444---4--4--4--4---222------|
|-2/4--444---4--4--4--4---222--|----2/4--444---4--4--4--4---222------|

Verse-
this is an emergency.........
GtrI
|---------9-----9-----9--------|--------7-----7-----7 ---------------|
|----7------7-----7-----7---7--|-----7-----7-----7-----7----7--------|
|--9---9-----9-----9------9----|---9---9-----9-----9------9----------|
|------------------------------|-------------------------------------|
|------------------------------|-------------------------------------|
|------------------------------|-------------------------------------|
GtrII
|------------------------------|-------------------------------------|
|------------------------------|-------------------------------------|
|------------------------------|-------------------------------------|
|-0~---------------------------|-0~----------------------------------|
|-0~---------------------------|-0~----------------------------------|
|-0~---------------------------|-0~----------------------------------|

2.
if you....
GtrI
|------------------------------|-------------------------------------|
|-9/10-101010--10-10-10-10/999-|---9/10-101010--10-10-10-10/999------|
|-9/11-111111--11-11-11-11/999-|---9/11-111111--11-11-11-11/999------|
|-x-x--x-x-x---x--x--x--x--xxx-|---x-x--x-x-x---x--x--x--x--xxx------|
|-7/9--9-9-9---9--9--9--9/-777-|---7/9--9-9-9---9--9--9--9/-777------|
|------------------------------|-------------------------------------|
GtrII
|------------------------------|-------------------------------------|
|------------------------------|-------------------------------------|
|------------------------------|-------------------------------------|
|-2/4--444---4--4--4--4---222--|----2/4--444---4--4--4--4---222------|
|-2/4--444---4--4--4--4---222--|----2/4--444---4--4--4--4---222------|
|-2/4--444---4--4--4--4---222--|----2/4--444---4--4--4--4---222------|

Do verse2x

Refrain-
1.
GtrI
|-0-----0-----0-----0-----0----|------0----0-----0-----0-----0-------|
|---0-----0-----0-----0-----0--|---0----0----0-----0-----0-----0-----|
|-----4-----4----4------4----4-|-2--------2----2-----2-----2---------|
|------------------------------|-------------------------------------|
|------------------------------|-------------------------------------|
|------------------------------|-------------------------------------|


GtrII
|--00000~----------------------|--00000~--------------------------|
|--00000~----------------------|--00000~--------------------------|
|--44444-----------------------|--66666~--------------------------|
|--22222~----------------------|--44444~--------------------------|
|--22222~----------------------|--44444~--------------------------|
|--22222-----------------------|--44444---------------------------|

2.
GtrI
|-----0-------0----0-------0---0---|----------------------------------|
|---0---0---0--0-0---0---0---0---0-|----------------------------------|
|-2-------2-----2------2-------2---|--4444-6666-----------------------|
|----------------------------------|--xxxx-xxxx-----------------------|
|----------------------------------|--2222-4444-----------------------|
|----------------------------------|----------------------------------|
GtrII
|-00000~---------------------------|------------------------------------|
|-00000~---------------------------|------------------------------------|
|-22222~---------------------------|-4444-6666--------------------------|
|-00000~---------------------------|-xxxx-xxxx--------------------------|
|-00000~---------------------------|-2222-4444--------------------------|
|-00000----------------------------|------------------------------------|

Chorus-
1.
GtrI

|-----------------------|   --------------------|
|-10--10---9----9-------|   ----12---12--12--12-|
|---9---9---9----9------|   ----9----9---9---9--|
|-----------------------|3x --------------------|
|-----------------------|   --------------------| 
|-----------------------|   --------------------|


|-----------------------|   --------------------|
|-10--10---9----9-------|   --12---12--12--12---|
|---9---9---9----9------|   ----9----9---9---9--|
|-----------------------|3x --------------------|
|-----------------------|   --------------------| 
|-----------------------|   --------------------|
GtrII
|--------------------------------|----------------------------------|
|--------------------------------|----------------------------------|
|--------------------------------|----------------------------------|
|-9999999-0000000-4444444-777777-|--9999999-0000000-4444444-2222222-|
|-9999999-0000000-4444444-777777-|--9999999-0000000-4444444-2222222-|
|-9999999-0000000-4444444-777777-|--9999999-0000000-4444444-2222222-|


2.


GtrI

|-----------------------|   --------------------|
|-10--10---9----9-------|   ----12---12--12--12-|
|---9---9---9----9------|   ----9----9---9---9--|
|-----------------------|3x --------------------|
|-----------------------|   --------------------| 
|-----------------------|   --------------------|


|-----------------------|   --------------------|
|-10--10---9----9-------|   ----12---12--12--12-|
|---9---9---9----9------|   ----9----9---9---9--|
|-----------------------|3x --------------------|
|-----------------------|   --------------------| 
|-----------------------|   --------------------|

GtrII
|--------------------------------|----------------------------------|
|--------------------------------|----------------------------------|
|--------------------------------|----------------------------------|
|-9999999-0000000-4444444-777777-|--9999999-0000000-4444444-2222222-|
|-9999999-0000000-4444444-777777-|--9999999-0000000-4444444-2222222-|
|-9999999-0000000-4444444-777777-|--9999999-0000000-4444444-2222222-|

post-chorus-

do intro3
GtrI
&
GtrII
|------------------------------|
|------------------------------|
|------------------------------|
|-0--0--0--0--0--0--0--0-------|
|-0--0--0--0--0--0--0--0-------|
|-0--0--0--0--0--0--0--0-------|


verse-


GtrI
|------------------------------|-------------------------------------|
|-9/10-101010--10-10-10-10/999-|---9/10-101010--10-10-10-10/999------|
|-9/11-111111--11-11-11-11/999-|---9/11-111111--11-11-11-11/999------|
|-x-x--x-x-x---x--x--x--x--xxx-|---x-x--x-x-x---x--x--x--x--xxx------|
|-7/9--9-9-9---9--9--9--9/-777-|---7/9--9-9-9---9--9--9--9/-777------|
|------------------------------|-------------------------------------|
GtrII
|------------------------------|-------------------------------------|
|------------------------------|-------------------------------------|
|------------------------------|-------------------------------------|
|-2/4--444---4--4--4--4---222--|----2/4--444---4--4--4--4---222------|
|-2/4--444---4--4--4--4---222--|----2/4--444---4--4--4--4---222------|
|-2/4--444---4--4--4--4---222--|----2/4--444---4--4--4--4---222------|


i said we have an emergency
GtrI
&
GtrII
|------------------------------|
|------------------------------|
|------------------------------|
|-0--0--0--0--0--0--0--0-------|
|-0--0--0--0--0--0--0--0-------|
|-0--0--0--0--0--0--0--0-------|



do verse-

do refrain 

repeat chorus-

refrain

solo-


|-------------------|------------------|-----------9-------|------9--------|
|---------9-10-9----|--------9-10-9----|-10-10/12----12----|-10/12--10-9~--|
|-------9--------9~-|-------9-------9~-|----------------9~-|---------------|
|-7-7/9-------------|-7-7/9------------|-------------------|---------------|
|-------------------|------------------|-------------------|---------------|
|-------------------|------------------|-------------------|---------------|

|-------------------|-----------------------|-17-16-------17-16------------|
|---------9-10-9----|-10-10/12--14-17-------|-------17----------17---------|
|-------9--------9~-|-----------------14-14-|---------18~---------16-14-13~|
|-7-7/9-------------|-----------------------|------------------------------|
|-------------------|-----------------------|------------------------------|
|-------------------|-----------------------|------------------------------|



GtrII
|-----------------------------------------------------------|
|-----------------------------------------------------------|
|--------------------4/6---------9/11----------9/11---------|
|--222222-2-4-444444-x-x-000000~-x-x---000000~-x-x----------|2x
|--222222-2-4-444444-2/4-000000~-7/9---000000~-7/9----------|
|--222222-2-4-444444-----000000~-------000000~--------------|


then
GtrI
|-0-----0-----0-----0-----0----|------0----0-----0-----0-----0-------|
|---0-----0-----0-----0-----0--|---0----0----0-----0-----0-----0-----|
|-----4-----4----4------4----4-|-2--------2----2-----2-----2---------|
|------------------------------|-------------------------------------|
|------------------------------|-------------------------------------|
|------------------------------|-------------------------------------|


GtrII
|-----------------------------------------------------------|
|-----------------------------------------------------------|
|-----------------------------------------------------------|
|-2~-----------------4~-------------------------------------|
|-2~-----------------4~-------------------------------------|
|-2~-----------------4~-------------------------------------|

then- 

GtrI
|---------9-----9-----9--------|--------7-----7-----7 ---------------|
|----7------7-----7-----7---7--|-----7-----7-----7-----7----7--------|
|--9---9-----9-----9------9----|---9---9-----9-----9------9----------|
|-0----------------------------|-------------------------------------|
|-0----------------------------|-------------------------------------|
|-0----------------------------|-------------------------------------|





Repeat Chorus-

Chorus-
1.


GtrI
|--------------------------------|----------------------------------|
|--------------------------------|----------------------------------|
|--------------------------------|----------------------------------|
|-9999999-0000000-4444444-777777-|--9999999-0000000-4444444-2222222-|
|-9999999-0000000-4444444-777777-|--9999999-0000000-4444444-2222222-|
|-9999999-0000000-4444444-777777-|--9999999-0000000-4444444-2222222-|



GtrII
|--------------------------------|----------------------------------|
|--------------------------------|----------------------------------|
|--------------------------------|----------------------------------|
|-9999999-0000000-4444444-777777-|--9999999-0000000-4444444-2222222-|
|-9999999-0000000-4444444-777777-|--9999999-0000000-4444444-2222222-|
|-9999999-0000000-4444444-777777-|--9999999-0000000-4444444-2222222-|



2.

GtrI

&
GtrII
|--------------------------------|----------------------------------|
|--------------------------------|----------------------------------|
|--------------------------------|----------------------------------|
|-9999999-0000000-4444444-777777-|--9999999-0000000-4444444-2222222-|
|-9999999-0000000-4444444-777777-|--9999999-0000000-4444444-2222222-|
|-9999999-0000000-4444444-777777-|--9999999-0000000-4444444-2222222-|


Outro-
GtrI
&
GtrII
|---------------------------------------------------------------------------|
|---------------------------------------------------------------------------|
|------------------------------------------------------------------------4~-|
|--0-----0------0------0------0-------0-------0-------0-------0----------4~-|
|--0-----0------0------0------0-------0-------0-------0-------0----------4~-|
|--0-----0------0------0------0-------0-------0-------0-------0----------4~-|

Hallelujah by rockett97

Intro

d#|---------------------------------------------------------------------------------|
a#|-------12------------9------------12------------9------9--9-----9------11--------|
f#|-------11------------8------------11------------8-9----9----9----9-----11--11----|
c#|-----9-------------6------------9-------------6-----6--9-9----9----9---11-----11-|
g#|---9-------------6------------9-------------6------------------------------------| 
C#|-9--------9-8--6-------6-8--9--------9-8--6--------------------------------------|   
                                                                                       
d#|---------------------------------------------------------------------------------|  
a#|-------12------11-----11---------------------------------------------------------| 
f#|----------11---11-11-----11------------------------------------------------------|
c#|-----9-------9-11----11-----11---------------------------------------------------|
g#|---9-----------------------------------------------------------------------------|
C#|-9-------------------------------------------------------------------------------|

d#|---------------------------------------------------------------------------------|
a#|-------12------------9------------12------------9------9--9-----9------11--------|
f#|-------11------------8------------11------------8-9----9----9----9-----11--11----|
c#|-----9-------------6------------9-------------6-----6--9-9----9----9---11-----11-|
g#|---9-------------6------------9-------------6------------------------------------| 
C#|-9----------8--6---------8--9----------8--6--------------------------------------|   
                                                                                         
d#|---------------------------------------------------------------------------------|  
a#|-------12------11-----11---------------------------------------------------------| 
f#|----------11---11-11-----11------------------------------------------------------|
c#|-----9-------9-11----11-----11---------------------------------------------------|
g#|---9-----------------------------------------------------------------------------|
C#|-9-------------------------------------------------------------------------------|

d#|---------------------------------------------------------------------------------|
a#|-------12------------9------------12------------9------9--9-----9------11--------|
f#|-------11------------8------------11------------8-9----9----9----9-----11--11----|
c#|-----9-------------6------------9-------------6-----6--9-9----9----9---11-----11-|
g#|---9-------------6------------9-------------6------------------------------------| 
C#|-9--------9-8--6-------6-8--9--------9-8--6--------------------------------------|   
                                                                                       
d#|---------------------------------------------------------------------------------|  
a#|-------12------11-----11---------------------------------------------------------| 
f#|----------11---11-11-----11------------------------------------------------------|
c#|-----9-------9-11----11-----11---------------------------------------------------|
g#|---9-----------------------------------------------------------------------------|
C#|-9-------------------------------------------------------------------------------|

d#|---------------------------------------------------------------------------------|
a#|-----9--9--11---12---12--------------9-------------------------------------------|
f#|-----9--9--11---11------11---------9---9-----------------------------------------|
c#|-----9--9--11---13-13------13----9-------9---------------------------------------|
g#|-7-7----7--9----11/-----------/7-------------------------------------------------|
C#|---------------------------------------------------------------------------------|

d#|---------------------------------------------------------------------------------|
a#|---------11------------------11------------------12-----------------12-----------|
f#|------11----11------------12----12------------13----13-----------13----13--------|
c#|---11----------11------12----------12------13----------13-----13----------13-----|
g#|-9------------------10------------------11-----------------11--------------------|
C#|---------------------------------------------------------------------------------|

d#|---------------------------------------------------------------------------------|
a#|-------9------------9------------------------------------------------------------|
f#|-----9---9--------9---9----------8-------------8---------------------------------|
c#|---9-------9----9-------9------6---6---------6---6-------------------------------|
g#|-7------------7--------------6-------6-----6-------6-----------------------------|
C#|---------------------------6-------------6---------------------------------------|



d#|---------------------------------------------------------------------------------|
a#|--------12---------------11-----------12-----------------------------------------|
f#|-----------11---------11----11--------11-----------------------------------------|
c#|-----9--------9----11----------11-----9------------------------------------------|
g#|---9-------------9--------------------9------------------------------------------|
C#|-9------------------------------------9------------------------------------------|

Then the actual song begins:

(also) Intro

d#|-7--7--7--9--9--9--11--11--11--14--14--14--14--14--14--14------------------------|
a#|-0--0--0--0--0--0--0---0---0---0---0---11--11--11--11--11------------------------|(x6)
f#|---------------------------------------------------------------------------------|  
c#|---------------------------------------------------------------------------------| 
g#|---------------------------------------------------------------------------------|  
C#|---------------------------------------------------------------------------------|

Verse 1

d#|-9----6-6-6---8--8--8----9--9--9----6-6-6---8--8--8------------------------------|
a#|-x----x-x-x---x--x--x----x--x--x----x-x-x---x--x--x-----------------------------|
f#|-11---8-8-8---10-10-10---11-11-11---8-8-8---10-10-10-----------------------------|
c#|-11---8-8-8---10-10-10---11-11-11---8-8-8---10-10-10-----------------------------|
g#|-9----6-6-6---8--8--8----9--9--11---6-6-6---8--8--8------------------------------|
C#|---------------------------------------------------------------------------------|


d#|---------------------------------------------------------------------------------|
a#|-------------------------12-12-11-11-11------------------------------------------|
f#|-----------8-8-9-9-11-11-----------------------------8-8-9-9-8-8-------8-8-8-----|
c#|-9-9-11-11------------------------------9-9-9-11-11-------------11-11------------|
g#|---------------------------------------------------------------------------------|
C#|---------------------------------------------------------------------------------|


d#|---------------------------------------------------------------------------------|
a#|---------------------------12-12-11-11-11----------------------------------------|
f#|-------------8-8-9-9-11-11-----------------------------8-8-9-9-8-8---------------|
c#|-9-9-9-11-11------------------------------9-9-9-11-11--------------11(let ring)--|
g#|---------------------------------------------------------------------------------|
C#|---------------------------------------------------------------------------------|

Chorus

d#|-7--7--7--9--9--9--11--11--11--14--14--14--14--14--14--14------------------------|
a#|-0--0--0--0--0--0--0---0---0---0---0---11--11--11--11--11------------------------|(x6)
f#|---------------------------------------------------------------------------------|  
c#|---------------------------------------------------------------------------------| 
g#|---------------------------------------------------------------------------------|  
C#|---------------------------------------------------------------------------------|


d#|-----11-----9-----11-----7(let ring)---------11-----9-----11-----7(let ring)-----|
a#|---------------------------------------------------------------------------------|
f#|-8-9----8-9---8-9----8-9-----------------8-9----8-9---8-9----8-9-----------------|
c#|---------------------------------------------------------------------------------|
g#|---------------------------------------------------------------------------------|
C#|---------------------------------------------------------------------------------|

Verse 2

d#|-9----6-6-6---8--8--8----9--9--9----6-6-6---8--8--8------------------------------|
a#|-x----x-x-x---x--x--x----x--x--x----x-x-x---x--x--x-----------------------------|
f#|-11---8-8-8---10-10-10---11-11-11---8-8-8---10-10-10-----------------------------|
c#|-11---8-8-8---10-10-10---11-11-11---8-8-8---10-10-10-----------------------------|
g#|-9----6-6-6---8--8--8----9--9--11---6-6-6---8--8--8------------------------------|
C#|---------------------------------------------------------------------------------|

d#|---------------------------------------------------------------------------------|
a#|-------------------------12-12-11-11-11------------------------------------------|
f#|-----------8-8-9-9-11-11-----------------------------8-8-9-9-8-8-------8-8-8-----|
c#|-9-9-11-11------------------------------9-9-9-11-11-------------11-11------------|
g#|---------------------------------------------------------------------------------|
C#|---------------------------------------------------------------------------------|

d#|---------------------------------------------------14(let ring)--------------- --|
a#|---------------------------12-12-11-11-11-11-12-12-------------------------------|
f#|-------------8-8-9-9-11-11-------------------------------------------------------|
c#|-9-9-9-11-11---------------------------------------------------------------------|
g#|---------------------------------------------------------------------------------|
C#|---------------------------------------------------------------------------------|

d#|-7--7--7--9--9--9--11--11--11--14--14--14--14--14--14--14------------------------|
a#|-0--0--0--0--0--0--0---0---0---0---0---11--11--11--11--11------------------------| 
f#|---------------------------------------------------------------------------------|  
c#|---------------------------------------------------------------------------------| 
g#|---------------------------------------------------------------------------------|  
C#|---------------------------------------------------------------------------------|

d#|-------14-------14-------14(let ring)--------------------------------------------|
a#|-11/12----11/12----11/12---------------------------------------------------------|
f#|---------------------------------------------------------------------------------|
c#|---------------------------------------------------------------------------------|
g#|---------------------------------------------------------------------------------|
C#|---------------------------------------------------------------------------------|

Chorus

d#|-7--7--7--9--9--9--11--11--11--14--14--14--14--14--14--14------------------------|
a#|-0--0--0--0--0--0--0---0---0---0---0---11--11--11--11--11------------------------| (x4)
f#|---------------------------------------------------------------------------------|  
c#|---------------------------------------------------------------------------------| 
g#|---------------------------------------------------------------------------------|  
C#|---------------------------------------------------------------------------------|

d#|-----11-----9-----11-----7(let ring)---------11-----9-----11-----7(let ring)-----|
a#|---------------------------------------------------------------------------------|
f#|-8-9----8-9---8-9----8-9-----------------8-9----8-9---8-9----8-9-----------------|
c#|---------------------------------------------------------------------------------|
g#|---------------------------------------------------------------------------------|
C#|---------------------------------------------------------------------------------|

Bridge
(Comes in when rhythm guitar has already started playing the bridge)

d#|---------------------------------------------------------------------------------|
a#|---------------------------------------------------------------------------------|
f#|-16--16--16--16/18-18-18-15-15---16--16--16--16-16-16-16-15-15-15----------------|
c#|---------------------------------------------------------------------------------|
g#|-14--14--14--14/16-16-16-13-13---14--14--14--14-14-14-14-13-13-13----------------|
C#|---------------------------------------------------------------------------------|

d#|---------------------------------------------------------------------------------|
a#|---------------------------------------------------------------------------------|
f#|-16-16-16-15-15-15-6-6-6-6-6-6-6-6--16-16-16-15-15-15--9--9--9--9--9--9--9--9----|
c#|---------------------------------------------------------------------------------|
g#|-14-14-14-13-13-13-8-8-8-8-8-8-8-8--14-14-14-13-13-13--11-11-11-11-11-11-11-11---|
C#|---------------------------------------------------------------------------------|

d#|---------------------------------------------------------------------------------|
a#|---------------------------------------------------------------------------------|
f#|-16-16-16-15-15-15-6-6-6-6-6-6-6-6--16-16-16-15-15-15--9--9--9--9--9--9--9--9----|
c#|---------------------------------------------------------------------------------|
g#|-14-14-14-13-13-13-8-8-8-8-8-8-8-8--14-14-14-13-13-13--11-11-11-11-11-11-11-11---|
C#|---------------------------------------------------------------------------------|


d#|-------------------------7-/-9-/-11-/-12-/-11/-----------------------------------|
a#|-/7--7-7-7-7-5-5-5-5-7-4---------------------------------------------------------|
f#|---------------------------------------------------------------------------------|
c#|---------------------------------------------------------------------------------|
g#|---------------------------------------------------------------------------------|
C#|---------------------------------------------------------------------------------|

d#|-7--7--7--9--9--9--11--11--11--14--14--14--14--14--14--14------------------------|
a#|-0--0--0--0--0--0--0---0---0---0---0---11--11--11--11--11------------------------| (x4)
f#|---------------------------------------------------------------------------------|  
c#|---------------------------------------------------------------------------------| 
g#|---------------------------------------------------------------------------------|  
C#|---------------------------------------------------------------------------------|

d#|-----11-----9-----11-----7(let ring)---------11-----9-----11-----7(let ring)-----|
a#|---------------------------------------------------------------------------------|
f#|-8-9----8-9---8-9----8-9-----------------8-9----8-9---8-9----8-9-----------------|
c#|---------------------------------------------------------------------------------|
g#|---------------------------------------------------------------------------------|
C#|---------------------------------------------------------------------------------|


d#|--9--9----9----------------------------------------------------------------------|
a#|--x--x----x---------------------------------------------------------------------|
f#|--11-11---11--(let ring)---------------------------------------- ----------------|
c#|--11-11---11---------------------------------------------------------------------|
g#|--9--9----9----------------------------------------------------------------------|
C#|---------------------------------------------------------------------------------|


Final riot Emegency

tuning - Drop C#
Intro-
1.piano
2.
|--------10~------9~-----------|-------------10~------9~-------------|
|------------------------------|-------------------------------------|
|--11~-------------------------|------11~----------------------------|
|------------------------------|-------------------------------------|2x
|--9---------------------------|------9------------------------------|
|------------------------------|-------------------------------------|


|------------------------------|-------------------------------------|
|------------------------------|-------------------------------------|
|------------------------------|-------------------------------------|2x
|-4~---------------------------|--4~---------------------------------|
|-4~---------------------------|--4~---------------------------------|
|-4~---------------------------|--4~---------------------------------|


3.
GtrI
|---------9-----9-----9--------|--------7-----7-----7 ---------------|
|----7------7-----7-----7---7--|-----7-----7-----7-----7----7--------|
|--9---9-----9-----9------9----|---9---9-----9-----9------9----------|
|------------------------------|-------------------------------------|2x
|------------------------------|-------------------------------------|
|------------------------------|-------------------------------------|

4..
GtrI
|------------------------------|-------------------------------------|
|-9/10-101010--10-10-10-10/999-|---9/10-101010--10-10-10-10/999------|
|-9/11-111111--11-11-11-11/999-|---9/11-111111--11-11-11-11/999------|
|-x-x--x-x-x---x--x--x--x--xxx-|---x-x--x-x-x---x--x--x--x--xxx------|


|-7/9--9-9-9---9--9--9--9/-777-|---7/9--9-9-9---9--9--9--9/-777------|
|------------------------------|-------------------------------------|
GtrII
|------------------------------|-------------------------------------|
|------------------------------|-------------------------------------|
|------------------------------|-------------------------------------|
|-2/4--444---4--4--4--4---222--|----2/4--444---4--4--4--4---222------|
|-2/4--444---4--4--4--4---222--|----2/4--444---4--4--4--4---222------|
|-2/4--444---4--4--4--4---222--|----2/4--444---4--4--4--4---222------|

Verse-
this is an emergency.........
GtrI
|---------9-----9-----9--------|--------7-----7-----7 ---------------|
|----7------7-----7-----7---7--|-----7-----7-----7-----7----7--------|
|--9---9-----9-----9------9----|---9---9-----9-----9------9----------|
|------------------------------|-------------------------------------|
|------------------------------|-------------------------------------|
|------------------------------|-------------------------------------|
GtrII
|------------------------------|-------------------------------------|
|------------------------------|-------------------------------------|
|------------------------------|-------------------------------------|
|-0~---------------------------|-0~----------------------------------|
|-0~---------------------------|-0~----------------------------------|
|-0~---------------------------|-0~----------------------------------|

2.
if you....
GtrI
|------------------------------|-------------------------------------|
|-9/10-101010--10-10-10-10/999-|---9/10-101010--10-10-10-10/999------|
|-9/11-111111--11-11-11-11/999-|---9/11-111111--11-11-11-11/999------|
|-x-x--x-x-x---x--x--x--x--xxx-|---x-x--x-x-x---x--x--x--x--xxx------|
|-7/9--9-9-9---9--9--9--9/-777-|---7/9--9-9-9---9--9--9--9/-777------|
|------------------------------|-------------------------------------|
GtrII
|------------------------------|-------------------------------------|
|------------------------------|-------------------------------------|
|------------------------------|-------------------------------------|
|-2/4--444---4--4--4--4---222--|----2/4--444---4--4--4--4---222------|
|-2/4--444---4--4--4--4---222--|----2/4--444---4--4--4--4---222------|
|-2/4--444---4--4--4--4---222--|----2/4--444---4--4--4--4---222------|

Do verse2x

Refrain-
1.
GtrI
|-0-----0-----0-----0-----0----|------0----0-----0-----0-----0-------|
|---0-----0-----0-----0-----0--|---0----0----0-----0-----0-----0-----|
|-----4-----4----4------4----4-|-2--------2----2-----2-----2---------|
|------------------------------|-------------------------------------|
|------------------------------|-------------------------------------|
|------------------------------|-------------------------------------|


GtrII
|--00000~----------------------|--00000~--------------------------|
|--00000~----------------------|--00000~--------------------------|
|--44444-----------------------|--66666~--------------------------|
|--22222~----------------------|--44444~--------------------------|
|--22222~----------------------|--44444~--------------------------|
|--22222-----------------------|--44444---------------------------|

2.
GtrI
|-----0-------0----0-------0---0---|----------------------------------|
|---0---0---0--0-0---0---0---0---0-|----------------------------------|
|-2-------2-----2------2-------2---|----------------------------------|
|----------------------------------|----------------------------------|
|----------------------------------|----------------------------------|
|----------------------------------|----------------------------------|
GtrII
|-00000~---------------------------|------------------------------------|
|-00000~---------------------------|------------------------------------|
|-22222~---------------------------|-4444-6666--------------------------|
|-00000~---------------------------|-xxxx-xxxx--------------------------|
|-00000~---------------------------|-2222-4444--------------------------|
|-00000----------------------------|------------------------------------|

Chorus-
1.
GtrI
|---12--12---12---12--12--12---12---12--|   ---12~---|
|-10--10---9----9----10--10---9----9----|   ---------|
|---------------------------------------|   ---------|
|---------------------------------------|2x ---------|
|---------------------------------------|   ---------| 
|---------------------------------------|   ---------|

|---12--12---12---12--12--12---12---12--|   -7----7---7---7-----|
|-10--10---9----9----10--10---9----9----|   --------------------|
|---------------------------------------|   ----9----9---9---9--|
|---------------------------------------|2x --------------------|
|---------------------------------------|   --------------------| 
|---------------------------------------|   --------------------|

GtrII
|--------------------------------|----------------------------------|
|--------------------------------|----------------------------------|
|--------------------------------|----------------------------------|
|-9999999-0000000-4444444-777777-|--9999999-0000000-4444444-2222222-|
|-9999999-0000000-4444444-777777-|--9999999-0000000-4444444-2222222-|
|-9999999-0000000-4444444-777777-|--9999999-0000000-4444444-2222222-|


2.


GtrI
|---12--12---12---12--12--12---12---12--|   ---12~---|
|-10--10---9----9----10--10---9----9----|   ---------|
|---------------------------------------|   ---------|
|---------------------------------------|2x ---------|
|---------------------------------------|   ---------| 
|---------------------------------------|   ---------|

|---12--12---12---12--12--12---12---12--|   -9----9---9---7-----|
|-10--10---9----9----10--10---9----9----|   ------------------9-|
|---------------------------------------|   ----9----9---9---9--|
|---------------------------------------|2x --------------------|
|---------------------------------------|   --------------------| 
|---------------------------------------|   --------------------|

GtrII
|--------------------------------|----------------------------------|
|--------------------------------|----------------------------------|
|--------------------------------|----------------------------------|
|-9999999-0000000-4444444-777777-|--9999999-0000000-4444444-2222222-|
|-9999999-0000000-4444444-777777-|--9999999-0000000-4444444-2222222-|
|-9999999-0000000-4444444-777777-|--9999999-0000000-4444444-2222222-|

post-chorus-

do intro3
GtrI
&
GtrII
|------------------------------|
|------------------------------|
|------------------------------|
|-0--0--0--0--0--0--0--0-------|
|-0--0--0--0--0--0--0--0-------|
|-0--0--0--0--0--0--0--0-------|


verse-


GtrI
|------------------------------|-------------------------------------|
|-9/10-101010--10-10-10-10/999-|---9/10-101010--10-10-10-10/999------|
|-9/11-111111--11-11-11-11/999-|---9/11-111111--11-11-11-11/999------|
|-x-x--x-x-x---x--x--x--x--xxx-|---x-x--x-x-x---x--x--x--x--xxx------|
|-7/9--9-9-9---9--9--9--9/-777-|---7/9--9-9-9---9--9--9--9/-777------|
|------------------------------|-------------------------------------|
GtrII
|------------------------------|-------------------------------------|
|------------------------------|-------------------------------------|
|------------------------------|-------------------------------------|
|-2/4--444---4--4--4--4---222--|----2/4--444---4--4--4--4---222------|
|-2/4--444---4--4--4--4---222--|----2/4--444---4--4--4--4---222------|
|-2/4--444---4--4--4--4---222--|----2/4--444---4--4--4--4---222------|


i said we have an emergency
GtrI
&
GtrII
|------------------------------|
|------------------------------|
|------------------------------|
|-0--0--0--0--0--0--0--0-------|
|-0--0--0--0--0--0--0--0-------|
|-0--0--0--0--0--0--0--0-------|



do verse-

do refrain 

repeat chorus-

refrain

solo-


|-------------------|------------------|-----------9-------|------9--------|
|---------9-10-9----|--------9-10-9----|-10-10/12----12----|-10/12--10-9~--|
|-------9--------9~-|-------9-------9~-|----------------9~-|---------------|
|-7-7/9-------------|-7-7/9------------|-------------------|---------------|
|-------------------|------------------|-------------------|---------------|
|-------------------|------------------|-------------------|---------------|

|-------------------|-----------------------|-17-16-------17-16-----------|
|---------9-10-9----|-10-10/12--14-17-------|-------17----------17--------|
|-------9--------9~-|-----------------14-14-|---------16~---------16-14-13|
|-7-7/9-------------|-----------------------|-----------------------------|
|-------------------|-----------------------|-----------------------------|
|-------------------|-----------------------|-----------------------------|



GtrII
|-----------------------------------------------------------|
|-----------------------------------------------------------|
|--------------------4/6---------9/11----------9/11---------|
|--222222-2-4-444444-x-x-000000~-x-x---000000~-x-x----------|2x
|--222222-2-4-444444-2/4-000000~-7/9---000000~-7/9----------|
|--222222-2-4-444444-----000000~-------000000~--------------|



GtrI
|-0-----0-----0-----0-----0----|------0----0-----0-----0-----0-------|
|---0-----0-----0-----0-----0--|---0----0----0-----0-----0-----0-----|
|-----4-----4----4------4----4-|-2--------2----2-----2-----2---------|
|------------------------------|-------------------------------------|
|------------------------------|-------------------------------------|
|------------------------------|-------------------------------------|


GtrII
|-----------------------------------------------------------|
|-----------------------------------------------------------|
|-----------------------------------------------------------|
|-2~-----------------4~-------------------------------------|
|-2~-----------------4~-------------------------------------|
|-2~-----------------4~-------------------------------------|

then- 

GtrI
|---------9-----9-----9--------|--------7-----7-----7 ---------------|
|----7------7-----7-----7---7--|-----7-----7-----7-----7----7--------|
|--9---9-----9-----9------9----|---9---9-----9-----9------9----------|
|-0----------------------------|-------------------------------------|
|-0----------------------------|-------------------------------------|
|-0----------------------------|-------------------------------------|





Repeat Chorus-

Chorus-
1.


GtrI
|--------------------------------|----------------------------------|
|--------------------------------|----------------------------------|
|--------------------------------|----------------------------------|
|-9999999-0000000-4444444-777777-|--9999999-0000000-4444444-2222222-|
|-9999999-0000000-4444444-777777-|--9999999-0000000-4444444-2222222-|
|-9999999-0000000-4444444-777777-|--9999999-0000000-4444444-2222222-|



GtrII
|--------------------------------|----------------------------------|
|--------------------------------|----------------------------------|
|--------------------------------|----------------------------------|
|-9999999-0000000-4444444-777777-|--9999999-0000000-4444444-2222222-|
|-9999999-0000000-4444444-777777-|--9999999-0000000-4444444-2222222-|
|-9999999-0000000-4444444-777777-|--9999999-0000000-4444444-2222222-|



2.

GtrI

&
GtrII
|--------------------------------|----------------------------------|
|--------------------------------|----------------------------------|
|--------------------------------|----------------------------------|
|-9999999-0000000-4444444-777777-|--9999999-0000000-4444444-2222222-|
|-9999999-0000000-4444444-777777-|--9999999-0000000-4444444-2222222-|
|-9999999-0000000-4444444-777777-|--9999999-0000000-4444444-2222222-|


Outro-
GtrI
|---------9-----9-----9--------|--------7-----7-----7 ---------------|--12~-|
|----7------7-----7-----7---7--|-----7-----7-----7-----7----7--------|--12~-|
|--9---9-----9-----9------9----|---9---9-----9-----9------9----------|--14~-|
|------------------------------|-------------------------------------|--12~-|
|------------------------------|-------------------------------------|------|
|------------------------------|-------------------------------------|------|
GtrII
|---------------------------------------------------------------------------|
|---------------------------------------------------------------------------|
|------------------------------------------------------------------------4~-|
|--0-----0------0------0------0-------0-------0-------0-------0----------4~-|
|--0-----0------0------0------0-------0-------0-------0-------0----------4~-|
|--0-----0------0------0------0-------0-------0-------0-------0----------4~-|


Misery business

Guitar1- {eb bb gb db Ab Db}
Guitar2- {eb bb gb db Ab Db}

IntroI
GtrI
|-----------------|-----------------|-----------------|-----------------|
|-----------------|-----------------|-----------------|-----------------|
|-----------------|-----------------|-----------------|-----------------|
|-4-4---4---------|-2-2---2-2-2---2-|-4-4---4---------|-0-0---0-0-0--0--|
|-4-4---4-2-4-2-4-|-2-2---2-2-2---2-|-4-4---4-2-4-2-4-|-0-0---0-0-0--0--|
|-4-4---4---------|-2-2---2-2-2---2-|-4-4---4---------|-0-0---0-0-0--0--|
  * *   * * * * *   * *   * * * * *   * *   * * * *     * *   * * *  *
 *   * * * 
|-----------------|-----------------|-----------------|-----------------|
|-----------------|-----------------|-----------------|-----------------|
|-----------------|-----------------|-----------------|-----------------|
|-4-4---4---------|-2-2---2-2-2---2-|-4-4---4---------|-9-9-9-9-9-9-9-9-|
|-4-4---4-2-4-2-4-|-2-2---2-2-2---2-|-4-4---4-2-4-2-4-|-7-7-7-7-7-7-7-7-|
|-4-4---4---------|-2-2---2-2-2---2-|-4-4---4---------|-7-7-7-7-6-6-6-6-|
  * *   * * * * *   * *   * * * * *   * *   * * * *     * * * * * * * *


|-----------------|-----------------|-----------------|-----------------|
|-----------------|-----------------|-----------------|-----------------|
|-----------------|-----------------|-----------------|-----------------|
|-4-4---4---------|-2-2---2-2-2---2-|-4-4---4---------|-0-0---0-0-0--0--|
|-4-4---4-2-4-2-4-|-2-2---2-2-2---2-|-4-4---4-2-4-2-4-|-0-0---0-0-0--0--|
|-4-4---4---------|-2-2---2-2-2---2-|-4-4---4---------|-0-0---0-0-0--0--|
  * *   * * * * *   * *   * * * * *   * *   * * * *     * *   * * *  *
 *   * * * 
|-----------------|-----------------|-----------------|---|
|-----------------|-----------------|-----------------|---|
|-----------------|-----------------|-----------------|---|
|-4-4---4---------|-2-2---2-2-2---2-|-4-4---4---------|-4-|
|-4-4---4-2-4-2-4-|-2-2---2-2-2---2-|-4-4---4-2-4-2-4-|-4-|
|-4-4---4---------|-2-2---2-2-2---2-|-4-4---4---------|-4-|
  * *   * * * * *   * *   * * * * *   * *   * * * *      
GtrII 2x
|-------------------------|-------------------------|
|-------------------------|-------------------------|
|-------------------------|-------------------------|
|--------------9-11--9-11-|-------------------------|
|-12-12----12-------------|-11-11----11-11-11----11-|
|-------------------------|-------------------------|
      
|-------------------------|-------------------------|
|-------------------------|-------------------------|
|-------------------------|-------------------------|
|--------------9-11--9-11-|-------------------------|
|-12-12----12-------------|--9--9-----9--9--9-------|
|-------------------------|-------------------------|
     
|-------------------------|-------------------------|
|-------------------------|-------------------------|
|-------------------------|-------------------------|
|--------------9-11--9-11-|-------------------------|
|-12-12----12-------------|-11-11----11-11-11----11-|
|-------------------------|-------------------------|

|-------------------------|-------------------------|
|-------------------------|-------------------------|
|-------------------------|--------------6--9--9----|
|--------------9-11--9-11-|--------7--9-------------|
|-12-12----12-------------|--7--9-------------------|
|-------------------------|-------------------------|

|-------------------------|-------------------------|
|-------------------------|-------------------------|
|-------------------------|-------------------------|
|--------------9-11--9-11-|-------------------------|
|-12-12----12-------------|-11-11----11-11-11----11-|
|-------------------------|-------------------------|
      
|-------------------------|-------------------------|
|-------------------------|-------------------------|
|-------------------------|-------------------------|
|--------------9-11--9-11-|-------------------------|
|-12-12----12-------------|--9--9-----9--9--9-------|
|-------------------------|-------------------------|
     
|-------------------------|-------------------------|
|-------------------------|-------------------------|
|-------------------------|-------------------------|
|--------------9-11--9-11-|-------------------------|
|-12-12----12-------------|-11-11----11-11-11----11-|
|-------------------------|-------------------------|

|-------------------------|-------------------------|
|-------------------------|-------------------------|
|-------------------------|--11---------------------|
|--------------9-11--9-11-|-------------------------|
|-12-12----12-------------|--9----------------------|
|-------------------------|-------------------------|
     
     

Guitar 1:

Intro:

|-----------------|-----------------|-----------------|-----------------|
|-----------------|-----------------|-----------------|-----------------|
|-----------------|-----------------|-----------------|-----------------|
|-4-4---4---------|-2-2---2-2-2---2-|-4-4---4---------|-0-0---0-0-0-----|
|-4-4---4-2-4-2-4-|-2-2---2-2-2---2-|-4-4---4-2-4-2-4-|-0-0---0-0-0-----|
|-4-4---4---------|-2-2---2-2-2---2-|-4-4---4---------|-0-0---0-0-0-----|

|-----------------|-----------------|-----------------|----------------|
|-----------------|-----------------|-----------------|----------------|
|-----------------|-----------------|-----------------|----------------|
|-4-4---4---------|-2-2---2-2-2---2-|-4-4---4---------|-0-0---0-0------|
|-4-4---4-2-4-2-4-|-2-2---2-2-2---2-|-4-4---4-2-4-2-4-|-0-0---0-0------|
|-4-4---4---------|-2-2---2-2-2---2-|-4-4---4---------|-0-0---0-0------|

(0:25) VERSE (Palm muted) - Play x

|-----------------|-----------------|-----------------|-----------------|
|-----------------|-----------------|-----------------|-----------------|
|-----------------|-----------------|-----------------|-----------------|
|-4-4---4---------|-2-2---2-2-2---2-|-4-4---4---------|-0-0---0-0-0--0--|
|-4-4---4-2-4-2-4-|-2-2---2-2-2---2-|-4-4---4-2-4-2-4-|-0-0---0-0-0--0--|
|-4-4---4---------|-2-2---2-2-2---2-|-4-4---4---------|-0-0---0-0-0--0--|
  * *   * * * * *   * *   * * * * *   * *   * * * *     * *   * * *  *
 *   * * * 
|-----------------|-----------------|-----------------|-----------------|
|-----------------|-----------------|-----------------|-----------------|
|-----------------|-----------------|-----------------|-----------------|
|-4-4---4---------|-2-2---2-2-2---2-|-4-4---4---------|-9-9-9-9-9-9-9-9-|
|-4-4---4-2-4-2-4-|-2-2---2-2-2---2-|-4-4---4-2-4-2-4-|-7-7-7-7-7-7-7-7-|
|-4-4---4---------|-2-2---2-2-2---2-|-4-4---4---------|-7-7-7-7-6-6-6-6-|
  * *   * * * * *   * *   * * * * *   * *   * * * *     * * * * * * * *
Pre-
|-----------------|-----------------|
|-----------------|-----------------|
|-----------------|-----------------|
|-4-4-4-4-4-4-4-4-|-2-2-2-2-2-------|
|-4-4-4-4-4-4-4-4-|-2-2-2-2-2-------|
|-4-4-4-4-4-4-4-4-|-2-2-2-2-2-------|
  * * * * * * * *   * * * * *   

CHORUS PT. 1 - Play x2
|-----------------|-----------------|-----------------|-----------------|
|-7-7-7-7-7-7-7-7-|-----------------|-----------------|-----------------|
|-x-x-x-x-x-x-x-x-|-6-6-6-6-6-6-6-6-|-----------------|-6-6-6-6---------|
|-4-4-4-4-4-4-4-4-|-7-7-7-7-7-7-7-7-|-4-4-4-4-4-4-4-4-|-7-7-7-7-6-6-6-6-|2X
|-5-5-5-5-5-5-5-5-|-7-7-7-7-7-7-7-7-|-2-2-2-2-2-2-2-2-|-4-4-4-4-4-4-4-4-|
|-----------------|-----------------|-2-2-2-2-2-2-2-2-|-4-4-4-4-4-4-4-4-|
  
(1:01) CHORUS PT. 2
|-----------------|-----------------|-----------------|-----------------|
|-----------------|-----------------|-----------------|-----------------|
|-----------------|-----------------|-----------------|-----------------|
|-0---0---0---0---|-0---0---0-4-4-4-|-2---2---2---2---|-2---2---2-4-4-4-|
|-0---0---0---0---|-0---0---0-4-4-4-|-2---2---2---2---|-2---2---2-4-4-4-|
|-0---0---0---0---|-0---0---0-4-4-4-|-2---2---2---2---|-2---2---2-4-4-4-|
     
|-----------------|-----------------|-----------------|-----------------|
|-----------------|-----------------|-----------------|-----------------|
|-----------------|-----------------|-----------------|-----------------|
|-0---0---0---0---|-0---0---0-4-4-4-|-2---2---2---2---|-9-9-9-9-9-------|
|-0---0---0---0---|-0---0---0-4-4-4-|-2---2---2---2---|-7-7-7-7-7-------|
|-0---0---0---0---|-0---0---0-4-4-4-|-2---2---2---2---|-7-7-7-7-6-------|
     

(1:12) POST-CHORUS
|-----------------|-----------------|-----------------|-----------------|
|-----------------|-----------------|-----------------|-----------------|
|-----------------|-----------------|-----------------|-----------------|
|-4-4---4---------|-2-2---2-2-2---2-|-4-4---4---------|-0--0--0-0-------|
|-4-4---4-2-4-2-4-|-2-2---2-2-2---2-|-4-4---4-2-4-2-4-|-0--0--0-0-------|
|-4-4---4---------|-2-2---2-2-2---2-|-4-4---4---------|-0--0--0-0-------|
     
(1:17) VERSE

(1:40) PRE-CHORUS

(1:43) CHORUS PT. 1

(1:54) CHORUS PT. 2

(2:05) BRIDGE (Clean) - Play x4
*Strum chords and hold*
|-----------------|-----------------|-----------------|-----------------|
|-7---------------|-----------------|-----------------|-----------------|
|-x---------------|-6---------------|-----------------|-6---------------|
|-4---------------|-7---------------|-4---------------|-7-------6-------|
|-5---------------|-7---------------|-2---------------|-4-------4-------|
|-----------------|-----------------|-2---------------|-4-------4-------|
     
(2:27) SOLO PT. 1 - Play x2
|-----------------|-----------------|-----------------|-----------------|
|-7-7-7-7-7-7-7-7-|-----------------|-----------------|-----------------|
|-x-x-x-x-x-x-x-x-|-6-6-6-6-6-6-6-6-|-----------------|-6-6-6-6---------|
|-4-4-4-4-4-4-4-4-|-7-7-7-7-7-7-7-7-|-4-4-4-4-4-4-4-4-|-7-7-7-7-6-6-6-6-|
|-5-5-5-5-5-5-5-5-|-7-7-7-7-7-7-7-7-|-2-2-2-2-2-2-2-2-|-4-4-4-4-4-4-4-4-|
|-----------------|-----------------|-2-2-2-2-2-2-2-2-|-4-4-4-4-4-4-4-4-|
     
(2:38) SOLO PT. 2
|-----------------|-----------------|-----------------|-----------------|
|-----------------|-----------------|-----------------|-----------------|
|-----------------|-----------------|-----------------|-----------------|
|-0-0-0-0-0-0-0-0-|-0-0-0-0-0-4-4-4-|-2-2-2-2-2-2-2-2-|-2-2-2-2-2-4-4-4-|
|-0-0-0-0-0-0-0-0-|-0-0-0-0-0-4-4-4-|-2-2-2-2-2-2-2-2-|-2-2-2-2-2-4-4-4-|
|-0-0-0-0-0-0-0-0-|-0-0-0-0-0-4-4-4-|-2-2-2-2-2-2-2-2-|-2-2-2-2-2-4-4-4-|
     
|-----------------|-----------------|-----------------|-----------------|
|-----------------|-----------------|-----------------|-----------------|
|-----------------|-----------------|-----------------|-----------------|
|-0-0-0-0-0-0-0-0-|-0-0-0-0-0-4-4-4-|-2-2-2-2-2-2-2-2-|-9-9-9-9-9-------|
|-0-0-0-0-0-0-0-0-|-0-0-0-0-0-4-4-4-|-2-2-2-2-2-2-2-2-|-7-7-7-7-7-------|
|-0-0-0-0-0-0-0-0-|-0-0-0-0-0-4-4-4-|-2-2-2-2-2-2-2-2-|-7-7-7-7-6-------|
     

(2:55) CHORUS PT. 1

(3:06) CHORUS PT. 2

(3:17) POST-CHORUS

|----------------------------------------------------------------------------|

***GUITAR II (LEAD GUITAR)***

(0:00) 

(0:14) INTRO
|-------------------------|-------------------------|
|-------------------------|-------------------------|
|-------------------------|-------------------------|
|--------------9-11--9-11-|-------------------------|
|-12-12----12-------------|-11-11----11-11-11----11-|
|-------------------------|-------------------------|
      
|-------------------------|-------------------------|
|-------------------------|-------------------------|
|-------------------------|-------------------------|
|--------------9-11--9-11-|-------------------------|
|-12-12----12-------------|--9--9-----9--9--9-------|
|-------------------------|-------------------------|
     
|-------------------------|-------------------------|
|-------------------------|-------------------------|
|-------------------------|-------------------------|
|--------------9-11--9-11-|-------------------------|
|-12-12----12-------------|-11-11----11-11-11----11-|
|-------------------------|-------------------------|

|-------------------------|-------------------------|
|-------------------------|-------------------------|
|-------------------------|--------------6--9--9----|
|--------------9-11--9-11-|--------7--9-------------|
|-12-12----12-------------|--7--9-------------------|
|-------------------------|-------------------------|
     

(0:25) VERSE (Does not play)

(0:36) VERSE (Comes in during "I waited eight long months...")
|-------------------------|-------------------------|
|--7-----7--7-7-7-10-7-10-|--7-----7--7-7-7-10-7-10-|
|-------------------------|-------------------------|
|-------------------------|-------------------------|
|-------------------------|-------------------------|
|-------------------------|-------------------------|
   *     *  * * *    *       *     *  * * *    *    
|-------------------------|-------------------------|
|--7-----7--7-7-7-10-7-10-|--7-----7--7-7-7-5--5--5-|
|-------------------------|-------------------------|
|-------------------------|-------------------------|
|-------------------------|-------------------------|
|-------------------------|-------------------------|
   *     *  * * *    *       *     *  * * *    *
|-------------------------|-------------------------|
|--7-----7--7-7-7-10-7-10-|--7-----7--7-7-7-10-7-10-|
|-------------------------|-------------------------|
|-------------------------|-------------------------|
|-------------------------|-------------------------|
|-------------------------|-------------------------|
   *     *  * * *    *       *     *  * * *    *    


|-------------------------|--7-----7--7-7-7/9--9----|
|--7-----7--7-7-7-10-7-10-|-------------------------|
|-------------------------|-------------------------|
|-------------------------|-------------------------|
|-------------------------|-------------------------|
|-------------------------|-------------------------|
   *     *  * * *    *       *     *  * *   

PRE-
|-----------------|-----------------|
|-----------------|-----------------|
|-----------------|-----------------|
|-4-4-4-4-4-4-4-4-|-2-2-2-2-2-------|
|-4-4-4-4-4-4-4-4-|-2-2-2-2-2-------|
|-4-4-4-4-4-4-4-4-|-2-2-2-2-2-------|
  * * * * * * * *   * * * * *  
    

(0:50) CHORUS PT. 1 SAME AS GTR I

(1:01) CHORUS PT. 2
|-------------------------|-------------------------|
|-------------------------|-------------------------|
|-11----11----11----11----|-11----11----11-14-14-14-|
|--x-----x-----x-----x----|--x-----x-----x--x--x--x-|
|--9-----9-----9-----9----|--9-----9-----9-12-12-12-|
|-------------------------|-------------------------|
      
|-------------------------|-------------------------|
|-------------------------|-------------------------|
|-13----13----13----13----|-13----13----13-14-14-14-|
|--x-----x-----x-----x----|--x-----x-----x--x--x--x-|
|-11----11----11----11----|-11----11----11-12-12-12-|
|-------------------------|-------------------------|
     
|-------------------------|-------------------------|
|-------------------------|-------------------------|
|-11----11----11----11----|-11----11----11-14-14-14-|
|--x-----x-----x-----x----|--x-----x-----x--x--x--x-|
|--9-----9-----9-----9----|--9-----9-----9-12-12-12-|
|-------------------------|-------------------------|

|-------------------------|-------------------------|
|-------------------------|-------------------------|
|-13----13----13----13----|-18-18-18-18-16----------|
|--x-----x-----x-----x----|--x--x--x--x--x----------|
|-11----11----11----11----|-16-16-16-16-14----------|
|-------------------------|-------------------------|
    

(1:12) POST-CHORUS
|-------------------------|-------------------------|
|-------------------------|-------------------------|
|-------------------------|-------------------------|
|--------------9-11--9-11-|-------------------------|
|-12-12----12-------------|-11-11----11-11-11----11-|
|-------------------------|-------------------------|
      
|-------------------------|-------------------------|
|-------------------------|-------------------------|
|-------------------------|-------------------------|
|--------------9-11--9-11-|-------------------------|
|-12-12----12-------------|--9--9-----9--9--9-------|
|-------------------------|-------------------------|


(1:18) VERSE (Does not play)

(1:29) VERSE (Comes in here)

(1:40) PRE-CHORUS

(1:43) CHORUS PT. 1 (Does not play)

(1:54) CHORUS PT. 2

(2:05) BRIDGE (Clean) - Play x4
|-----------------|-----------------|-----------------|-----------------|
|-----------------|-------------0---|-------------0---|-----------------|
|-------9-----6---|-------9---------|-------9---------|-----------------|
|-----7-----------|-----7-----------|-----7-----------|---------7-------|
|-----------------|-----------------|-----------------|-----------------|
|-----------------|-----------------|-----------------|-----------------|
    

|-------------------------|-----------------------------|
|-------------------------|-----------------------------|
|-------------------------|-----------------------------|
|-------------------------|-----------------------------|
|--7/9--9--9--9--9--9--9--|--7/9--9--9--9--9--9--9------|
|-------------------------|-----------------------------|

|-------------------------|-----------------------------|
|-------------------------|-----------------------------|
|-------------------------|-----------------------------|
|-------------------------|-----------------------------|
|--7/9--9--9--9--9--9--9--|--12-12-12-12-11-11-11-11----|
|-------------------------|-----------------------------|

|-------------------------|-----------------------------|
|-------------------------|-----------------------------|
|-------------------------|-----------------------------|
|--------7--9--7^---------|--------7--9--7^-------------|
|--7--9-----------9--7----|--7--9-------------9--7------|
|-------------------------|-----------------------------|

|-------------------------|-----------------------------|
|-------------------------|-----------------------------|
|-------------------------|-----------------------------|
|--------7--9--7-----7-9--|--11-11-11-11-11-11-11-11----|
|--7--9-----------9-------|-----------------------------|
|-------------------------|-----------------------------|

|-------------------------|-----------------------------|
|-------------------------|-----------------------------|
|-------------------------|-----------------------------|
|-14-14-14-14-14-14-14-14-|-12-12-12-12-12-12-12-12-----|
|-------------------------|-----------------------------|
|-------------------------|-----------------------------|

|-------------------------|-----------------------------|
|-------------------------|-----------------------------|
|-------------------------|-----------------------------|
|-11-11-11-11-11-11-11-11-|-9--9--9--9--9--9--9--9------|
|-------------------------|-----------------------------|
|-------------------------|-----------------------------|

|-------------------------|-----------------------------|
|-------------------------|-----------------------------|
|-------------------------|-----------------------------|
|-14-14-14-14-14-14-14-14-|-16-16-16-16-16-16-16-16-----|
|-------------------------|-----------------------------|
|-------------------------|-----------------------------|

|-------------------------|-----------------------------|
|-------------------------|-----------------------------|
|-------------16-16-18-18-|-----------------------------|
|-19-19-19-19-------------|-18--18--18--18--18~---------|
|-------------------------|-----------------------------|
|-------------------------|-----------------------------|

     

(2:55) CHORUS PT. 1

(3:06) CHORUS PT. 2

(3:17) POST-CHORUS
comments
print report bad tab
27 comments total. Showing first comments.
+1 reply
ChemyVamp wrote on December 20 2008, 09:41 am

there are a few parts that are still wrong
like on let the flames begin the chorus is:

|-----------------------------------------------------|
|------------------------------10^(figure-out-this)---|
|--------------------10-------------------------------|
|--12-13-12-10----10----10-12-------------------------|2x
|--------------13-------------------------------------|
|-----------------------------------------------------|
then
|-----------------------------------------------------|
|------------------------------10^(figure-out-this)---|
|--------------------10-------------------------------|
|--12-13-12-10----10----10-12-------------------------|
|--------------13-------------------------------------|
|-----------------------------------------------------|

|----------------------
|----10---11---10--11--
|--10---10----10-10----
|----------------------
|----------------------
|----------------------

and you need to change the tunning to some of these and ~translate it~ to Drop C#
pretty good tho

0 reply
letthisgo wrote on December 20 2008, 01:15 pm

yeah, agreed - some tabs you haven't put that it is in Drop C# - crushcrushcrush ands let the flames begin to name a few examples.

+2 reply
Gtr_god_69 wrote on December 20 2008, 11:09 pm

the intro to crushcrushcrush goes somthing like this

eb|----------------------------------------------------------5---5-|
Bb|6-5-6---6-5-6---6-5-6---6-5-6---6-5-6---6-5-6---6-5-6-----------|
Gb|------7-------7-------7-------7-------7-------7-------7-5---5---|

i think..

I want to post or [tab]
guest
You may want to rate the tab now too:
select rating
Please do not post tabs as comments. Select "correction" instead!