Oops, an error
Loading. Please wait.

Atlas Tab

ver1
ver1

Album

Whole song

Interactive

More versions @911Tabs.com
4,817 views 21 this week
1 commentread comment
1 2 3 4 5
excellent!
x 7
Autoscroll
+/-
esc
set tempo
stop
Contributor
Hey! There's an official Ultimate Guitar app which is ideal
for learning songs when you're away from computer. Get the app
WARNING: You are trying to view
                                    content from Ultimate-Guitar.com
                                    in an unauthorized application,
                                    which is prohibited.

                                    Please use an official Ultimate
                                    Guitar Tabs application for iPhone,
                                    iPad or Android to access legitimate
                                    chords, guitar, bass, and drum tabs
                                    from Ultimate-Guitar.com database.

                                    Type "ultimate guitar tabs" in Apple
                                    App Store's or Android Market's
                                    search to find the application.
PARKWAY DRIVE

ATLAS


ALL SONGS TABBED BY andherembrace



SPARKS

ACOUSTIC GTRS ARRANGED FOR D-G-C-F-A-D

ELECTRIC GTRS-A#-F-A#-D#-G-C



acoustic  finger picked
--------7--9--7---5---4-5-4--5-7-5--------4--7--9--7---5---4-5-4--5-7-5-|
-7--10--9--7--5---7---5---5--7---7-----7--7--9--7--5---7---5---5--7---7-|
------------------------------------------------------------------------|
-4--7----------------------------------4--------------------------------|
------------------------------------------------------------------------|
------------------------------------------------------------------------|

                                                                   ^
-------5---------9-------1010-12-10--9--------5---------9-------7-797------|
---5/7---7--7/10---10-\9-1212/14-12-10----5/7---7--7/10---10-\9-9-----10-9-|
---------------------------------------------------------------------------|
-0-------------------------------------0-----------------------------------|
---------------------------------------------------------------------------|
---------------------------------------------------------------------------|




--------7--9--7---5---4-5-4--5-7-5--------4--7--9--7---5---4-5-4--5-7-5-|
-7--10--9--7--5---7---5---5--7---7-----7--7--9--7--5---7---5---5--7---7-|
------------------------------------------------------------------------|
-4--7----------------------------------4--------------------------------|
------------------------------------------------------------------------|
------------------------------------------------------------------------|

                                                                   ^
-------5---------9-------1010-12-10--9--------5---------9-------7-797------|
---5/7---7--7/10---10-\9-1212/14-12-10----5/7---7--7/10---10-\9-9-----10-9-|
---------------------------------------------------------------------------|
-0-------------------------------------0-----------------------------------|
---------------------------------------------------------------------------|
---------------------------------------------------------------------------|



--------7--9--7---5---4-5-4--5-7-5--------4--7--9--7---5---4-5-4--5-7-5-|
-7--10--9--7--5---7---5---5--7---7-----7--7--9--7--5---7---5---5--7---7-|
------------------------------------------------------------------------|
-4--7----------------------------------4--------------------------------|
------------------------------------------------------------------------|
------------------------------------------------------------------------|

                                                                   ^
-------5---------9-------1010-12-10--9--------5---------9-------7-797------|
---5/7---7--7/10---10-\9-1212/14-12-10----5/7---7--7/10---10-\9-9-----10-9-|
---------------------------------------------------------------------------|
-0-------------------------------------0-----------------------------------|
---------------------------------------------------------------------------|
---------------------------------------------------------------------------|




--------7--9--7---5---4-5-4--5-7-5--------4--7--9--7---5---4-5-4--5-7-5-|
-7--10--9--7--5---7---5---5--7---7-----7--7--9--7--5---7---5---5--7---7-|
------------------------------------------------------------------------|
-4--7----------------------------------4--------------------------------|
------------------------------------------------------------------------|
------------------------------------------------------------------------|

                                                                   ^
-------5---------9-------1010-12-10--9--------5---------9-------7-797------|
---5/7---7--7/10---10-\9-1212/14-12-10----5/7---7--7/10---10-\9-9-----10-9-|
---------------------------------------------------------------------------|
-0-------------------------------------0-----------------------------------|
---------------------------------------------------------------------------|
---------------------------------------------------------------------------|



----5---5-----5---5-----4---4-----4---4--|
------7---------7---------7---------7----|
-----------------------------------------|
-4---------4---------4-------------------|
-------------------------------7---------|
-----------------------------------------|


----5---5-----5---5-----4---4-----4---4--|
------7---------7---------7---------7----|
-----------------------------------------|
-4---------4---------4-------------------|
-------------------------------7---------|
-----------------------------------------|


----5---5-----5---5-----4---4-----4---4--|
------7---------7---------7---------7----|
-----------------------------------------|
-4---------4---------4-------------------|
-------------------------------7---------|
-----------------------------------------|


----5---5-----5---5-----4---4-----4---4--|
------7---------7---------7---------7----|
-----------------------------------------|
-4---------4---------4-------------------|
-------------------------------7---------|
-----------------------------------------|


                            __
---------------------------/  \---------|
-----7---10---7---9---7---9-10-9\7---7--|
---9---9----9---9---9---9----------9----|
-0--------------------------------------|
----------------------------------------|
----------------------------------------|


----------------------------------------|
-----7---10---7---9---7----10-9--7------|
---9---9----9---9---9---9---9-9--6------|
-0--------------------------------------|
----------------------------------------|
----------------------------------------|




1:41


----5---5-----5---5-----4---4-----4---4--|
------7---------7---------7---------7----|
-----------------------------------------|
-4---------4---------4-------------------|
-------------------------------7---------|
-----------------------------------------|
drop a#
----------------------------------------|
----------------------------------------|
----------------------------------------|
----------------------------------------|
-6-6-6-6--------------------------------|
-6-6-6-6--------------------------------|



----5---5-----5---5-----4---4-----4---4--|
------7---------7---------7---------7----|
-----------------------------------------|
-4---------4---------4-------------------|
-------------------------------7---------|
-----------------------------------------|

----------------------------------------|
----------------------------------------|
----------------------------------------|
----------------------------------------|
-6-6-6-6--------------------------------|
-6-6-6-6--------------------------------|




----5---5-----5---5-----4---4-----4---4--|
------7---------7---------7---------7----|
-----------------------------------------|
-4---------4---------4-------------------|
-------------------------------7---------|
-----------------------------------------|

----------------------------------------|
----------------------------------------|
----------------------------------------|
----------------------------------------|
-2-2-2-2--------------------------------|
-2-2-2-2--------------------------------|


----5---5-----5---5-----|
------7---------7-------|
------------------------|
-4---------4------------|
------------------------|
------------------------|

------------------------|
------------------------|
------------------------|
------------------------|
-2-2-2-2----------------|
-2-2-2-2----------------|






1:59



1
--------------------------------------|
--------------------------------------|
-------------------6-8-6--------------|
-6-----------------4-6-4--------------|
-6-----------------4-6-4--------------|
-6-----------------4/6-4--------------|
2
--------------------------------------|
--------------------------------------|
----11-13-10---8---6-8-6--------------|
-6---9-11--9---6---4-6-4--------------|
-6---9-11--9---6---4-6-4--------------|
-6---9/11--9---6-0-4/6-4--------------|
                 *

--------------------------------------|
--------------------------------------|
-------------------6-8-6--------------|
-6-----------------4-6-4--------------|
-6-----------------4-6-4--------------|
-6-----------------4/6-4--------------|
2
--------------------------------------|
--------------------------------------|
----11-13-10---8---6-8-6--------------|
-6---9-11--9---6---4-6-4--------------|
-6---9-11--9---6---4-6-4--------------|
-6---9/11--9---6-0-4/6-4--------------|
                 *


1
----------------------------------------------------------|
----------------------------------------------------------|
----------------------------------------------------------|
--------------------------------------------9--8--6--4----|
-2--------------------------------2-----------------------|
-2--------------------------------2-----------------------|
2
----------------------------------------------------------|
----------____------____----------------------------------|
---------/    \----/    \---------------------------------|
--------8--9-8-6--8--9-8-6-4/6-------------13--11--9--8---|
-2--------------------------------------------------------|
-2--------------------------------------------------------|







||||||||||||||||||||||||||||||||||||||||||||||||||||||
||||||||||||||||||||||||||||||||||||||||||||||||||||||
||||||||||||||||||||||||||||||||||||||||||||||||||||||
||||||||||||||||||||||||||||||||||||||||||||||||||||||
||||||||||||||||||||||||||||||||||||||||||||||||||||||










PARKWAY DRIVE

OLD GHOST NEW REGRETS

A#-F-A#-D#-G-C




L
----------------------------------------------------------------------|
----------------------------------------------------------------------|
--------------------------------------------------------------/\------|
--/\--------------/\--------------/\--------------------/\--121312----|
121312----------121312----------121312------------/\--121315----------|
------15-0|-0-0-------15-0|-0-0-------15-0|-0-0-121315------------17--|
R
---------------------------------------------------------------|
---------------------------------------------------------------|
---------------------------------------------------------------|
---------------------------------------------------------------|
-0--------------------------------------------------\----------|
-0------------------------------------------------PS\----------|


--------------------------------------------------------------------------|
--------------------------------------------------------------------------|
--------------------------------------------------------------------------|
--/\--------------/\--------------/\--------------------------------------|
121312----------121312----------121312------------------------------------|
------15-0|-0-0-------15-0|-0-0-------15-0|-0-0-13-13-13-13-13-13-13-13-13|

---------------------------------------------------------------------------|
---------------------------------------------------------------------------|
---------------------------------------------------------------------------|
---------------------------------------------------------------------------|
-0----------------0--------------0-----------------------------------------|
-0---|------------0---|----------0---|----------13-13-13-13-13-13-13-13-13-|




B
----------------------------------------------------------------------|
----------------------------------------------------------------------|
--------------------------------------------------------------/\------|
--/\--------------/\--------------/\--------------------/\--121312----|
121312----------121312----------121312------------/\--121315----------|
------15-0|-0-0-------15-0|-0-0-------15-0|-0-0-121315------------17--|

---------------------------------------------------------------------|
---------------------------------------------------------------------|
---------------------------------------------------------------------|
--/\---------------/\-------------/\---------------------------------|
121312----------121312----------121312-------------------------------|
------15-0|-0-0-------15-0|-0-0-------15-0|-0-0-13-13-13-13-13-13-13-|


---------------------------------------------------------------------|
---------------------------------------------------------------------|
--------------------------------------------------------------/\-----|
--/\--------------/\--------------/\--------------------/\--121312---|
121312----------121312----------121312------------/\--121315---------|
------15-0|-0-0-------15-0|-0-0-------15-0|-0-0-121315------------17-|

-------------------------------------------------|
-------------------------------------------------|
-------------------------------------------------|
--/\--------------/\--------------/\-------------|
121312----------121312----------121312-----------|
------15-0|-0-0-------15-0|-0-0-------15-0|-0-0--|

--------------------------------------------------|
--------------------------------------------------|
--------------------------------------------------|
--------------------------------------------------|
--------------------------------------------------|
-13-13-13~--13-13-13~--13-13-13~--13-13-13~--12~--|






--------------------------------------------------------------|
--------------------------------------------------------------|
------------------------------------------------/\------------|
-----------------------------------------/\---121312----------|
-0---------------------------------/\--121315-----------------|
-0-------0---0-0------0-0-0-0----121315--------------17--13~--|
         *   *        * * *   
---------------------------------------------------------------|
---------------------------------------------------------------|
---------------------------------------------------------------|
---------------------------------------------------------------|
-0-------------------------------------------------------------|
-0-------0---0-0------0-0-0-0----13-13-13-13-13-13-13-13-12-12~|
         *   *        * * * 

--------------------------------------------------------------|
--------------------------------------------------------------|
------------------------------------------------/\------------|
-----------------------------------------/\---121312----------|
-0---------------------------------/\--121315-----------------|
-0-------0---0-0------0-0-0-0----121315--------------17--13~--|
         *   *        * * *  

---------------------------------------------------------------|
---------------------------------------------------------------|
---------------------------------------------------------------|
---------------------------------------------------------------|
-0-------------------------------------------------------------|
-0-------0---0-0------0-0-0-0----13-13-13-13-13-13-13-13-13~~~~|
         *   *        * * *  

----------------------------|
----------------------------|
----2steps------------------|
----_______________---------|
---)--------------(---------|
-13-------------------------|




------------------------------------------|
------------------------------------------|
------------------------------------------|
------------------------------------------|
-0000000---0--00-00--000000--00-0-00-00---|
-0000000---0--00-00--000000--00-0-00-00---|
 *******   *  ** **  ******  ** * ** **
------------------------------------------|
------------------------------------------|
------------------------------------------|
------------------------------------------|
-0000000---0--00-00--000000--00-0-00-00---|
-0000000---0--00-00--000000--00-0-00-00---|
 *******   *  ** **  ******  ** * ** **

------------------------------------------|
------------------------------------------|
------------------------------------------|
------------------------------------------|
-0000000---0--00-00--000000--00-0-00-00---|
-0000000---0--00-00--000000--00-0-00-00---|
 *******   *  ** **  ******  ** * ** **
------------------------------------------|
------------------------------------------|
------------------------------------------|
------------------------------------------|
-0000000---0--00-00--000000--00-0-00-00---|
-0000000---0--00-00--000000--00-0-00-00---|
 *******   *  ** **  ******  ** * ** **



----------------------------------------------------------------|
----------------------------------------------------------------|
----------------------------------------------------------------|
--/\--------------/\--------------/\----------------------------|
121312----------121312----------121312--------------------------|
------15-0|-0-0-------15-0|-0-0-------15-0|-0-0-13-13-13-13-13--|




B
----------------------------------------------------------------------|
----------------------------------------------------------------------|
--------------------------------------------------------------/\------|
--/\--------------/\--------------/\--------------------/\--121312----|
121312----------121312----------121312------------/\--121315----------|
------15-0|-0-0-------15-0|-0-0-------15-0|-0-0-121315------------17--|

---------------------------------------------------------------------|
---------------------------------------------------------------------|
---------------------------------------------------------------------|
--/\---------------/\-------------/\---------------------------------|
121312----------121312----------121312-------------------------------|
------15-0|-0-0-------15-0|-0-0-------15-0|-0-0-13-13-13-13-13-13-13-|


---------------------------------------------------------------------|
---------------------------------------------------------------------|
--------------------------------------------------------------/\-----|
--/\--------------/\--------------/\--------------------/\--121312---|
121312----------121312----------121312------------/\--121315---------|
------15-0|-0-0-------15-0|-0-0-------15-0|-0-0-121315------------17-|

-------------------------------------------------|
-------------------------------------------------|
-------------------------------------------------|
--/\--------------/\--------------/\-------------|
121312----------121312----------121312-----------|
------15-0|-0-0-------15-0|-0-0-------15-0|-0-0--|

------------------------------------------------------------|
------------------------------------------------------------|
------------------------------------------------------------|
------------------------------------------------------------|
----------------------------------------8--5--10--7---------|
13-13-13~-13-13-13~-13-13-13~-13-13-13~-8--5--10--7-12~12~--|




---------------------------------------------------------------|
---------------------------------------------------------------|
---------------------------------------------------------------|
---------------------------------------------------------------|
-0-------------------------------------------------------------|
-0-------------------------------------------------------------|





L
----------------------------------------------------|
----------------------------------------------------|
----------------------------------------------------|
----------------------------------------------------|
----------------------------------------------------|
-12~~~-0--12~~~-0----0--0-0--0-0--0-0-0-0--0--0-0---|
R                    *  * *  * *  * * * *  *  * *
----------------------------------------------------|
----------------------------------------------------|
----------------------------------------------------|
----------------------------------------------------|
----------------------------------------------------|
----------12~~~-0-----------------------------------|

L
-----------------------------------------------|
-----------------------------------------------|
-----------------------------------------------|
-----------------------------------------------|
-----------------------------------------------|
-12~~~-0--12~~~-0------0--0-0--0-0--0-0-0-0--0-|
R                      *  * *  * *  * * * *  *
--------------------------------------------|
--------------------------------------------|
--------------------------------------------|
--------------------------------------------|
--------------------------------------------|
---------12~~~--0---------------------------|


L
----------------------------------------------------|
----------------------------------------------------|
----------------------------------------------------|
----------------------------------------------------|
----------------------------------------------------|
-12~~~-0-------------0--0-0--0-0--0-0-0-0--0--0-0---|
R                    *  * *  * *  * * * *  *  * *
----------------------------------------------------|
----------------------------------------------------|
----------------------------------------------------|
----------------------------------------------------|
----------------------------------------------------|
-12~~~-0--12~~~-0-----------------------------------|



L
---------------------------------------------|
---------------------------------------------|
---------------------------------------------|
---------------------------------------------|
------------------------8--5--10--7----------|
-12~~~--0---------------8--5--10--7----------|
R                    
---------------------------------------------|
---------------------------------------------|
---------------------------------------------|
---------------------------------------------|
-----------------------8--5--10--7-----------|
-12~~~--0--12~~~--0----8--5--10--7-----------|


B
--------------------------------------------------------|
--------------------------------------------------------|
--------------------------------------------------------|
--------------------------------------------------------|
--------------------------------------------------------|
-12~~~--0--12~~~--0------0--0-0--0-0--0-0-0-0--0--0-0---|
                         *  * *  * *  * * * *  *  * *

---------------------------------------------|
---------------------------------------------|
--------------------------R ONLY-------------|
---------------------------------------------|
----------------------------------8--5--10---|
-12~~~--0--12~~~--0------000-0-0--8--5--10---|
                         *** * *  


------------------------------------------|
------------------------------------------|
------------------------------------------|
------------------------------------------|
-0000000---0--00-00--000000--00-0-00-00---|
-0000000---0--00-00--000000--00-0-00-00---|
 *******   *  ** **  ******  ** * ** **
------------------------------------------|
------------------------------------------|
------------------------------------------|
------------------------------------------|
-0000000---0--00-00--000000--00-0-00-00---|
-0000000---0--00-00--000000--00-0-00-00---|
 *******   *  ** **  ******  ** * ** **

------------------------------------------|
------------------------------------------|
------------------------------------------|
------------------------------------------|
-0000000---0--00-00--000000--00-0-00-00---|
-0000000---0--00-00--000000--00-0-00-00---|
 *******   *  ** **  ******  ** * ** **
----------------------------------|
----------------------------------|
----------------------------------|
----------------------------------|
-0000000---0--00-00--8--5--10--7--|
-0000000---0--00-00--8--5--10--7--|
 *******   *  ** **  


slow
------------------------------------------------|
------------------------------------------------|
------------------------------------------------|
------------------------------------------------|
-0-0-0-0-0---0--00-00---0-0-0-0-0--00-0-00-00---|
-0-0-0-0-0---0--00-00---0-0-0-0-0--00-0-00-00---|
 * * * * *   *  ** **   * * * * *  ** * ** **


L
------------------------------------------------------------|
------------------------------------------------------------|
------------------------------------------------------------|
------------------------------------------------------------|
-0-0-0-0-0---0--00-00-------------------------------------0-|
-0-0-0-0-0---0--00-00--8~--5~--10~--7~--12-12-12-12-12-12-0-|
 * * * * *   *  ** **   
R
------------------------------------------------------------|
------------------------------------------------------------|
------------------------------------------------------------|
------------------------------------------------------------|
-0-0-0-0-0---0--00-00-------------------------------------0-|
-0-0-0-0-0---0--00-00--12~-8~--14~--10--15-15-15-14-14-14-0-|
 * * * * *   *  ** **   





||||||||||||||||||||||||||||||||||||||||||||||||||||||||
||||||||||||||||||||||||||||||||||||||||||||||||||||||||
||||||||||||||||||||||||||||||||||||||||||||||||||||||||
||||||||||||||||||||||||||||||||||||||||||||||||||||||||
||||||||||||||||||||||||||||||||||||||||||||||||||||||||











PARKWAY DRIVE 

DREAM RUN

B-F#-BE-G#-C#



0:01

+EQ FILTER

B
------------------------------------------------------------------------|
------------------------------------------------------------------------|
------------------------------------------------------------------------|
------------------------------------------------------------------------|
-------------12------------------------------------------12---10---7/8--|
-12-12-12-12----12--0--0--0--0-000-0-0--0--0-000-0-0--88----8----8------|
                  |  |  |  | * *** *  |  | * *** *  | **    *    *


R GTR PLAYS AN ADDITIONAL 2 NOTES STACKED THROUGHOUT SONG
          *
-------------------------------------------------|
-------------------------------------------------|
---------(10)------------------------------------|
---------( 8)------------------------------------|
------8----8--8--8----------8--8----------8------|
-8888---8--8--8--8--8-888-8-8--8--8-888-8-8------|
         |  |  |  | * *** *  |  | * *** *  |



0:12

NORMAL


B
------------------------------------------------------------------------|
------------------------------------------------------------------------|
------------------------------------------------------------------------|
------------------------------------------------------------------------|
-------------12------------------------------------------12---10---7/8--|
-12-12-12-12----12--0--0--0--0-000-0-0--0--0-000-0-0--88----8----8------|
                  |  |  |  | * *** *  |  | * *** *  | **    *    *

---------------------------------------------------------------|
---------------------------------------------------------------|
----------------------------------------------------10-12-12-R-|
-----------------------------------------------------8-10-10-R-|
---------8----8--8--8----------8--8----------8----8--8-10-10---|
-8-8-8-8---8--8--8--8--8-888-8-8--8--8-888-8-8--8-8--8/10-10---|
            |  |  |  | * *** *  |  | * *** *  | *  |


------------------------------------------------------------------------|
------------------------------------------------------------------------|
------------------------------------------------------------------------|
------------------------------------------------------------------------|
-------------12------------------------------------------12---10---7/8--|
-12-12-12-12----12--0--0--0--0-000-0-0--0--0-000-0-0--88----8----8------|
                  |  |  |  | * *** *  |  | * *** *  | **    *    *

---------------------------------------------------------------|
---------------------------------------------------------------|
----------------------------------------------------10-12-12-R-|
-----------------------------------------------------8-10-10-R-|
---------8----8--8--8----------8--8----------8----8--8-10-10---|
-8-8-8-8---8--8--8--8--8-888-8-8--8--8-888-8-8--8-8--8/10-10---|
            |  |  |  | * *** *  |  | * *** *  | *  |

0:33


L
----------------------------------------------------------------------|
----------------------------------------------------------------------|
-----------------------------------------------------_____------------|
----------------------------------------------------/     \-----------|
--------------------------------------------------10-12-10\8-10--8-7--|
-0-0-0-0-00000000-0--0--0--00000000-0-0-0-0-0000----------------------|
 * * * * ******** *  *  *  ******** * * * * **** 
R
----------------------------------------------------------------------|
----------------------------------------------------------------------|
----------------------------------------------------___---------------|
---------------------------------------------------/   \--------------|
--------------------------------------------------7-8-7\5-7--5-3------|
-0-0-0-0-00000000-0--0--0--00000000-0-0-0-0-0000----------------------|
 * * * * ******** *  *  *  ******** * * * * ****



0:39

B            R            B         L
---------------------------------------------------------|
---------------------------------------------------------|
---------------------------------------------------------|
---------------------------------------------------------|
---------------------------------------------------------|
-0-0-0-0------000-0-0-0-0-----0-0-0-0------000-0-0-0-0---|
        |                |           |                |

B            R            B
---------------------------------------------------------|
---------------------------------------------------------|
---------------------------------------------------------|
---------------------------------------------------------|
---------------------------------------------------------|
-0-0-0-0------000-0-0-0-0-----0-0-0-0------000-0-0-0-0---|
        |                |           |                |



0:49


B        R         B                     R         B
----------------------------------------------------------------|
----------------------------------------------------------------|
----------------------------------------------------------------|
----------------------------------------------------------------|
----------------------------------------------------------------|
-0-0-0-0-0-0-0-0-0-0-0-0-0-0-0---0-0-0-0-0-0-0-0-0-0-0-0-0-0-0--|
         * * *   *            |          * * *   *            |

B        R         B                     R         B
----------------------------------------------------------------|
----------------------------------------------------------------|
----------------------------------------------------------------|
----------------------------------------------------------------|
----------------------------------------------------------------|
-0-0-0-0-0-0-0-0-0-0-0-0-0-0-0---0-0-0-0-0-0-0-0-0-0-0-0-0-0-0--|
         * * *   *            |          * * *   *            |




1:00

-----------------------------------------------------------------------|
-----------------------------------------------------------------------|
-----------------------------------------------------------------------|
-----------------------------------------------------------------------|
-----------------------------------------------------------------------|
-0-0-0-0-00000000-0--0--0--00000000-0-0-0-0-00000000-0--0--0--0--0--0--|
 * * * * ******** *  *  *  ******** * * * * ******** *  *  *  *  *  *
                                                     L
---------------------------------------------------------------------------|
---------------------------------------------------------------------------|
---------------------------------------------------------------------------|
---------------------------------------------------------------------------|
---------------------------------------------------------------------------|
0-0-0-0-00000000-0--0--0--00000000-0-0-0-0-00000000-12-12-12-12-12-12-12-12|
* * * * ******** *  *  *  ******** * * * * ******** 



1:11

1
----------------------------------------------------------------------|
----------------10---10-10---8---8-8----------------------------------|
-7-7-7-7-7-7-7-----------------------/10--10-9--9-9-9-9-9-9-9-9-9-10--|
----------------------------------------------------------------------|
----------------------------------------------------------------------|
----------------------------------------------------------------------|

2
--------------------------------------------------------------------------|
--------------------------------------------------------------------------|
--------------------------------------------------------------------------|
-----------------------------------12--12-12--12-12-12--12-12-12--12-14-14|
-----------------------------------10--10-10--10-10-10--10-10-10--10-12-12|
0--0-0-0-0-0--15--15-15-14--14-14--10--10-10--10-10-10--10-10-10--10/12-12|


1
-------------------------------------------------------------------|
---------------10--10-10-8--8-8-8/13-13-13-13-13-13-13-13------\---|
-9/10-7--7-7-7-----------------------------------------------------|
-------------------------------------------------------------------|
-------------------------------------------------------------------|
-------------------------------------------------------------------|

2
--------------------------------------------------------------------------|
--------------------------------------------------------------------------|
--------------------------------------------------------------------------|
------------------------------------12--12-12-12-12-12-12-12--------------|
------------------------------------10--10-10-10-10-10-10-10-7-7-7-7-5-5-5|
0--0-0--0-0-0--15--15-15-14--14-14--10--10-10-10-10-10-10-10-7-7-7-7-5-5-5|
                                                             * * * * * * *



1:22

1
----------------------------------------------------------------------|
----------------10---10-10---8---8-8----------------------------------|
-7-7-7-7-7-7-7-----------------------/10--10-9--9-9-9-9-9-9-9-9-9-10--|
----------------------------------------------------------------------|
----------------------------------------------------------------------|
----------------------------------------------------------------------|

2
--------------------------------------------------------------------------|
--------------------------------------------------------------------------|
--------------------------------------------------------------------------|
-----------------------------------12--12-12--12-12-12--12-12-12--12-14-14|
-----------------------------------10--10-10--10-10-10--10-10-10--10-12-12|
0--0-0--0-0-0-15--15-15-14--14-14--10--10-10--10-10-10--10-10-10--10/12-12|


1
-------------------------------------------------------------------|
---------------10--10-10-8--8-8-8/13-13-13-13-13-13-13-13------\---|
-9/10-7--7-7-7-----------------------------------------------------|
-------------------------------------------------------------------|
-------------------------------------------------------------------|
-------------------------------------------------------------------|

2
-----------------------------------------------------------------------|
-----------------------------------------------------------------------|
-----------------------------------------------------------------------|
------------------------------------12--12-12-12-12-12-12-14-----------|
------------------------------------10--10-10-10-10-10-10-12-7-7-7--5-5|
0--0-0--0-0-0--15--15-15-14--14-14--10--10-10-10-10-10-10/12-7-7-7--5-5|
                                                             * * *  * * 



1:33


L
--------------------------------------------------------------------|
-666666555555---------------------666666555555----------------------|
-------------55555522222222222222-------------55555577777777777777--|
--------------------------------------------------------------------|
--------------------------------------------------------------------|
--------------------------------------------------------------------|
R
-----------------------------------------------------------------------|
101010101010888888--------------------101010101010888888-------14 TIMES|
------------------99999955555555555555------------------99999910-------|
-----------------------------------------------------------------------|
-----------------------------------------------------------------------|
-----------------------------------------------------------------------|
RYTHM
-----------------------------------------------------------------------|
-----------------------------------------------------------------------|
-----------------------------------------------------------------------|
-----------------------------------------------------------------------|
-------------12------------------------------------------12---10---7/8-|
-12-12-12-12----12--0--0--0--0-000-0-0--0--0-000-0-0--88----8----8-----|
                  |  |  |  | * *** *  |  | * *** *  | **    *    *



L
--------------------------------------------------------------------|
-666666555555---------------------666666555555----------------------|
-------------55555522222222222222-------------55555577777777777777--|
--------------------------------------------------------------------|
--------------------------------------------------------------------|
--------------------------------------------------------------------|
R
-----------------------------------------------------------------------|
101010101010888888--------------------101010101010888888-------14 TIMES|
------------------99999955555555555555------------------99999910-------|
-----------------------------------------------------------------------|
-----------------------------------------------------------------------|
-----------------------------------------------------------------------|
RYTHM
--------------------------------------------------------------|
--------------------------------------------------------------|
----------------------------------------------------10-12-12--|
-----------------------------------------------------8-10-10--|
---------8- --8--8--8----------8--8----------8----8--8-10-10--|
-8-8-8-8---8--8--8--8--8-888-8-8--8--8-888-8-8--8-8--8/10-10--|
            |  |  |  | * *** *  |  | * *** *  | *  |


1:44


1
-16-------16------------------15-------15----------------------|
-----20------20-------------------18-------18------------------|
-------20------20-------------------17-------17----------------|
---------------------------------------------------------------|
---------------------------------------------------------------|
---------------------------------------------------------------|
2
---------------------------------------------------------------|
---------------------------------------------------------------|
---------------------------------------------------------------|
-6----------------------------3--------------------------------|
-6----------------------------3--------------------------------|
-6----------------------------3--------------------------------|



1
-16-------16------------------15-------15----------------------|
-----20------20-------------------18-------18------------------|
-------20------20-------------------17-------17----------------|
---------------------------------------------------------------|
---------------------------------------------------------------|
---------------------------------------------------------------|
2
---------------------------------------------------------------|
---------------------------------------------------------------|
---------------------------------------------------------------|
-6----------------------------3-----------P--------------------|
-6----------------------------3------------S-------------------|
-6----------------------------3-------------\------------------|




1:55


B
------------------------------------------------------------------------|
------------------------------------------------------------------------|
------------------------------------------------------------------------|
----------------------------------------------------------------------3-|
6-6-6-6----1-1-1-1-3-3-3-3-----3-1-3-5-1-----6-6-6-6---------3--3--3--3-|
6-6-6-6----1-1-1-1-3-3-3-3-----3-1-3-5-1-----6-6-6-6---------3--3--3--3-|
* * * *    * * * * * * * *     * * * *   |   * * * *         *  *  *

-------------------------------------------------------------------|
-------------------------------------------------------------------|
-------------------------------------------------------------------|
-------------------------------1--------------------------------1--|
-------------------------------1--------------------------------1--|
-6-6-6-6-886-6-6----6-666-8-10-1---3-3-3-3-553-1-3----3-333-3-5-1--|
 * * * * *** * *    * *** *  *     * * * * *** * *    * *** * *


L
--------------------------------------------------------------------|
--------------------------------------------------------------------|
---------------------------------------------------101010--13-13-13-|
------------------------------1---------------------X-X-X---X--X--X-|
------------------------------1---------------------8-8-8--11-11-11-|
6-6-6-6-886-6-6----6-666-8-10-1---3-3-3-3-553-1-3-------------------|
* * * * *** * *    * *** *  *     * * * * *** * *        |
R
----------------------------------------------------------------------|
----------------------------------------------------------------------|
----------------------------------------------------13-13-13--17-17-17|
------------------------------1----------------------X--X--X---X--X--X|
------------------------------1---------------------11-11-11--15-15-15|
6-6-6-6-886-6-6----6-666-8-10-1---3-3-3-3-553-1-3---------------------|
* * * * *** * *    * *** *  *     * * * * *** * *           |




2:19


1
------20------18------16------15------20------18------16------15-|
18--18--18--18--18--18--18--18--18--18--18--18--18--18--18--18---|
--17------17------17------17------17------17------17------17-----|
-----------------------------------------------------------------|
-----------------------------------------------------------------|
-----------------------------------------------------------------|
2
------------------------------------------------------------------|
------------------------------------------------------------------|
------------------------------------------------------------------|
-------------------------------1--------------------------------1-|
-------------------------------1--------------------------------1-|
-6-6-6-6-886-6-6----6-666-8-10-1---3-3-3-3-553-1-3----3-333-3-5-1-|
 * * * * *** * *    * *** *  *     * * * * *** * *    * *** * *


1
------20------18------16------15------20------18------16------15-|
18--18--18--18--18--18--18--18--18--18--18--18--18--18--18--18---|
--17------17------17------17------17------17------17------17-----|
-----------------------------------------------------------------|
-----------------------------------------------------------------|
-----------------------------------------------------------------|
2
-------------------------------------------------------------------|
-------------------------------------------------------------------|
-------------------------------------------------------------------|
-------------------------------1--------------------------------1--|
-------------------------------1--------------------------------1--|
-6-6-6-6-886-6-6----6-666-8-10-1---3-3-3-3-553-1-3----3-333-3-5-1--|
 * * * * *** * *    * *** *  *     * * * * *** * *    * *** * *



1
------20------18------16------15------20------18------16------15-|
18--18--18--18--18--18--18--18--18--18--18--18--18--18--18--18---|
--17------17------17------17------17------17------17------17-----|
-----------------------------------------------------------------|
-----------------------------------------------------------------|
-----------------------------------------------------------------|
2
-----------------------------------------------------------------|
-----------------------------------------------------------------|
-----------------------------------------------------------------|
-3--------------------------------5------------------------------|
-3--------------------------------5------------------------------|
-3--------------------------------5------------------------------|


1
------20------18------16------15------20-------------------------|
18--18--18--18--18--18--18--18--18--18--18-----------------------|
--17------17------17------17------17------17---------------------|
------------------------------------------------------------0----|
------------------------------------------------------------0----|
----------------------------------------------5-7-5-3-5-2-7-0----|
2
-----------------------------------------------------------------|
-----------------------------------------------------------------|
-----------------------------------------------------------------|
-6---------------------------------8-----------------------------|
-6---------------------------------8-----------------------------|
-6---------------------------------8----------5-7-5-3-5-2-7-0----|




2:44

L
------------------------------------|
------------------------------------|
------------------------------------|
-0----------------------------------|
-0----------------------------------|
(0)---------------------------------|
R
-------------------------------------|
-------------------------------------|
-------------------------------------|
-------------------------------------|
--------12---------------------------|
12121212--12-0-0-0-0-0-0-0-0-0-0-0-0-|
             * * * * * * * * * * * *    

L
--------------------------------------------|
--------------------------------------------|
--------------------------------------------|
-0------------------------------------------|
-0------------------------------------------|
(0)-----------------------------------------|
R
--------------------------------------------|
--------------------------------------------|
--------------------------------------------|
--------------------------------------------|
---------12---------------12----------12----|
-12121212--12-0-0-0-0-8888--8-10101010--10--|
              * * * *

L
------------------------------------|
------------------------------------|
------------------------------------|
-0----------------------------------|
-0----------------------------------|
(0)---------------------------------|
R
-------------------------------------|
-------------------------------------|
-------------------------------------|
-------------------------------------|
--------12---------------------------|
12121212--12-0-0-0-0-0-0-0-0-0-0-0-0-|
             * * * * * * * * * * * *    

L
--------------------------------------------|
--------------------------------------------|
--------------------------------------------|
-0------------------------------------------|
-0------------------------12----------12----|
(0)-------------------8888--8-10101010--10--|
R
--------------------------------------------|
--------------------------------------------|
--------------------------------------------|
--------------------------------------------|
---------12---------------12----------12----|
-12121212--12-0-0-0-0-8888--8-10101010--10--|
              * * * *

B
-------------------------------------|
-------------------------------------|
-------------------------------------|
-------------------------------------|
--------12---------------------------|
12121212--12-0-0-0-0-0-0-0-0-0-0-0-0-|
             * * * * * * * * * * * *  
         
--------------------------------------------|
--------------------------------------------|
--------------------------------------------|
--------------------------------------------|
---------12---------------12----------12----|
-12121212--12-0-0-0-0-8888--8-10101010--10--|
              * * * *


3:01

L
-------------------------------------------------------------------|
-------------------------------------------------------------------|
-------------------------------------------------------------------|
-------------------------------------------------------------------|
--------12-------------------12-------------------12-----------0---|
12121212--12-0-0-0-0-12121212--12-0-0-0-0-12121212--12-0-0-0-0-0---|
             * * * *              * * * *              * * * *  |
R
-------------------------------------------------------------------|
-------------------------------------------------------------------|
-------------------------------------------------------------------|
-------------------------------------------------------------0-----|
---------8-------------------8-------------------8-----------0-----|
-8-8-8-8---8-0-0-0-0-8-8-8-8---8-0-0-0-0-8-8-8-8---8-0-0-0-0-0-----|
             * * * *             * * * *             * * * *  |



3:07


B
------------------------------------------------------------------------|
------------------------------------------------------------------------|
------------------------------------------------------------------------|
------------------------------------------------------------------------|
-------------12------------------------------------------12---10---7/8--|
-12-12-12-12----12--0--0--0--0-000-0-0--0--0-000-0-0--88----8----8------|
                  |  |  |  | * *** *  |  | * *** *  | **    *    *

---------------------------------------------------------------|
---------------------------------------------------------------|
----------------------------------------------------10-12-12-R-|
-----------------------------------------------------8-10-10-R-|
---------8----8--8--8----------8--8----------8----8--8-10-10---|
-8-8-8-8---8--8--8--8--8-888-8-8--8--8-888-8-8--8-8--8/10-10---|
            |  |  |  | * *** *  |  | * *** *  | *  |


3:17

L
----------------------------------------------------------------------------|
----------------------------------------------------------------------------|
----------------------------------------------------------------------------|
----------------------------------------------------------------------------|
----------------------------------------------------------------------------|
12-12-12-12-12-12-12-12-12-12-12-12-12-12-12-12-12-12-12-12-12-12-12-12-12--|

R
----------------------------------------------------------------------------|
----------------------------------------------------------------------------|
----------------------------------------------------------------------------|
----------------------------------------------------------------------------|
----------------------------------------------------------------------------|
------------------------------------------------15-15-15-15-15-15-15-15-15--|
OVERDUB
------------------------------------------------10------10------------------|
------------------------------------------------------------13-----------R--|
----------------------------------------------------------------12-------12~|
----------------------------------------------------------------------------|
----------------------------------------------------------------------------|
----------------------------------------------------------------------------|



3:25

1
----------------------------------------------------------------------|
----------------10---10-10---8---8-8----------------------------------|
-7-7-7-7-7-7-7-----------------------/10--10-9--9-9-9-9-9-9-9-9-9-10--|
----------------------------------------------------------------------|
----------------------------------------------------------------------|
----------------------------------------------------------------------|

2
--------------------------------------------------------------------------|
--------------------------------------------------------------------------|
--------------------------------------------------------------------------|
-----------------------------------12--12-12--12-12-12--12-12-12--12-14-14|
-----------------------------------10--10-10--10-10-10--10-10-10--10-12-12|
0--0-0-0-0-0--15--15-15-14--14-14--10--10-10--10-10-10--10-10-10--10/12-12|


1
-------------------------------------------------------------------|
---------------10--10-10-8--8-8-8/13-13-13-13-13-13-13-13------\---|
-9/10-7--7-7-7-----------------------------------------------------|
-------------------------------------------------------------------|
-------------------------------------------------------------------|
-------------------------------------------------------------------|

2
------------------------------------------------------------------------|
------------------------------------------------------------------------|
------------------------------------------------------------------------|
------------------------------------12--12-12-12-12-12-12-12------------|
------------------------------------10--10-10-10-10-10-10-10-7-7-7--5-5-|
0--0-0--0-0-0--15--15-15-14--14-14--10--10-10-10-10-10-10-10-7-7-7--5-5-|
                                                             * * *  * * 




1
----------------------------------------------------------------------|
----------------10---10-10---8---8-8----------------------------------|
-7-7-7-7-7-7-7-----------------------/10--10-9--9-9-9-9-9-9-9-9-9-10--|
----------------------------------------------------------------------|
----------------------------------------------------------------------|
----------------------------------------------------------------------|

2
--------------------------------------------------------------------------|
--------------------------------------------------------------------------|
--------------------------------------------------------------------------|
-----------------------------------12--12-12--12-12-12--12-12-12--12-14-14|
-----------------------------------10--10-10--10-10-10--10-10-10--10-12-12|
0--0-0--0-0-0--15--15-15-14--14-14-10--10-10--10-10-10--10-10-10--10/12-12|


1
-------------------------------------------------------------------|
---------------10--10-10-8--8-8-8/13-13-13-13-13-13-13-13------\---|
-9/10-7--7-7-7-----------------------------------------------------|
-------------------------------------------------------------------|
-------------------------------------------------------------------|
-------------------------------------------------------------------|

2
-----------------------------------------------------------------------|
-----------------------------------------------------------------------|
-----------------------------------------------------------------------|
------------------------------------12--12-12-12-12-12-12-14-----------|
------------------------------------10--10-10-10-10-10-10-12-7-7-7--5-5|
0--0-0--0-0-0--15--15-15-14--14-14--10--10-10-10-10-10-10/12-7-7-7--5-5|
                                                             * * *  * * 




3;47

-----------------------------------------------------------------------|
-----------------------------------------------------------------------|
-----------------------------------------------------------------------|
-----------------------------------------------------------------------|
-----------------------------------------------------------------------|
-0-0-0-0-00000000-0--0--0--00000000-0-0-0-0-00000000-0--0--0--0--0--0--|
 * * * * ******** *  *  *  ******** * * * * ******** *  *  *  *  *  *


-----------------------------------------------------------------------|
-----------------------------------------------------------------------|
-----------------------------------------------------------------------|
-----------------------------------------------------------------------|
-----------------------------------------------------------------------|
-0-0-0-0-00000000-0--0--0--00000000-0-0-0-0-00000000-0--0--0--0--0--0--|
 * * * * ******** *  *  *  ******** * * * * ******** *  *  *  *  *  *


3:58

L
---------------------------------------------------------------|
---------------------------------------------------------------|
---------------------------------------------------------------|
---------------------------------------------------------------|
--------12-------------------12-------------------12-----------|
12121212--12-0-0-0-0-12121212--12-0-0-0-0-12121212--12-0-0-0-0-|
             * * * *              * * * *              * * * *  
R
--------------------------------------------------------------|
--------------------------------------------------------------|
--------------------------------------------------------------|
--------------------------------------------------------------|
---------8-------------------8-------------------8------------|
-8-8-8-8---8-0-0-0-0-8-8-8-8---8-0-0-0-0-8-8-8-8---8-0-0-0-0--|
             * * * *             * * * *             * * * *  

B
------------------------------|
------------------------------|
------------------------------|
------------------------------|
-----12----------12---0-------|
-8888--8-10101010--10-0-------|
                       |







||||||||||||||||||||||||||||||||||||||||||||||||||
||||||||||||||||||||||||||||||||||||||||||||||||||
||||||||||||||||||||||||||||||||||||||||||||||||||
||||||||||||||||||||||||||||||||||||||||||||||||||
||||||||||||||||||||||||||||||||||||||||||||||||||












PARKWAY DRIVE

WILD EYES

B-F#-B-E-G#-C#






LET RING THROUGHOUT                   
                                      )~~
-19-------19----15-----14------19---19----19---15-----17-----|
---17-------17----13-----15------17---------17---13-----15---|
-----16-------------12-----14----------------------12-----14-|
-------------------------------------------------------------|
-------------------------------------------------------------|
-------------------------------------------------------------|

                                     )~~
-19-------19----15-----14------19---19----19---15-----17-----|
---17-------17----13-----15------17---------17---13-----15---|
-----16-------------12-----14----------------------12-----14-|
-------------------------------------------------------------|
-------------------------------------------------------------|
-------------------------------------------------------------|


0:17

1
                                     )~~
-19-------19----15-----14------19---19----19---15-----17-----|
---17-------17----13-----15------17---------17---13-----15---|
-----16-------------12-----14----------------------12-----14-|
-------------------------------------------------------------|
-------------------------------------------------------------|
-------------------------------------------------------------|
2
-------------------------------------------------------------|
-------------------------------------------------------------|
-------------------------------------------------------------|
-2---------------------------2gj-------------------------------|
-2---------------------------2-------------------------------|
-2--------------7-7-7-9-9-9--2------------5-5-5-4-5-4--------|


1
                                     )~~
-19-------19----15-----14------19---19----19--------|
---17-------17----13-----15------17---------17------|
-----16-------------12-----14-----------------------|
----------------------------------------------------|
----------------------------------------------------|
----------------------------------------------------|
2
--------------------------------------------------------|
--------------------------------------------------------|
--------------------------------------------------------|
-2---------------------------2--------------------------|
-2---------------------------2--------------------------|
-2--------------7-7-7-9-9-9--2------------5-5-5-4--2-0--|



0:34
1

-19------19-----19-----19------15------15------14------14------|
---17------17-----17-----17------13--13--13--13--15--15--15----|
-----16------16-----16-----16------12------12------14------14--|
---------------------------------------------------------------|
---------------------------------------------------------------|
---------------------------------------------------------------|
2
---------------------------------------------------------------|
---------------------------------------------------------------|
--------9-------------9----------------------------------------|
--------X-------------X----------------------------------------|
--------7\------------7\---------------------------------------|
-222222--------222222------------------------------------------|
 ******        ******


1

-19------19-----19-----19------15------15------14------14------|
---17------17-----17-----17------13--13--13--13--15--15--15----|
-----16------16-----16-----16------12------12------14------14--|
---------------------------------------------------------------|
---------------------------------------------------------------|
---------------------------------------------------------------|
2
--------------------------------------------------------|
--------------------------------------------------------|
--------9-------------9---------------------------------|
--------X-------------X---------------------------------|
--------7\------------7\-------2222--2222--5555--4444---|
-222222--------222222----------2222--2222--5555--4444---|
 ******        ******          ****  ****  ****  ****


1

-19------19-----19-----19------15------15------14------14------|
---17------17-----17-----17------13--13--13--13--15--15--15----|
-----16------16-----16-----16------12------12------14------14--|
---------------------------------------------------------------|
---------------------------------------------------------------|
---------------------------------------------------------------|
2
---------------------------------------------------------------|
---------------------------------------------------------------|
--------9-------------9----------------------------------------|
--------X-------------X----------------------------------------|
--------7\------------7\---------------------------------------|
-222222--------222222------------------------------------------|
 ******        ******

1

-19------19-----19-----19--------19--------------------|
---17------17-----17-----17---------17------20-19~-----|
-----16------16-----16-----16----------16--------------|
-------------------------------------------------------|
-------------------------------------------------------|
-------------------------------------------------------|
2
---------------------------------------------------|
---------------------------------------------------|
--------9-------------9----------------------------|
--------X-------------X----------------------------|
--------7\------------7\---------------------------|
-222222--------222222-------0-0-0-17~--0-0-0-16~---|
 ******        ******       * * *      * * * 



0:51

B
-------------------------------------------------------------|
-------------------------------------------------------------|
--------9-------------9--------------------------------------|
--------X-------------X--------------------------------------|
--------7\------------7\-----------55557777--------99995555--|
-222222--------222222------55555555--------77777777----------|
 ******        ******        

------------------------------------------------------------------------|
------------------------------------------------------------------------|
--------9-------------9------------------------------------------__-----|
--------X-------------X-----------------------------------------/  \----|
--------7\------------7\---------14----12----10----12----10----9-10-9-7-|
-222222--------222222-----101010----10----10----10----10----10----------|
 ******        ******      * * *     *     *     *          


-------------------------------------------------------------|
-------------------------------------------------------------|
--------9-------------9--------------------------------------|
--------X-------------X--------------------------------------|
--------7\------------7\-----------55557777--------99995555--|
-222222--------222222------55555555--------77777777----------|
 ******        ******        

-------------------------------------------------------------------|
-------------------------------------------------------------------|
--------9-------------9--------------------------------------------|
--------X-------------X--------------------------------------------|
--------7\------------7\---------------10-10-14-14---------5-5-9-9-|
-222222--------222222------10-10-10-10-------------5-5-5-5---------|
 ******        ******       *  *  *  *  *  *  *  * * * * * * * * *


1:09

------------------------------------------------------------------|
------------------------------------------------------------------|
------------------------------------------------------------------|
------------------------------------------------------------------|
-0022----0022--------------------------0022----0022---------------|
-0022----0022----0-0-0-17~--0-0-0-16~--0022----0022--5-5-5-4--2-0-|
 ****    ****    * * *      * * *      ****    ****




1

-19------19-----19-----19------15------15------14------14------|
---17------17-----17-----17------13--13--13--13--15--15--15----|
-----16------16-----16-----16------12------12------14------14--|
---------------------------------------------------------------|
---------------------------------------------------------------|
---------------------------------------------------------------|
2
---------------------------------------------------------------|
---------------------------------------------------------------|
--------9-------------9----------------------------------------|
--------X-------------X----------------------------------------|
--------7\------------7\---------------------------------------|
-222222--------222222------------------------------------------|
 ******        ******


1

-19------19-----19-----19------15------15------14------14------|
---17------17-----17-----17------13--13--13--13--15--15--15----|
-----16------16-----16-----16------12------12------14------14--|
---------------------------------------------------------------|
---------------------------------------------------------------|
---------------------------------------------------------------|
2
--------------------------------------------------------|
--------------------------------------------------------|
--------9-------------9---------------------------------|
--------X-------------X---------------------------------|
--------7\------------7\-------2222--2222--5555--4444---|
-222222--------222222----------2222--2222--5555--4444---|
 ******        ******


1

-19------19-----19-----19------15------15------14------14------|
---17------17-----17-----17------13--13--13--13--15--15--15----|
-----16------16-----16-----16------12------12------14------14--|
---------------------------------------------------------------|
---------------------------------------------------------------|
---------------------------------------------------------------|
2
---------------------------------------------------------------|
---------------------------------------------------------------|
--------9-------------9----------------------------------------|
--------X-------------X----------------------------------------|
--------7\------------7\---------------------------------------|
-222222--------222222------------------------------------------|
 ******        ******

1
                                                    ___________
-19------19-----19-----19--------19----------------)---|
---17------17-----17-----17---------17------20-19~-----|
-----16------16-----16-----16----------16--------------|
-------------------------------------------------------|
-------------------------------------------------------|
-------------------------------------------------------|
2
-----------------------------------------------------------------|
-----------------------------------------------------------------|
--------9-------------9------------------------------------------|
--------X-------------X------------------------------------------|
--------7\------------7\-----------------------------------------|
-222222--------222222-------0-0-0-17~--0-0-0-16------17-16-14-12-|
 ******        ******       * * *      * * * 



1:38

1
-----------------------------------------------------|
-----------------------------------------------------|
-----------------------------------------------------|
-----------------------------------------------------|
-----------------------------------------------------|
--12-14-14-14\10-10-12~-------12/14-14-14\12-10~-----|
2
---------------------------------------------------------------|
---------------------------------------------------------------|
---------------------------------------------------------------|
-2-------------------------------------------------------------|
-2-------------------------------------------------------------|
-2-------------------------------------------------------------|


1
--------------------------------7---------------------------------------|
---------------------------------8-----------------------/\-------/\----|
-------------------------------------------------------111211---111211--|
-------------------------------------------------------------12-------12|
---------------------------7--------9-10-------10-----------------------|
12-14-14-14\10-10-12~------7--------9-10--1010-10-1010------------------|
2                                          * *     * *
------------------------------|
------------------------------|
------------------------------|
-2----------------------------|
-2----------------------------|
-2----------------------------|



B
------------------------------___----------___--------___-------------|
------------------------------) (----------) (--------) (-------------|
-----------------------9-11-11-----------11---------11-----12----11~--|
----------------------------------12-----12---------12--------12------|
-------------------------------------10-------------------------------|
-12-14-14-14\10-10-12~---------------10---------12--------------------|
                                                               *


----------------------------__--------7------------------------------------|
----------------------------) (--------8---------------------/\------/\----|
---------------------9-11-11-------------------------------111211--111211--|
-------------------------------12--------------------------------12------12|
----------------------------------7------9-10-------10---------------------|
12-14-14-14\10-10-12~-------------7------9-10--1010-10-1010----------------|
                                                * *     * * 



L
------------------------------__-----------___--------___-------------|
------------------------------) (----------) (--------) (-------------|
-----------------------9-11-11-----------11---------11-----12----11~--|
----------------------------------12-----12---------12--------12------|
-------------------------------------10-------------------------------|
-12-14-14-14\10-10-12~---------------10---------12--------------------|
                                                               *
R SAME AS LEFT EXCEPT WHERE NOTED
----------------------------------------------------------------------|
-------------------------------) (-------------------------12----12---|
-----------------------12-14-14----11-------------------------11------|
----------------------------------------------------------------------|
----------------------------------------------------------------------|
----------------------------------------------------------------------|
L
---------------------------------------------------------------------|
-------------------------------)-(-----------------------------------|
------------------------9-11-11--------------------------------------|
-----------------------------------12--------------------------------|
----------------------------------------7--7-7-7-7-9-5--5-5-5-5-5-9--|
-12-14-14-14\10-10-12~------------------7--7-7-7-7-9-5--5-5-5-5-5-9--|
R                                          * * * *      * * * * *
---------------------------------------------------------------|
---------------------------------) (---------------------------|
-------------------------12-14-14----11------------------------|
---------------------------------------------------------------|
---------------------------------------------------------------|
---------------------------------------------------------------|




2:23

B
-------------------------------------------------------------|
-------------------------------------------------------------|
--------9-------------9--------------------------------------|
--------X-------------X--------------------------------------|
--------7\------------7\-----------55557777--------99995555--|
-222222--------222222------55555555--------77777777----------|
 ******        ******        

------------------------------------------------------------------------|
------------------------------------------------------------------------|
--------9-------------9------------------------------------------__-----|
--------X-------------X-----------------------------------------/  \----|
--------7\------------7\---------14----12----10----12----10----9-10-9-7-|
-222222--------222222-----101010----10----10----10----10----10----------|
 ******        ******      * * *     *     *     *     *     *   


-------------------------------------------------------------|
-------------------------------------------------------------|
--------9-------------9--------------------------------------|
--------X-------------X--------------------------------------|
--------7\------------7\-----------55557777--------99995555--|
-222222--------222222------55555555--------77777777----------|
 ******        ******        

-------------------------------------------------------------------|
-------------------------------------------------------------------|
--------9-------------9--------------------------------------------|
--------X-------------X--------------------------------------------|
--------7\------------7\---------------10-10-14-14---------5-5-9-9-|
-222222--------222222------10-10-10-10-------------5-5-5-5---------|
 ******        ******       *  *  *  *  *  *  *  * * * * * * * * *


------------------------------------------------------------------|
------------------------------------------------------------------|
------------------------------------------------------------------|
------------------------------------------------------------------|
-0022----0022--------------------------0022----0022---------------|
-0022----0022----0-0-0-17~--0-0-0-16~--0022----0022--5-5-5-4~-2-0-|
 ****    ****    * * *      * * *      ****    ****


---------------------------------------------------------------|
---------------------------------------------------------------|
---------------------------------------------------------------|
-2-------------------------------------------------------------|
-2-------------------------------------------------------------|
-2-------------------------------------------------------------|




2:58

1
                                     )~~
-19-------19----15-----14------19---19----19---15-----17-----|
---17-------17----13-----15------17---------17---13-----15---|
-----16-------------12-----14----------------------12-----14-|
-------------------------------------------------------------|
-------------------------------------------------------------|
-------------------------------------------------------------|
2
-------------------------------------------------------------|
-------------------------------------------------------------|
-------------------------------------------------------------|
-2---------------------------2-------------------------------|
-2---------------------------2-------------------------------|
-2--------------7-7-7-9-9-9--2------------5-5-5-4-5-4--------|


1
                                     )~~
-19-------19----15-----14------19---19----19--------|
---17-------17----13-----15------17---------17------|
-----16-------------12-----14-----------------------|
----------------------------------------------------|
----------------------------------------------------|
----------------------------------------------------|
2
-------------------------------------------|
-------------------------------------------|
-------------------------------------------|
-2---------------------------2-------------|
-2---------------------------2-------------|
-2--------------7-7-7-9-9-9--2-------------|



3:15

-------------------------------------------------------------|
-------------------------------------------------------------|
-------------------------------------------------------------|
-------------------------------------------------------------|
-2--2--0022202--0-2-0-5-4-2-0---2--2--0022202--3-3-3-5-5-5---|
-2--2--0022202--0-2-0-5-4-2-0---2--2--0022202--5-5-5-7-7-7---|
 *  *  *******  * * * * * * *   *  *  *******  * * * * * *    

-------------------------------------------------------------|
-------------------------------------------------------------|
-------------------------------------------------------------|
-------------------------------------------------------------|
-2--2--0022202--0-2-0-5-4-2-0---2--2--0022202--3-3-3-5-5-5---|
-2--2--0022202--0-2-0-5-4-2-0---2--2--0022202--5-5-5-7-7-7---|
 *  *  ******   * * * * * * *   *  *  *******  * * * * * *    


3:32

1
                                     )~~
-19-------19----15-----14------19---19----19---15-----17-----|
---17-------17----13-----15------17---------17---13-----15---|
-----16-------------12-----14----------------------12-----14-|
-------------------------------------------------------------|
-------------------------------------------------------------|
-------------------------------------------------------------|
2
----------------------------------------------------------------|
----------------------------------------------------------------|
--------9-------------9-------------9----------9----------------|
--------X-------------X-------------X----------X---5-5-5-7-7-7--|
--------7\------------7\------------7\---------7\--5-5-5-7-7-7--|
-222222--------222222--------222222-----222222-----5-5-5-7-7-7--|
 ******        ******        ******     ******     * * * * * *

1
                                     )~~
-19-------19----15-----14------19---19----19---15-----17-----|
---17-------17----13-----15------17---------17---13-----15---|
-----16-------------12-----14----------------------12-----14-|
-------------------------------------------------------------|
-------------------------------------------------------------|
-------------------------------------------------------------|
2
----------------------------------------------------------------|
----------------------------------------------------------------|
--------9-------------9-------------9----------9----------------|
--------X-------------X-------------X----------X---5-5-5-7-7-7--|
--------7\------------7\------------7\---------7\--5-5-5-7-7-7--|
-222222--------222222--------222222-----222222-----5-5-5-7-7-7--|
 ******        ******      - ******     ******



1
                                     )~~
-19-------19----15-----14------19---19----19---15-----17-----|
---17-------17----13-----15------17---------17---13-----15---|
-----16-------------12-----14----------------------12-----14-|
-------------------------------------------------------------|
-------------------------------------------------------------|
-------------------------------------------------------------|
2
-------------------------------------------------------------|
-------------------------------------------------------------|
--------------------------------------------------9-----7----|
-2-----------------------------2------------------X-----X----|
-2-----------------------------2------------------7-----5----|
-2-----------------------------2-----------------------------|

1
                                     )~~
-19-------19----15-----14------19---19----19-------------|
---17-------17----13-----15------17---------17-----------|
-----16-------------12-----14----------------------------|
---------------------------------------------------------|
---------------------------------------------------------|
---------------------------------------------------------|
2
------------------------------------------------------------|
------------------------------------------------------------|
------------------------------------------------------------|
-2--------------5---7-----------2---------------------------|
-2--------------3---5-----------2--------3-3-3-5-5-5-7------|
-2------------------------------2--------5-5-5-7-7-7-9------|
                                         * * * * * *







|||||||||||||||||||||||||||||||||||||||||||||||||||
|||||||||||||||||||||||||||||||||||||||||||||||||||
|||||||||||||||||||||||||||||||||||||||||||||||||||
|||||||||||||||||||||||||||||||||||||||||||||||||||







PARKWAY DRIVE

DARK DAYS

A#-F-A#-D#-G-C




INTRO
0:08
--------------------------------------------------------------------------|
--------------------------------------------------------------------------|
---------------------------------9------------------------------------9---|
----7-8-----8-10------10-12-12-----10-----7-8-----8-10-----10-12-12-----10|
------------------------------12-----------------------------------12-----|
0-7-----0-8------0-10-----------------0-7-----0-8------0-10---------------|
* * *   * * *    *  *  *              * * *   * * *    *  * * 


0:16
GT1
--------------------------------------------------------------------------|
--------------------------------------------------------------------------|
---------------------------------9------------------------------------9---|
----7-8-----8-10------10-12-12-----10-----7-8-----8-10-----10-12-12-----10|
------------------------------12-----------------------------------12-----|
0-7-----0-8------0-10-----------------0-7-----0-8------0-10---------------|
* * *   * * *    *  *  *              * * *   * * *    *  * * 

GT2
--------------------------------------------------------------------------|
--------------------------------------------------------------------------|
--------------------------------------------------------------------------|
0-------------------------------------------------------------------------|
0--------------------------------------0--0--0--0--0--0--0--0--0--0--0--0-|
0--------------------------------------0--0--0--0--0--0--0--0--0--0--0--0-|
                                       *  *  *  *  *  *  *  *  *  *  *  *   

0:24
B
------------------------------------------------------------------|
------------------------------------------------------------------|
---------------------------------9--------------------------------|
----7-8-----8-10------10-12-12-----10-----7-8-----8-10-----10-12--|
------------------------------12----------------------------------|
0-7-----0-8------0-10-----------------0-7-----0-8------0-10-------|



0:32
GT1  
------------------------------------------|
------------------------------------------|
----------------------------------9-------|
-----7-8-----8-10------10-12-12-----10----|
-------------------------------12---------|
-0-7-----0-8------0-10--------------------|
 * * *   * * *    *  *  *                     
GT2  
------------------------------------------|
------------------------------------------|
-----------------------------14--12-------|
-------------------------------15--14-----|
-0-0-----0-0------0-0---------------------|
-0-0-----0-0------0-0---------------------|
 * *     * *      * *                    


GT1 
------------------------------------------|
------------------------------------------|
----------------------------------9-------|
-----7-8-----8-10------10-12-12-----10----|
-------------------------------12---------|
-0-7-----0-8------0-10--------------------|
 * * *   * * *    *  *  *                     
GT2 
------------------------------------------|
------------------------------------------|
-----------------------------14--12-------|
-------------------------------15--14-----|
-0-0-----0-0------0-0---------------------|
-0-0-----0-0------0-0---------------------|
 * *     * *      * *                    

                   
GT1 
------------------------------------------|
------------------------------------------|
----------------------------------9-------|
-----7-8-----8-10------10-12-12-----10----|
-------------------------------12---------|
-0-7-----0-8------0-10--------------------|
 * * *   * * *    *  *  *                      
GT2 
------------------------------------------|
------------------------------------------|
-----------------------------14--12-------|
-------------------------------15--14-----|
-0-0-----0-0------0-0---------------------|
-0-0-----0-0------0-0---------------------|
 * *     * *      * *                    
                  
    
GT1 
------------------------------------------|
------------------------------------------|
----------------------------------9-------|
-----7-8-----8-10------10-12-12-----10----|
-------------------------------12---------|
-0-7-----0-8------0-10--------------------|
 * * *   * * *    *  *  *                      
GT2 
------------------------------------------|
------------------------------------------|
-----------------------------14--12-------|
-------------------------------15--14-----|
-0-0-----0-0------0-0---------------------|
-0-0-----0-0------0-0---------------------|
 * *     * *      * *                    
                    

   
0:48

INTERLUDE
---------------------------------------------|
---------------------------------------------|
------------------------14-14-14-14-14-------|
------------------------14-14-14-14-14-------|
-8----------------------12-12-12-12-12\------|
-8-------------------------------------------|



0:55
-------------------------------------------------------|
-------------------------------------------------------|
-------------------------------------------------------|
-------5-7-------5-8---------------------------7-------|
-5-7-8-----5-7-8------5-7-8-----------7-7-8-10---10-8-7|
-----------------------------00000-00------------------|
     *         *             ***** ** 
                     
-------------------------------------------------------|
-------------------------------------------------------|
-------------------------------------------------------|
-------5-7-------5-8---------------------------7-------|
-5-7-8-----5-7-8------5-7-8-----------7-7-8-10---10-8-7|
-----------------------------00000-00------------------|
     *         *             ***** ** 

-------------------------------------------------------|
-------------------------------------------------------|
-------------------------------------------------------|
-------5-7-------5-8---------------------------7-------|
-5-7-8-----5-7-8------5-7-8-----------7-7-8-10---10-8-7|
-----------------------------00000-00------------------|
     *         *             ***** **

----------------------------------------------|
----------------------------------------------|
----------------------------------------------|
-------5-7-------5-8--------------------14----|
-5-7-8-----5-7-8------5-7-8-------------12\---|
-----------------------------00000-00---------|
     *         *             ***** **



1:10
GT1
-----------------------------------------|
-----------------------------------------|
-----------------------------------------|
-------5-7-------5-8---------------------|
-5-7-8-----5-7-8------7-8--7~~~~---------|
-----------------------------------------|
 * * * *   * * * *    * *    
GT2
-----------------------------------------|
-----------------------------------------|
-----------------------------------------|
----------3--3------5--5-----------------|
-0--0-----1--1------3--3-----------------|
-0--0-------------------------77-3-55-2--|
 *  *     *  *      *  *      ** * ** * 

GT1
-----------------------------------------|
-----------------------------------------|
-----------------------------------------|
-------5-7-------5-8---------------------|
-5-7-8-----5-7-8------7-8--7~~~~---------|
-----------------------------------------|
 * * * *   * * * *    * *    
GT2
-----------------------------------------|
-----------------------------------------|
-----------------------------------------|
----------3--3------5--5-----------------|
-0--0-----1--1------3--3-----------------|
-0--0------------------------------------|
 *  *     *  *      *  *       

GT1
-----------------------------------------|
-----------------------------------------|
-----------------------------------------|
-------5-7-------5-8---------------------|
-5-7-8-----5-7-8------7-8--7~~~~---------|
-----------------------------------------|
 * * * *   * * * *    * *    
GT2
-----------------------------------------|
-----------------------------------------|
-----------------------------------------|
----------3--3------5--5-----------------|
-0--0-----1--1------3--3-----------------|
-0--0-------------------------77-3-55-2--|
 *  *     *  *      *  *      ** * ** * 

GT1
-----------------------------------------|
-----------------------------------------|
-----------------------------------------|
-------5-7-------5-8---------------------|
-5-7-8-----5-7-8------7-8--7~~~~---------|
-----------------------------------------|
 * * * *   * * * *    * *    
GT2
-----------------------------------------|
-----------------------------------------|
-----------------------------------------|
----------3--3------5--5------P----------|
-0--0-----1--1------3--3--------S--------|
-0--0-----------------------------\------|
 *  *     *  *      *  *       


1:25

-------------------------------------------------------|
-------------------------------------------------------|
-------------------------------------------------------|
-------------------------------------------------------|
-------------------------------------------------------|
-5-7-8-8-0--5-7-8-8-0--0000-5-7-8-8-0--5-7-8-8-0--0000-|
                       ****                       ****       
----------------------------------------|
----------------------------------------|
----------------------------------------|
----------------------------------------|
-00---00----00-0-0-0---0-00---0000-00---|
-00---00----00-0-0-0---0-00---0000-00---|
 **   **    ** * * *   * **   **** **

-------------------------------------------------------|
-------------------------------------------------------|
-----------------------XXXX-----------------------XXXX-|
-----------------------XXXX-----------------------XXXX-|
-----------------------XXXX-----------------------XXXX-|
-5-7-8-8-0--5-7-8-8-0--XXXX-5-7-8-8-0--5-7-8-8-0--XXXX-|
                       ****                       ****  

----------------------------------------|
----------------------------------------|
----------------------------------------|
----------------------------------------|
-00---00----00-0-0-0---0-00------5----7-|
-00---00----00-0-0-0---0-00---00-5-00-7-|
 **   **    ** * * *   * **   **   **



1:40

----------------------------------------|
----------------------------------------|
----------------------------------------|
-------------------------7----3---------|
-8-------------5---------7----3---------|
-8-------------5---------7----3---------|

----------------------------------------|
----------------------------------------|
----------------------------------------|
----------------------------------------|
-00---00----00-0-0-0---0-00---0000-00---|
-00---00----00-0-0-0---0-00---0000-00---|
 **   **    ** * * *   * **   **** **

----------------------------------------|
------------------------10----6---------|
-------------------------7----3---------|
-------------------------7----3---------|
-8-------------5---------7----3---------|
-8-------------5---------7----3---------|

----------------------------------------|
----------------------------------------|
----------------------------------------|
----------------------------------------|
-00---00----00-0-0-0---0-00---0000-00---|
-00---00----00-0-0-0---0-00---0000-00---|
 **   **    ** * * *   * **   **** **
---------------------------------------------|
---------------------------------------------|
------------------------14-14-14-14-14-------|
------------------------14-14-14-14-14-------|
-8----------------------12-12-12-12-12\------|
-8-------------------------------------------|


1:59
-------------------------------------------------------|
-------------------------------------------------------|
-------------------------------------------------------|
-------5-7-------5-8---------------------------7-------|
-5-7-8-----5-7-8------5-7-8-----------7-7-8-10---10-8-7|
-----------------------------00000-00------------------|
     *         *             ***** ** 
                     
-------------------------------------------------------|
-------------------------------------------------------|
-------------------------------------------------------|
-------5-7-------5-8---------------------------7-------|
-5-7-8-----5-7-8------5-7-8-----------7-7-8-10---10-8-7|
-----------------------------00000-00------------------|
     *         *             ***** ** 

-------------------------------------------------------|
-------------------------------------------------------|
-------------------------------------------------------|
-------5-7-------5-8---------------------------7-------|
-5-7-8-----5-7-8------5-7-8-----------7-7-8-10---10-8-7|
-----------------------------00000-00------------------|
     *         *             ***** **

----------------------------------------------|
----------------------------------------------|
----------------------------------------------|
-------5-7-------5-8--------------------14----|
-5-7-8-----5-7-8------5-7-8-------------12\---|
-----------------------------00000-00---------|
     *         *             ***** **



1:10
GT1
-----------------------------------------|
-----------------------------------------|
-----------------------------------------|
-------5-7-------5-8---------------------|
-5-7-8-----5-7-8------7-8--7~~~~---------|
-----------------------------------------|
 * * * *   * * * *    * *    
GT2
-----------------------------------------|
-----------------------------------------|
-----------------------------------------|
----------3--3------5--5-----------------|
-0--0-----1--1------3--3-----------------|
-0--0-------------------------77-3-55-2--|
 *  *     *  *      *  *      ** * ** * 

GT1
-----------------------------------------|
-----------------------------------------|
-----------------------------------------|
-------5-7-------5-8---------------------|
-5-7-8-----5-7-8------7-8--7~~~~---------|
-----------------------------------------|
 * * * *   * * * *    * *    
GT2
-----------------------------------------|
-----------------------------------------|
-----------------------------------------|
----------3--3------5--5-----------------|
-0--0-----1--1------3--3-----------------|
-0--0------------------------------------|
 *  *     *  *      *  *       

GT1
-----------------------------------------|
-----------------------------------------|
-----------------------------------------|
-------5-7-------5-8---------------------|
-5-7-8-----5-7-8------7-8--7~~~~---------|
-----------------------------------------|
 * * * *   * * * *    * *    
GT2
-----------------------------------------|
-----------------------------------------|
-----------------------------------------|
----------3--3------5--5-----------------|
-0--0-----1--1------3--3-----------------|
-0--0-------------------------77-3-55-2--|
 *  *     *  *      *  *      ** * ** * 

GT1
-----------------------------------------|
-----------------------------------------|
-----------------------------------------|
-------5-7-------5-8---------------------|
-5-7-8-----5-7-8------7-8--7~~~~---------|
-----------------------------------------|
 * * * *   * * * *    * *    
GT2
-----------------------------------------|
-----------------------------------------|
-----------------------------------------|
----------3--3------5--5------P----------|
-0--0-----1--1------3--3--------S--------|
-0--0-----------------------------\------|
 *  *     *  *      *  *       






----------------------------------------|
----------------------------------------|
----------------------------------------|
-------------------------7----3---------|
-8-------------5---------7----3---------|
-8-------------5---------7----3---------|

----------------------------------------|
----------------------------------------|
----------------------------------------|
----------------------------------------|
-00---00----00-0-0-0---0-00---0000-00---|
-00---00----00-0-0-0---0-00---0000-00---|
 **   **    ** * * *   * **   **** **

                         
----------------------------------------|
--------------------------10---6--------|
---------------------------7---3--------|
---------------------------7---3--------|
-8-------------5-----------7---3--------|
-8-------------5-----------7---3--------|


----------------------------------------|
----------------------------------------|
----------------------------------------|
----------------------------------------|
-00---00----00-0-0-0---0-00------5----7-|
-00---00----00-0-0-0---0-00---00-5-00-7-|
 **   **    ** * * *   * **   **   **


2:44

GT1
----------------------------------------|
-----GRAD BEND---^----------------------|
--12-----------12-10-12~~~--------------|
----------------------------------------|
----------------------------------------|
----------------------------------------|
GT2
----------------------------------------|
----------------------------------------|
----------------------------------------|
-------------------------7----3---------|
-8-------------5---------7----3---------|
-8-------------5---------7----3---------|

GT1
-15--17--13--15--17--13--15--17-------|
---15--15--15--15--15--15--15--15-----|
--------------------------------------|
--------------------------------------|
--------------------------------------|
--------------------------------------|
GT2
----------------------------------------|
----------------------------------------|
----------------------------------------|
----------------------------------------|
-00---00----00-0-0-0---0-00---0000-00---|
-00---00----00-0-0-0---0-00---0000-00---|
 **   **    ** * * *   * **   **** **

GT1                  )  (
-/18--17-15-20~~~--20--------------------|
-----------------------------------------|
-----------------------------------------|
-----------------------------------------|
-----------------------------------------|
-----------------------------------------|
GT2
----------------------------------------|
--------------------------10---6--------|
---------------------------7---3--------|
---------------------------7---3--------|
-8-------------5-----------7---3--------|
-8-------------5-----------7---3--------|


GT1
-15--17--13--15--17--13--15--17-------|
---15--15--15--15--15--15--15--15-----|
--------------------------------------|
--------------------------------------|
--------------------------------------|
--------------------------------------|
GT2
--------------------------------------|
--------------------------------------|
--------------------------------------|
--------------------------------------|
-00---00----00-0-0-0---0-00---0000-00-|
-00---00----00-0-0-0---0-00---0000-00-|
 **   **    ** * * *   * **   **** **



2:59

-----------------------------------|
-----------------------------------|
-----------------------------------|
-----------------------------------|
-----------------------------------|
-0-0-0-0-0-0-0-0-0-0-0-0-0-111111--|
 * * * * * * * * * * * * * ******

-----------------------------------|
-----------------------------------|
-----------------------------------|
-----------------------------------|
-----------------------------------|
-0-0-0-0-0-0-0-0-0-0-0-0-0-111111--|
 * * * * * * * * * * * * * ******


3:07

GT1
-----------------------------------|
-----------------------------------|
-----------------------------------|
-----7-8---------------------------|
-----------------------------------|
-0-7-------------------------------|
 * * *
GT2
-----------------------------------|
-----------------------------------|
-----------------------------------|
-----------------------------------|
-----------------------------------|
-0-0-0-0-0-0-0-0-0-0-0-0-0-111111--|
 * * * * * * * * * * * * * ******

GT1
------------------------------------|
------------------------------------|
------------------------------------|
-----7-7----~---~----~--------------|
------------------------------------|
-0-7--------------------------------|
 * * *
GT2
-----------------------------------|
-----------------------------------|
-----------------------------------|
-----------------------------------|
-----------------------------------|
-0-0-0-0-0-0-0-0-0-0-0-0-0-111111--|
 * * * * * * * * * * * * * ******
GT1
-----------------------------------|
-----------------------------------|
-----------------------------------|
-----7--8--------------------------|
-----------------------------------|
-0-7-------------------------------|
 * * *
GT2
-----------------------------------|
-----------------------------------|
-----------------------------------|
-----------------------------------|
-----------------------------------|
-0-0-0-0-0-0-0-0-0-0-0-0-0-111111--|
 * * * * * * * * * * * * * ******

GT1
------------------------------------|
------------------------------------|
------------------------------------|
-----7-7----~---~----~--------------|
------------------------------------|
-0-7--------------------------------|
* * *
GT2
-----------------------------------|
-----------------------------------|
-----------------------------------|
-----------------------------------|
-----------------------------------|
-0-0-0-0-0-0-0-0-0-0-0-0-0-0-0-0---|
 * * * * * * * * * * * * * * * *




GT1+2
--------------------------------------------------------------------|
--------------------------------------------------------------------|
------------------------------------9-------------------------------|
-----7-8------8-10-------10-12-12-----10-----7-8------8-10----------|
---------------------------------12---------------------------------|
-0-7------0-8-------0-10-----------------0-7------0-8--------0-|----|


--------------------------|
--------------------------|
--------------------------|
--------------------------|
-0-0----0-0----0-0--------|
-0-0----0-0----0-0--------|
 * *    * *    * *


--------------------------|
--------------------------|
---------------------ph3~~|
--------------------------|
-0-0----0-0----0-0--------|
-0-0----0-0----0-0--------|
 * *    * *    * *



L
-------------------------------------------------------------|
-------------------------------------------------------------|
------------------------------9------------------------------|
-------------------------12----10----------------------------|
---------------------------12--------------------------------|
-0-0-000-0-0-000-0-0-000----------0-0-000-0-0-000---8---10---|
 * * *** * * *** * * ***          * * *** * * ***
R
-------------------------------------------------------------|
-------------------------------------------------------------|
--------------------------14--12-----------------------------|
----------------------------15--14---------------------------|
-------------------------------------------------------------|
-0-0-000-0-0-000-0-0-000----------0-0-000-0-0-000--12---14---|
 * * *** * * *** * * ***          * * *** * * ***

B
---------------------------------------|
---------------------------------------|
---------------------------------------|
---------------------------------------|
---------------------------------------|
-0-0-0000-0-0-0000-0-0-0000-0000-0000--|
 * * **** * * **** * * **** **** ****

---------------------------------------|
---------------------------------------|
---------------------------------------|
---------------------------------------|
---------------------------------------|
-0-0-0000-0-0-0000-0-0-0000-0000-0000--|
 * * **** * * **** * * **** **** ****

---------------------------------------|
---------------------------------------|
---------------------------------------|
---------------------------------------|
---------------------------------------|
-0-0-0000-0-0-0000-0-0-0000-0000-0000--|
 * * **** * * **** * * **** **** ****
------------------|
------------------|
------------------|
------------------|
-0-0---0-0---0-0--|
-0-0---0-0---0-0--|
 * *   * *   * * 






|||||||||||||||||||||||||||||||||||||||||||||||||||||||
|||||||||||||||||||||||||||||||||||||||||||||||||||||||
|||||||||||||||||||||||||||||||||||||||||||||||||||||||
|||||||||||||||||||||||||||||||||||||||||||||||||||||||











PARKWAY DRIVE

THE RIVER

B-F#-B-E-G#-C#





-10-----------8--10--------------10-----------8--10-----------|
-10-----------8--10--------------10-----------8--10-----------|
-10-----------9--10--------------10-----------9--10-----------|
--8----------10--12---------------8----------10--12-----------|
--------------------------------------------------------------|
--------------------------------------------------------------|

-10-----------8--10--------------10---------------------------|
-10-----------8--10--------------10---------------------------|
-10-----------9--10--------------10---------------------------|
--8----------10--12---------------8---------------------------|
--------------------------------------------------------------|
--------------------------------------------------------------|



0:28

  ^                                     
-6-5----------5------------^------------___---------|
-----6----6-----6---6-----6-5----------/   \--------|
-------7-- -------7----7------7-5--7--7/9\7/9--9----|
----------8------------5-----------7----------10----|
----------------------------------------------------|
----------------------------------------------------|

  ^                                     
-6-5----------5------------^--------------------|
-----6----6-----6---6-----6-5----------10-------|
-------7--x-------7----7------7-5--7---------9--|
----------8------------5-----------7--------10--|
------------------------------------------------|
------------------------------------------------|



0:43

1
  ^                                     
-6-5----------5------------^-------------___--------|
-----6---6------6---6-----6-5-----------/   \-------|
-------7-X--------7---7-------7-5--7---7/9\7/9---9--|
---------8------------5------------7------------10--|
----------------------------------------------------|
----------------------------------------------------|
2
---------------------------------------------------------------|
---------------------------------------------------------------|
---------------------------------------------------------------|
---------------------------------------------------------------|
--------------8---------------5-------------0---0-0-0-0--3-----|
--------------8---------------5-------------0---0-0-0-0--3-----|
                                                * * * * 

1
  ^                                     
-6-5----------5------------^-------------___--------|
-----6---6------6---6-----6-5-----------/   \-------|
-------7-X--------7---7-------7-5--7---7/9\7/9---9--|
---------8------------5------------7------------10--|
----------------------------------------------------|
----------------------------------------------------|
2
----------------------------------------------------------|
----------------------------------------------------------|
----------------------------------------------------------|
----------------------------------------------------------|
---------8---------------5-------------0---0-0-0-0--3-----|
---------8---------------5-------------0---0-0-0-0--3-----|
                                           * * * * 

0:58

---------------------------------------------------------------|
---------------------------------------------------------------|
---------------------------------------------------------------|
----------------------------------------------p----------------|
-0---------------------------------------------s-\-------------|
-0-----------------------------------------------\-------------|



1:13
------------------------------------------------------------------------|
------------------------------------------------------------------------|
------------------------------------------------------------------------|
------------------------------------------------------------------------|
------5----5---5-8-----------5---3--------5---5---3-5-----------5---3---|
-8888--88---88-----00-5-00-5--00- 00-0000--00--00-----00-3-00-3--00--00-|
 ****  **   **     **   **    **  ** ****  **  **     **   **    **  **

------------------------------------------------------------------------|
------------------------------------------------------------------------|
------------------------------------------------------------------------|
------------------------------------------------------------------------|
------5----5---5-8-----------5---3--------5---5---3-5-----------5---3---|
-8888--88---88-----00-5-00-5--00- 00-0000--00--00-----00-3-00-3--00--00-|
 ****  **   **     **   **    **  ** ****  **  **     **   **    **  **


1:28
L
------------------------------------------------------------------------|
------------------------------------------------------------------------|
------------------------------------------------------------------------|
------------------------------------------------------------------------|
------5----5---5-8-----------5---3--------5---5---3-5-----------5---3---|
-8888--88---88-----00-5-00-5--00- 00-0000--00--00-----00-3-00-3--00--00-|
 ****  **   **     **   **    **  ** ****  **  **     **   **    **  **
R
-----------------------------------------------------------------------|
-----------------------------------------------------------------------|
-----------------------------------------------------------------------|
-----------------------------------------------------------------------|
--------8----8----8-12----------12--8-------8--8--7-8----------8---7---|
12121212-1212-1212----00-8-00-8---00-00-0000-00-00---00-7-00-7--00--00-|
 * * * *  * *  * *    **   **     ** ** **** ** **   **   **    **  **

L
----------------------------------------------------------------|
----------------------------------------------------------------|
----------------------------------------------------------------|
----------------------------------------------------------------|
------5----5---5-8-----------5---3--------5---5---3-5-----------|
-8888--88---88-----00-5-00-5--00- 00-0000--00--00-----00-3-00-3-|
 ****  **   **     **   **    **  ** ****  **  **     **   **    
R
----------------------------------------------------------------|
----------------------------------------------------------------|
----------------------------------------------------------------|
----------------------------------------------------------------|
--------8----8----8-12----------12--8-------8--8--7-8-----------|
12121212-1212-1212----00-8-00-8---00-00-0000-00-00---00-7-00-7--|
 * * * *  * *  * *    **   **     ** ** **** ** **   **   **    



1:43

1
  ^                                     
-6-5----------5------------^-------------___--------|
-----6---6------6---6-----6-5-----------/   \-------|
-------7-X--------7---7-------7-5--7---7/9\7/9---9--|
---------8------------5------------7------------10--|
----------------------------------------------------|
----------------------------------------------------|
2
----------------------------------------------------------|
----------------------------------------------------------|
----------------------------------------------------------|
----------------------------------------------------------|
---------8---------------5-------------0---0-0-0-0--3-----|
---------8---------------5-------------0---0-0-0-0--3-----|
                                           * * * * 

1
  ^                                     
-6-5----------5------------^-------------___--------|
-----6---6------6---6-----6-5-----------/   \-------|
-------7-X--------7---7-------7-5--7---7/9\7/9---9--|
---------8------------5------------7------------10--|
----------------------------------------------------|
----------------------------------------------------|
2
----------------------------------------------------------|
----------------------------------------------------------|
----------------------------------------------------------|
----------------------------------------------------------|
---------8---------------5-------------0---0-0-0-0--3-----|
---------8---------------5-------------0---0-0-0-0--3-----|
                                           * * * * 


1:57

1
-------8-----5--------------8------5---------|
--6------5-----5-------6------5------5-------|
----9------7-------------9------7-------7----|
---------------------------------------------|
---------------------------------------------|
---------------------------------------------|
2
---------------------------------------------|
---------------------------------------------|
---------------------------------------------|
-10-------------------12---------------------|
--8-------------------10---------------------|
--8-------------------10---------------------|


1
-------8------5----------------8------5------|
--6-------------5---------6------5------5----|
----9----9-7-------7--------9------7---------|
---------------------------------------------|
---------------------------------------------|
---------------------------------------------|
2
---------------------------------------------|
---------------------------------------------|
---------------------------------------------|
-0------------------------12-----------------|
-0------------------------10-----------------|
-0------------------------10-----------------|


---------------------------------------------------|
---------------------------------------------------|
---------------------------------------------------|
-0-------------------------------------------------|
-0-------------------------------------------------|
-0-------------------------------------------------|




2:19

L
----------------------------------------------------___________----|
---------------------------------------------------/           \---|
--------------------------------------------------5-7-5-7-5-7-5-7--|
--------------------------------------------------X-X-X-X-X-X-X-x--|
-0-0-0-0-0-0-0-0-8-8-8-8-8-8-8-8-5-5-5-5-5-5-5-5--3/5\3/5\3/5\3/5--|
-0-0-0-0-0-0-0-0-8-8-8-8-8-8-8-8-5-5-5-5-5-5-5-5-------------------|
 * * * * * * * * * * * * * * * * * * * * * * * * 
R
---------------------------------------------------______________---|
--------------------------------------------------/              \--|
-------------------------------------------------9-10-9-10-9-10-9-10|
-------------------------------------------------X--X-X--X-X--X-X--x|
-0-0-0-0-0-0-0-0-8-8-8-8-8-8-8-8-5-5-5-5-5-5-5-5-7/-8\7/-8\7/-8\7-/8|
-0-0-0-0-0-0-0-0-8-8-8-8-8-8-8-8-5-5-5-5-5-5-5-5--------------------|



2:26

------------------------------------------------------------------------|
------------------------------------------------------------------------|
------------------------------------------------------------------------|
------------------------------------------------------------------------|
------5----5---5-8-----------5---3--------5---5---3-5-----------5---3---|
-8888--88---88-----00-5-00-5--00- 00-0000--00--00-----00-3-00-3--00--00-|
 ****  **   **     **   **    **  ** ****  **  **     **   **    **  **

------------------------------------------------------------------------|
------------------------------------------------------------------------|
------------------------------------------------------------------------|
------------------------------------------------------------------------|
------5----5---5-8-----------5---3--------5---5---3-5-----------5---3---|
-8888--88---88-----00-5-00-5--00- 00-0000--00--00-----00-3-00-3--00--00-|
 ****  **   **     **   **    **  ** ****  **  **     **   **    **  **



2:41

L
--------------------------__----------------_____________------|
-------------------------/  \--------------/             \-----|
------7----7-------7----7-10-9-------5----5-7-5-7-5-7-5-7-5----|
------X----X-------X----X--X-X-------X----X-X-X-X-X-X-X-X-X----|
------5----5~~-----5----5/-8\7-------3----3/5\3/5\3/5\3/5\3~~--|
-0000---00------00---00-----------00---00----------------------|
 ****   **      **   **           **   **
R
---------------------------------------------_________________-----|
--------------------------------------------/                 \----|
-----10---10------10---10-14-12------9-----9-10-9-10-9-10-9-10-9---|
------X----X-------X----X-X---X------X-----x--x-x--x-x--x-x--x-x---|
------8----8~~-----8----8/12\10------7-----7/-8\7/-8\7/-8\7/-8\7~~-|
-0000---00------00---00-----------00---00--------------------------|
 ****   **      **   **           **   **

L
--------------------------__----------------_____________------|
-------------------------/  \--------------/             \-----|
------7----7-------7----7-10-9-------5----5-7-5-7-5-7-5-7-5----|
------X----X-------X----X--X-X-------X----X-X-X-X-X-X-X-X-X----|
------5----5~~-----5----5/-8\7-------3----3/5\3/5\3/5\3/5\3~~--|
-0000---00------00---00-----------00---00----------------------|
 ****   **      **   **           **   **
R
---------------------------------------------_________________-----|
--------------------------------------------/                 \----|
-----10---10------10---10-14-12------9-----9-10-9-10-9-10-9-10-9---|
------X----X-------X----X-X---X------X-----x--x-x--x-x--x-x--x-x---|
------8----8~~-----8----8/12\10------7-----7/-8\7/-8\7/-8\7/-8\7~~-|
-0000---00------00---00-----------00---00--------------------------|
 ****   **      **   **           **   **




2:56

L
-10---------------8--10--------------10-----------8--10-----------|
-10---------------8--10--------------10-----------8--10-----------|
-10---------------9--10--------------10-----------9--10-----------|
--8--------------10--12---------------8----------10--12-----------|
------------------------------------------------------------------|
------------------------------------------------------------------|
R                                                  _____________
-15-13-12--------------------------/15-13-12------/             \--|
---------15~~-------------------------------15~-131513151315131513-|
-----------------14-12---------------------------------------------|
----------------------------15\14----------------------------------|
-------------------------------------------------------------------|
-------------------------------------------------------------------|
               ___
CONT_____      ) (
---)------13-13-------------|
-15----------16----13~~~~---|
----------------------------|
----------------------------|
----------------------------|
----------------------------|


3:11

L
-10--------------------8--10-----------------|
-10--------------------8--10-----------------|
-10--------------------9--10-----------------|
--8-------------------10--12-----------------|
---------------------------------------------|
---------------------------------------------|
R
-------8------5----------------8------5------|
--6-------------5---------6------5------5----|
----9----9-7-------7--------9------7---------|
---------------------------------------------|
---------------------------------------------|
---------------------------------------------|

L
-10------------------------------8-----5-----|
-10-------------------------6------------5---|
-10---------------------------9----9-7-------|
--8------------------------------------------|
---------------------------------------------|
---------------------------------------------|
R
-------8------5------------------------------|
--6-------------5----------------------------|
----9----9-7---------------------------------|
---------------------------------------------|
---------------------------------------------|
---------------------------------------------|

L
-------8------5--------|
--6-------------5------|
----9----9-7-------7---|
-----------------------|
-----------------------|
-----------------------|
R
-----------------------|
--6--------------------|
----9-7-9---------7----|
-----------------------|
-----------------------|
-----------------------|

L
-------8------5--------|
--6-------------5------|
----9----9-7-------7---|
-----------------------|
-----------------------|
-----------------------|
R
-----------------------|
--6--------------------|
----9-7-9---------7----|
-----------------------|
-----------------------|
-----------------------|
L
-------8------5--------|
--6-------------5------|
----9----9-7-------7---|
-----------------------|
-----------------------|
-----------------------|
R
-----------------------|
--6--------------------|
----9-7-9---------7----|
-----------------------|
-----------------------|
-----------------------|

L
-------8------5--------|
--6-------------5------|
----9----9-7-------7---|
-----------------------|
-----------------------|
-----------------------|
R
-----------------------|
--6--------------------|
----9-7-9---------7----|
-----------------------|
-----------------------|
-----------------------|



3:40

-------------------------------------------------------|
-------------------------------------------------------|
-------------------------------------------------------|
-------------------------------------------------------|
-00-0-0-00----00-0-0-00----00-0-0-00----00-0-0-0---)(--|
-00-0-0-00----00-0-0-00----00-0-0-00----00-0-0-0-10----|
 ** * * **    ** * * **    ** * * **    ** * * *

-------------------------------------------------------|
-------------------------------------------------------|
-------------------------------------------------------|
-00-0-0-00----00-0-0-00----00-0-0-00----00-0-0-0-------|
-00-0-0-00----00-0-0-00----00-0-0-00----00-0-0-0---)(--|
-00-0-0-00----00-0-0-00----00-0-0-00----00-0-0-0-14----|
 ** * * **    ** * * **    ** * * **    ** * * *


3:55

L
-8---------------8----------------8--------------8-------------|
----6--5---5--6-----6--5----5--6----6--5---5--6----6--5----5-6-|
---------7----------------7--------------7---------------7-----|
---------------------------------------------------------------|
---------------------------------------------------------------|
---------------------------------------------------------------|
RYTHM
----------------------------------------------------------------------|
----------------------------------------------------------------------|
----------------------------------------------------------------------|
----------------------------------------------------------------------|
--------------------------------------------------------------------)(|
88-8-88-88-8-88-1010-10-1010-1010-10-1010-00-0-00-00-0-00-00-0-00-10--|
** * ** ** * **  * *  *  * *  * *  *  * * ** * ** ** * ** ** * **



4:02
L
-8---------------8----------------8---------------|
----6--5---5--6-----6--5----5--6----6--5---5--6---|
---------7----------------7--------------7--------|
--------------------------------------------------|
--------------------------------------------------|
--------------------------------------------------|
R
-8----------------10----------------12-------------------|
---10----------10----10----------10----10---------10-----|
------12-10-12----------12-10-12----------12-10-12-------|
---------------------------------------------------------|
---------------------------------------------------------|
---------------------------------------------------------|
RYTHM
-------------------------------------------------------------------|
-------------------------------------------------------------------|
-------------------------------------------------------------------|
-------------------------------------------------------------------|
-------------------------------------------------------------------|
88-8-88-88-8-88-1010-10-1010-1010-10-1010-1212-12-1212-1212-12-1212|
** * ** ** * **  * *  *  * *  * *  *  * *  * *  *  * *  * *  *  * * 


4:08

1
  ^                                     
-6-5----------5------------^-------------___--------|
-----6---6------6---6-----6-5-----------/   \-------|
-------7-X--------7---7-------7-5--7---7/9\7/9---9--|
---------8------------5------------7------------10--|
----------------------------------------------------|
----------------------------------------------------|
2
--------------------------------------------------------|
--------------------------------------------------------|
--------------------------------------------------------|
--------------------------------------------------------|
---------8---------------5-------------0---0-0-0-0--3---|
---------8---------------5-------------0---0-0-0-0--3---|
                                           * * * * 

1
  ^                                     
-6-5----------5------------^-------------___--------|
-----6---6------6---6-----6-5-----------/   \-------|
-------7-X--------7---7-------7-5--7---7/9\7/9---9--|
---------8------------5------------7------------10--|
----------------------------------------------------|
----------------------------------------------------|
2
---------------------------------------------------------------|
---------------------------------------------------------------|
---------------------------------------------------------------|
---------------------------------------------------------------|
--------------8---------------5-------------0---0-0-0-0--3-----|
--------------8---------------5-------------0---0-0-0-0--3-----|
                                                * * * * 


4:23

----------------------------------------------------|
----------------------------------------------------|
10-9-7-5-----10-9-7-5----10-9-7-5-7---7-9-7-9-5-----|
-X-X-X-X-3----X-X-X-X-5---X-X-X-X-X---X-X-X-X-X-----|
-8\7-5\3-1----8\7-5\3-3---8\7-5\3-5---5/7\5/7-3-----|
----------------------------------------------------|

----------------------------------------------------|
----------------------------------------------------|
10-9-7-5-----10-9-7-5----10-9-7-5-7---7-9-7-9-5-----|
-X-X-X-X-3----X-X-X-X-5---X-X-X-X-X---X-X-X-X-X-----|
-8\7-5\3-1----8\7-5\3-3---8\7-5\3-5---5/7\5/7-3-----|
----------------------------------------------------|



4:38

W/WAH
1
------------------------------------------------------------------------|
-------------------------^--^---^---^---^---^---^---^--^---^--^---^---)(|
------------------------100-90-100-120-140-120-100-90-120-100-90-100-7--|
-8-----7-----5----3-----------------------------------------------------|
------------------------------------------------------------------------|
------------------------------------------------------------------------|

2
---------------------------------------------------|
---------------------------------------------------|
---------------------------------------------------|
---------------------------------------------------|
--8---------------5-------------0---0-0-0-0--3-----|
--8---------------5-------------0---0-0-0-0--3-----|
                                    * * * * 


4:46

1
---------------------------------------------------|
---------------------------------------------------|
-----------9-10-9----------------9-12-9------------|
--12-10-12--------12-10-12-10-12--------12-10------|
---------------------------------------------------|
---------------------------------------------------|

CONT.                            )
----____----------____---------10------------------|
---)----^--------)----^--------13------------------|
-12------10----13------10--------------------------|
-----------12------------12------------------------|
---------------------------------------------------|
---------------------------------------------------|

2
---------------------------------------------------|
---------------------------------------------------|
---------------------------------------------------|
---------------------------------------------------|
--8---------------5-------------0---0-0-0-0--3-----|
--8---------------5-------------0---0-0-0-0--3-----|
                                    * * * * 


4:53

1        )             )           )            )
-------10------------12----------13-----------15----|
-------13------------15----------16-----------18----|
----------------------------------------------------|
----------------------------------------------------|
----------------------------------------------------|
----------------------------------------------------|
2
----------------------------------------------------|
----------------------------------------------------|
10-9-7-5-----10-9-7-5----10-9-7-5-7---7-9-7-9-5-----|
-X-X-X-X-3----X-X-X-X-5---X-X-X-X-X---X-X-X-X-X-----|
-8\7-5\3-1----8\7-5\3-3---8\7-5\3-5---5/7\5/7-3-----|
----------------------------------------------------|


1        )                 )                    )
-------17------17-17-----15-----15-15---------12--------|
-------20----------------18-------------------15--------|
--------------------------------------------------------|
--------------------------------------------------------|
--------------------------------------------------------|
--------------------------------------------------------|
2
----------------------------------------------------|
----------------------------------------------------|
10-9-7-5-----10-9-7-5----10-9-7-5-7--10-910-9-------|
-X-X-X-X-3----X-X-X-X-5---X-X-X-X-X---X-X-X-X-------|
-8\7-5\3-1----8\7-5\3-3---8\7-5\3-5---8\7-8\7--0----|
-----------------------------------------------0----|










|||||||||||||||||||||||||||||||||||||||||||||||||||||
|||||||||||||||||||||||||||||||||||||||||||||||||||||
|||||||||||||||||||||||||||||||||||||||||||||||||||||
|||||||||||||||||||||||||||||||||||||||||||||||||||||










PARKWAY DRIVE

SWING

B-F#-B-E-G#-C#



L
-----------------------------------------------------------------|
-----------------------------------------------------------------|
---_-----------------_--------_------------------_---------------|
--/ \---------------/ \------/ \--------/\------/ \--------------|
-5-8-5-------------5-8-5----5-8-5------7-10----5-8-5-------------|
-------000000000000-----0000------0000------00-------000000000000|
       ************     ****      ****      **       ************
R
---------------------------------------------------------------|
---------------------------------------------------------------|
---------------------------------------------------------------|
---------------------------------------------------------------|
-0-----------------0-------0----------0---------0--------------|
-0---|-------------0--|----0--|-------0--|------0----|---------|


0:06
L                    /
-----------------------------5-7-8--|
--------------------5-6-8-10--------|
-------------5-7--9-----------------|
-------5-7-8------------------------|
-5-7-8------------------------------|
------------------------------------|
R
---------------------------------------10-12-13--|
----------------------------10-11-13-15----------|
-------------------10-12-14----------------------|
----------10-12-13-------------------------------|
-10-12-13----------------------------------------|
-------------------------------------------------|

L
----------------------------------------------------------------------|
----------------------------------------------------------------------|
--_-------------------------------------------------------------------|
-/ \------------------------------------------------------------------|
5-8-5------------------1010--88--77--3-------------5-------5----------|
-----000000000000-12128----8---8---8-3----88757753-5--3578---88757753-|
     ************  * ** * ** *** ***      ********    ****   ********
R
----------------------------------------------------------------------|
----------------------------------------------------------------------|
----------------------------------------------------------------------|
----------------------------------------------------------------------|
-0--------------------1010--88--77--3--------------5--------5---------|
-0--|------------12128----8---8---8-3-----88757753-5---3578---88757753|
                  * ** * ** *** ***       ********     ****  ********


0:13

B
-------------------------------------|
-------------------------------------|
-------------------------------------|
-------------------------------------|
-------------------------------------|
-0-0000-0-00-0-00000000-0-5788757753-|
   ****   **   ********   **********                    

------------------------------------------|
------------------------------------------|
------------------------------------------|
------------------------------------------|
-------------------------5----------7-----|
-0-0000-0-00-0-0000-3578---87557810--1087-|
   ****   **   **** ****   ****** *   ***

--------------------------------------|
--------------------------------------|
--------------------------------------|
--------------------------------------|
--------------------------------------|
-0-0000-0-00-0-00000000-0-5788757753--|
   ****   **   ********   **********  

---------------------------------|
---------------------------------|
---------------------------------|
---------------------------------|
-3-----------5------5------------|
-3--88757753-5-3578---88757753---|
    ********   ****   ********


0:23

--------------------------------------------------------------------|
--------------------------------------------------------------------|
---_-----------------_--------_----------_----------_---------------|
--/ \---------------/ \------/ \--------/ \--------/ \--------------|
-5-8-5-------------5-8-5----5-8-5------7--10------5-8-5-------------|
-------000000000000-----0000------0000--------00-------000000000000-|
       ************     ****      ****        **       ************

L
-----------------------------5-7-8--|
--------------------5-6-8-10--------|
-------------5-7--9-----------------|
-------5-7-8------------------------|
-5-7-8------------------------------|
------------------------------------|
R
----------------------------------------10-12-13--|
-----------------------------10-11-13-15----------|
-------------------10-12--14----------------------|
----------10-12-13--------------------------------|
-10-12-13-----------------------------------------|
--------------------------------------------------|


---------------------------------------------------------------------|
---------------------------------------------------------------------|
--_------------------------------------------------------------------|
-/ \-----------------------------------------------------------------|
5-8-5------------------1010--88--77--3-------------5------5----------|
-----000000000000-12128----8---8---8-3----88757753-5--3578--88757753-|
     ************  * ** * ** *** ***      ********    ****  ********




0:34

---------------------------------------------------------------|
---------------------------------------------------------------|
---------------------------------------------------------------|
---------------------------------------------------------------|
---------------------------------------------------------------|
-0--0----0-|--0-00-00-0-00--00-0-0-0-00-0-0-0-000-000-00-0-0-0-|
              * ** ** * **  ** * * * ** * * * *** *** ** * * *

---------------------------------------------------------------|
---------------------------------------------------------------|
---------------------------------------------------------------|
---------------------------------------------------------------|
---------------------------------------------------------------|
-0--0----0-|--0-00-00-0-00--00-0-0-0-00-0-0-0-000-000-00-0-0-0-|
              * ** ** * **  ** * * * ** * * * *** *** ** * * *


0:47

L
------------------------------------------------------------------------|
------------------------------------------------------------------------|
------------------------------------------------------------------------|
-7-0-3-0-5-0-3-0-7-0-33-0-5-0-33-0-55---22--33--2-2----55--22--33--2-2--|
--------------------------------------3---3---3-----3----3---3---3-----3|
------------------------------------------------------------------------|
 * * * * * * * * * * ** ** *  ** * *************************************
R
---------------------------------------------------------------|
---------------------------------------------------------------|
---------------------------------------------------------------|
---------------------------------------------------------------|
---------------------------------------------------------------|
-0--0----0-|--0-00-00-0-00--00-0-0-0-00-0-0-0-000-000-00-0-0-0-|
              * ** ** * **  ** * * * ** * * * *** *** ** * * *

L
------------------------------------------------------------------------|
------------------------------------------------------------------------|
------------------------------------------------------------------------|
-7-0-3-0-5-0-3-0-7-0-33-0-5-0-33-0-55---22--33--2-2----55--22--33--2-2--|
--------------------------------------3---3---3-----3----3---3---3-----3|
------------------------------------------------------------------------|
 * * * * * * * * * * ** ** *  ** * *************************************
R
---------------------------------------------------------------|
---------------------------------------------------------------|
---------------------------------------------------------------|
---------------------------------------------------------------|
---------------------------------------------------------------|
-0--0----0-|--0-00-00-0-00--00-0-0-0-00-0-0-0-000-000-00-0-0-0-|
              * ** ** * **  ** * * * ** * * * *** *** ** * * *


1:00

L  0  VIBRATO=DEPRESS STRING IN FRONT OF NUT
------------------------------------------------------------------|
----------------------------------------^--------^-------^--------|
-----------------------------)--(------5-4------5-4-----5-4-------|
---------^--5---^-----2-----5----5~~~~-----7-5------7-5-----7-5---|
--5~~~~-7-8----8-7-3-----0----------------------------------------|
------------------------------------------------------------------|
R
------------------------------------------------------------------|
------------------------------------------------------------------|
------------------------------------------------------------------|
-5------------------7----3--------5-------------------------------|
-5------------------7----3--------5-------------------------------|
-5------------------7----3--------5-------------------------------|



1:10

  
L 
---_------------------------_---------------------------|
--/ \----------------------/ \--------------------------|
-79797-----^--------------79797------^------------------|
------10--9-10-10----7-9--------10--9-10-10----7-9------|
------------------10------------------------10----------|
--------------------------------------------------------|
R
--------------------------------------------------------|
--------------------------------------------------------|
--------------------------------------------------------|
--7-------------------------3---------------------------|
--7-------------------------3------PS-\-----------------|
--7-------------------------3---------\-----------------|



1:14

-------------------------------------------------------------------|
-------------------------------------------------------------------|
---_-----------------_--------_--------------------_---------------|
--/ \---------------/ \------/ \--------/\--------/ \--------------|
-5-8-5-------------5-8-5----5-8-5------7-10------5-8-5-------------|
-------000000000000-----0000------0000--------00-------000000000000|
       ************     ****      ****        **       ************

L
-----------------------------5-7-8--|
--------------------5-6-8-10--------|
-------------5-7--9-----------------|
-------5-7-8------------------------|
-5-7-8------------------------------|
------------------------------------|
R
----------------------------------------10-12-13--|
-----------------------------10-11-13-15----------|
-------------------10-12--14----------------------|
----------10-12-13--------------------------------|
-10-12-13-----------------------------------------|
--------------------------------------------------|



---------------------------------------------------------------------|
---------------------------------------------------------------------|
--_------------------------------------------------------------------|
-/ \-----------------------------------------------------------------|
5-8-5------------------1010--88--77--3-------------5------5----------|
-----000000000000-12128----8---8---8-3----88757753-5-3578---88757753-|
     ************  * ** * ** *** ***      ********   ****   ********

-------------------------------------|
-------------------------------------|
-------------------------------------|
-------------------------------------|
-------------------------------------|
-0-0000-0-00-0-00000000-0-5788757753-|
   ****   **   ********   **********                    

--------------------------------------------|
--------------------------------------------|
--------------------------------------------|
--------------------------------------------|
-------------------------5----------7-------|
-0-0000-0-00-0-0000-3578---87557810---1087--|
   ****   **   **** ****   ****** *    ***

-------------------------------------|
-------------------------------------|
-------------------------------------|
-------------------------------------|
-------------------------------------|
-0-0000-0-00-0-00000000-0-5788757753-|
   ****   **   ********   **********  

---------------------------------|
---------------------------------|
---------------------------------|
---------------------------------|
-3------------5------5-----------|
-3---88757753-5-3578---88757753--|
     ********   ****   ********


1:35

---------------------------------------------------------------|
---------------------------------------------------------------|
---------------------------------------------------------------|
---------------------------------------------------------------|
---------------------------------------------------------------|
-0--0----0-|--0-00-00-0-00--00-0-0-0-00-0-0-0-000-000-00-0-0-0-|
              * ** ** * **  ** * * * ** * * * *** *** ** * * *

---------------------------------------------------------------|
---------------------------------------------------------------|
---------------------------------------------------------------|
---------------------------------------------------------------|
---------------------------------------------------------------|
-0--0----0-|--0-00-00-0-00--00-0-0-0-00-0-0-0-000-000-00-0-0-0-|
              * ** ** * **  ** * * * ** * * * *** *** ** * * *


L
------------------------------------------------------------------------|
------------------------------------------------------------------------|
------------------------------------------------------------------------|
-7-0-3-0-5-0-3-0-7-0-33-0-5-0-33-0-55---22--33--2-2----55--22--33--2-2--|
--------------------------------------3---3---3-----3----3---3---3-----3|
------------------------------------------------------------------------|
 * * * * * * * * * * ** ** *  ** * *************************************
R
---------------------------------------------------------------|
---------------------------------------------------------------|
---------------------------------------------------------------|
---------------------------------------------------------------|
---------------------------------------------------------------|
-0--0----0-|--0-00-00-0-00--00-0-0-0-00-0-0-0-000-000-00-0-0-0-|
              * ** ** * **  ** * * * ** * * * *** *** ** * * *

L
------------------------------------------------------------------|
------------------------------------------------------------------|
------------------------------------------------------------------|
-7-0-3-0-5-0-3-0-7-0-33-0-5-0-33-0--55--22--33--2-2----1-1-1-1-0--|
--------------------------------------3---3---3-----3--0-0-0-0-0--|
-------------------------------------------------------1-1-1-1-0--|
 * * * * * * * * * * ** * * * ** *  *** *** *** * * *  * * * *
R
---------------------------------------------------------------|
---------------------------------------------------------------|
---------------------------------------------------------------|
---------------------------------------------------1-1-1-1-0---|
---------------------------------------------------0-0-0-0-0---|
-0--0----0-|--0-00-00-0-00--00-0-0-0-00-0-0-0------1-1-1-1-0---|
              * ** ** * **  ** * * * ** * * *      * * * *


2:08

B
---------------------------------------------------------------|
---------------------------------------------------------------|
---------------------------------------------------------------|
--0------------------------------------------------------------|
--0------------------------------------------------------------|
--0------------------------------------------------------------|


---------------------------------------------------------------|
---------------------------------------------------------------|
---------------------------------------------------------------|
--0------------------------------------------------------------|
--0------------------------------------------------------------|
--0------------------------------------------------------------|


2:27

L
----------------------------------------------------------------|
----------------------------------------------------------------|
----------------------------------------------------------------|
-0--------------------------------------------------------------|
-0--------------------------------------------------------------|
-0--------------------------------------------------------------|

R W/OVER DUBBED 6TH STRING 12TH FRET HARMONICS
-----------------------------------------------------------------|
-----------------------------------------------------------------|
-----------------------------------------------------------------|
-----------------------------------------------------------------|
-----------------------------------------------------------------|
-000-0-0-000-000-0-0-000-000-0-0-000-0-0-000-000-0-0-000-000-0-0-|
 *** * * *** *** * * *** *** * * *** * * *** *** * * *** *** * *

B
-----------------------------------------------------------------|
-----------------------------------------------------------------|
-----------------------------------------------------------------|
-----------------------------------------------------------------|
-----------------------------------------------------------------|
-000-0-0-000-000-0-0-000-000-0-0-000-0-0-000-000-0-0-000-000-0-0-|
 *** * * *** *** * * *** *** * * *** * * *** *** * * *** *** * *



2:37

L
----------------------------------------------------------------------|
----------------------------------------------------------------------|
----------------------------------------------------------------------|
-----------------------------------------------------------_----------|
------/\--5------------/\--7------------/\---8------------/ \---12--10|
-0-0-0357---0-0-0-0-0-0578---0-0-0-0-0-07810---0-0-0-0-0-081012---0---|
 * *        * * * * *        * * * * *         * * * * *          *
R
----------------------------------------------------------------|
----------------------------------------------------------------|
----------------------------------------------------------------|
-0--------------------------------------------------------------|
-0--------------------------------------------------------------|
-0--------------------------------------------------------------|

L
----------------------------------------------------------------------|
----------------------------------------------------------------------|
----------------------------------------------------------------------|
-----------------------------------------------------------_----------|
------/\--5------------/\--7------------/\---8------------/ \---12--10|
-0-0-0357---0-0-0-0-0-0578---0-0-0-0-0-07810---0-0-0-0-0-081012---0---|
 * *        * * * * *        * * * * *         * * * * *          *
R
----------------------------------------------------------------|
----------------------------------------------------------------|
----------------------------------------------------------------|
----------------------------------------------------------------|
----------------------------------------------------------------|
----------------------------------------------------------------|



2:48
B
-----------------------------------------------------------------|
-----------------------------------------------------------------|
-----------------------------------------------------------------|
-----------------------------------------------------------------|
-----------------------------------------------------------------|
-000-0-000-000-0-0-000-000-0-0-0-000-0-000-000-0-0-000-000-0-0-0-|
 *** * *** *** * * *** *** * * * *** * *** *** * * *** *** * * *

-------------------------------------------------------------------|
-------------------------------------------------------------------|
-------------------------------------------------------------------|
-------------------------------------------------------------------|
-------------------------------------------------------------------|
-000-0-000-000-0-0-000-000-0-0-0-000-0-000-000-0-0-000-000-000-000-|
 *** * *** *** * * *** *** * * * *** * *** *** * * *** *** *** ***


2:58

----------------------------------------------------------------------|
----------------------------------------------------------------------|
----------------------------------------------------------------------|
-----------------------------------------------------------_----------|
------/\--5------------/\--7------------/\---8------------/ \---12--10|
-0-0-0357---0-0-0-0-0-0578---0-0-0-0-0-07810---0-0-0-0-0-081012---0---|
 * *        * * * * *        * * * * *         * * * * *          *

----------------------------------------------------------------------|
----------------------------------------------------------------------|
----------------------------------------------------------------------|
-----------------------------------------------------------_----------|
------/\--5------------/\--7------------/\---8------------/ \---12--10|
-0-0-0357---0-0-0-0-0-0578---0-0-0-0-0-07810---0-0-0-0-0-081012---0---|
 * *        * * * * *        * * * * *         * * * * *          *

3:08

L
-----------------------------------------------------------------------|
-----------------------------------------------------------------------|
-----------------------------------------------------------------------|
----------------------------------------_------------------__----------|
-----/\--5------------/\--7------------/ \---8------------/  \---12--10|
0-0-0357---0-0-0-0-0-0578---0-0-0-0-0-081012---0-0-0-0-0-0101213---0---|
* *        * * * * *        * * * * *          * * * * *           *
R
----------------------------------------------------------------------|
----------------------------------------------------------------------|
----------------------------------------------------------------------|
----------------------------------------------------------------------|
---------------------------------------------------------------8---7--|
-000-000---------000-000----------000-000----------000-000-------0----|
 *** ***         *** ***          *** ***          *** ***       *


L
-----------------------------------------------------------------------|
-----------------------------------------------------------------------|
-----------------------------------------------------------------------|
----------------------------------------_------------------__----------|
-----/\--5------------/\--7------------/ \---8------------/  \---12--10|
0-0-0357---0-0-0-0-0-0578---0-0-0-0-0-081012---0-0-0-0-0-0101213---0---|
* *        * * * * *        * * * * *          * * * * *           *
R
----------------------------------------------------------------------|
----------------------------------------------------------------------|
----------------------------------------------------------------------|
----------------------------------------------------------------------|
----------------------------------------------------------------8---7-|
-000-000-------0-0-000-000-------0-0-000-000-------0 0-000-000----0---|
 *** ***       * * *** ***       * * *** ***       * * *** ***    *


B
-----------------------------------------------------------------|
-----------------------------------------------------------------|
-----------------------------------------------------------------|
-----------------------------------------------------------------|
-----------------------------------------------------------------|
-000-0-0-000-000-0-0-000-000-0-0-000-0-0-000-000-0-0-000-000-0-0-|
 *** * * *** *** * * *** *** * * *** * * *** *** * * *** *** * *

-----------------------------------------------------------|
-----------------------------------------------------------|
-----------------------------------------------------------|
-------------------------------------------------1-1-1-1-0-|
-------------------------------------------------0-0-0-0-0-|
-000-0-0-000-000-0-0-000-000-0-0-000-0-000-000-0-1-1-1-1-0-|
 *** * * *** *** * * *** *** * * *** * *** *** * * * * *  




|||||||||||||||||||||||||||||||||||||||||||||||||||||||||
|||||||||||||||||||||||||||||||||||||||||||||||||||||||||
|||||||||||||||||||||||||||||||||||||||||||||||||||||||||
|||||||||||||||||||||||||||||||||||||||||||||||||||||||||
|||||||||||||||||||||||||||||||||||||||||||||||||||||||||












PARKWAY DRIVE

THE SLOW SURRENDER

B-F#-B-E-G#-C#





intro is played on bass

0:07
---------------------------------------------------------------|
---------------------------------------------------------------|
--7------------------------------------------------------------|
--5------------------------------------------------------------|
--5------------------------------------------------------------|
---------------------------------------------------------------|


0:15
 B                       L           R          L      R     B
----------------------------------------------------------------------|
----------------------------------------------------------------------|
----------------------------------------------------------------------|
----------------------------------------------------------------------|
-5-1---------------------5-1---7-3---3-5---5-0---5-1---7-3------------|
-5-1---------------------5-1---7-3---3-5---5-0---5-1---7-3---3-5~-3-5~|



0:30

---------------------------------------------------------|
---------------------------------------------------------|
---------------------------------------------------------|
---------------------------------------------------------|
-5-1---7-3---3-5---5-0---5-1---7-3-----------------------|
-5-1---7-3---3-5---5-0---5-1---7-3---3-5~-3-5~-3-5~------|


---------------------------------------------------------|
---------------------------------------------------------|
--7------------------------------------------------------|
--5------------------------------------------------------|
--5------------------------------------------------------|
---------------------------------------------------------|


---------------------------------------------------------|
---------------------------------------------------------|
---------------------------------------------------------|
---------------------------------------------------------|
-5-1---7-3---3-5---5-0-----------------------------------|
-5-1---7-3---3-5---5-0---5-1-1-1-7-3-3-3--3-5~-3-5~-3-5~-|
                         * * * * * * * * 



0:52

1
--------------------------------------------------------------|
---------------------------------3----------------------------|
-2-0-2-3-5-3-2-3-5-3-2-0-2-0-2-3---3-2-3-5-3-2-0--------------|
--------------------------------------------------------------|
--------------------------------------------------------------|
--------------------------------------------------------------|
2
--------------------------------------------------------------|
--------------------------------------------------------------|
----------------------------------------------------7---------|
-5--------------------------------------------------X---------|
-5--------------------------------------------------5---------|
-5------------------------------------------------------------|


1
--------------------------------------------------------------|
---------------------------------3----------------------------|
-2-0-2-3-5-3-2-3-5-3-2-0-2-0-2-3---3-2-3-5-3-2-0--------------|
--------------------------------------------------------------|
--------------------------------------------------------------|
--------------------------------------------------------------|
2
----------------------------------------------------------|
----------------------------------------------------------|
---------------------------------------------------8--7---|
-3-------------------------------------------------X--X---|
-3-------------------------------------------------6--5---|
-3--------------------------------------------------------|


1
--------------------------------------------------------------|
---------------------------------3----------------------------|
-2-0-2-3-5-3-2-3-5-3-2-0-2-0-2-3---3-2-3-5-3-2-0--------------|
--------------------------------------------------------------|
--------------------------------------------------------------|
--------------------------------------------------------------|
2
------------------------------------------------------_----|
-----------------------------------------------------/ \---|
----------------------------------------------------7-810--|
-5--------------------------------------------------X-X-X--|
-5--------------------------------------------------5/6/8--|
-5---------------------------------------------------------|

1
-----------------------------------------------------------------|
---------------------------------3-------------------------------|
-2-0-2-3-5-3-2-3-5-3-2-0-2-0-2-3---3-2-3-5-3-2-0-5-3-2-3-5-3-2-0-|
-----------------------------------------------------------------|
-----------------------------------------------------------------|
-----------------------------------------------------------------|
2
---------------------------------------------------------------------|
---------------------------------------------------------------------|
---------------------------------------------------------------------|
-3-------------------------------------------------------------------|
-3---------------------------------------------------3---------------|
-3-----------------------------------5-5-5-5-8-5-5-5----5-5-5-3-5-5-5|
                                     * * * * * * * * *  * * * * * * *


1:06


1
------------------------------------------------------------------|
11-)---11-------11-)---11-------11-)---11-----------------^-------|
14---14--14-12--14---14--14-12--14---14--14-12-14-12-10-10-12-10--|
----------------------------------------------------------------12|
------------------------------------------------------------------|
------------------------------------------------------------------|
2
--------3-3-3----------3-3-3------------------------------------|
--------3-3-3----------3-3-3---------8-8-8----8--8--8--8--8-----|
-------------------------------------7-7-7---10-10-10-10-10-----|
----------------------------------------------8--8--8--8--8-----|
-1--------------3----------------5---------8--------------------|
-1--------------3----------------5---------8--------------------|

1
-----------------------------------------------------PB-PB-----|
-11-)---11-------11-)---11-------11-)---11-------15)-15-15-----|
-14---14--14-12--14---14--14-12--14---14--14-12--18--18-18-17--|
-------------------------------------------------------------17|
---------------------------------------------------------------|
---------------------------------------------------------------|
2
--------3-3-3----------3-3-3------------------------------------|
--------3-3-3----------3-3-3---------8-8-8----8--8--8--8--8-----|
-------------------------------------7-7-7---10-10-10-10-10-----|
----------------------------------------------8--8--8--8--8-----|
-1--------------3----------------5---------8--------------------|
-1--------------3----------------5---------8--------------------|


1
----------------------------------------------------------^-------|
11-)---11-------11-)---11-------11-)---11---------------10-12-10--|
14---14--14-12--14---14--14-12--14---14--14-12-14-12-10-10-12-10--|
----------------------------------------------------------------12|
------------------------------------------------------------------|
------------------------------------------------------------------|
2
--------3-3-3----------3-3-3------------------------------------|
--------3-3-3----------3-3-3---------8-8-8----8--8--8--8--8-----|
-------------------------------------7-7-7---10-10-10-10-10-----|
----------------------------------------------8--8--8--8--8-----|
-1--------------3----------------5---------8--------------------|
-1--------------3----------------5---------8--------------------|

1
------------------------------------------------------PB-PB-PB-PB-|
-11-)----11-------11-)---11-------11-)---11-------15)-15-15-15-15-|
-14----14--14-12--14---14--14-12--14---14--14-12--18--18-18-18-18-|
------------------------------------------------------------------|
------------------------------------------------------------------|
------------------------------------------------------------------|
2
--------3-3-3----------3-3-3-----------------------------------|
--------3-3-3----------3-3-3---------8-8-8----8--8--8--8--8----|
-------------------------------------7-7-7---10-10-10-10-10----|
----------------------------------------------8--8--8--8--8----|
-1--------------3----------------5---------8-------------------|
-1--------------3----------------5---------8-------------------|



1:29


---------------------------------------------------------------|
---------------------------------------------------------------|
---------------------------------------------------------------|
---------------------------------------------------------------|
------------------3-3-3-3-3-3-3--------------------------------|
-3-5-5--5~--3-5---7-7-7-7-7-7-7--3-5-5--5~--3-5--3-5-7-8-7-5-3-|
                  * * * * * * *                  * * * * * * *

---------------------------------------------------------------|
---------------------------------------------------------------|
---------------------------------------------------------------|
---------------------------------------------------------------|
------------------3-3-3-3-3-3-3--------------------------------|
-3-5-5--5~--3-5---7-7-7-7-7-7-7--3-5-5--5~--3-5--3-5-7-8-7-5-3-|
                  * * * * * * *                  * * * * * * *



1:43


----------------------------------------------------------|
----------------------------------------------------------|
----------------------------------------------------------|
------------------------------------------------------ph--|
----------------------------------------000-100--55-3-3~~-|
-3-5-5--5~-\------------3-5-5--5~-\-----------------------|
                                        *** ***  ** *



1:51
1
--------------------------------------------------------------|
---------------------------------3----------------------------|
-2-0-2-3-5-3-2-3-5-3-2-0-2-0-2-3---3-2-3-5-3-2-0--------------|
--------------------------------------------------------------|
--------------------------------------------------------------|
--------------------------------------------------------------|
2
--------------------------------------------------------------|
--------------------------------------------------------------|
----------------------------------------------------7---------|
-5--------------------------------------------------X---------|
-5--------------------------------------------------5---------|
-5------------------------------------------------------------|


1
--------------------------------------------------------------|
---------------------------------3----------------------------|
-2-0-2-3-5-3-2-3-5-3-2-0-2-0-2-3---3-2-3-5-3-2-0--------------|
--------------------------------------------------------------|
--------------------------------------------------------------|
--------------------------------------------------------------|
2
----------------------------------------------------------|
----------------------------------------------------------|
---------------------------------------------------8--7---|
-3-------------------------------------------------X--X---|
-3-------------------------------------------------6--5---|
-3--------------------------------------------------------|


1
--------------------------------------------------------------|
---------------------------------3----------------------------|
-2-0-2-3-5-3-2-3-5-3-2-0-2-0-2-3---3-2-3-5-3-2-0--------------|
--------------------------------------------------------------|
--------------------------------------------------------------|
--------------------------------------------------------------|
2
------------------------------------------------------_----|
-----------------------------------------------------/ \---|
----------------------------------------------------7-810--|
-5--------------------------------------------------X-X-X--|
-5--------------------------------------------------5/6/8--|
-5---------------------------------------------------------|

1
--------------------------------------------------------|
--------------------------------------------------------|
--2-0-2-3-5-3-2-3-5-3-2-0-2-0-2-3-----------------------|
--------------------------------------------------------|
---------------------------------------4-3-1------------|
---------------------------------------4-3-1-3-1-3------|
2                                      * * *
--------------------------------------------------------|
--------------------------------------------------------|
--------------------------------------------------------|
-3------------------------------------------------------|
-3-------------------------------------4-3-1------------|
-3-------------------------------------4-3-1-3-1-3------|
                                       * * *


2:07

B
-------------------------------------------------------------|
-------------------------------------------------------------|
-------------------------------------------------------------|
-------------------------------------------------------------|
-00-000000-000000-0000-111-333-00-000000-0000-4-3-1----------|
-00-000000-000000-0000-111-333-00-000000-0000-4-3-1-3-1-3----|
 ** ****** ****** **** *** *** ** ****** **** * * *
-------------------------------------------------------------|
-------------------------------------------------------------|
-------------------------------------------------------------|
-------------------------------------------------------------|
-00-000000-000000-0000-111-333-00-000000-0000-4-3-1----------|
-00-000000-000000-0000-111-333-00-000000-0000-4-3-1-3-1-3----|
 ** ****** ****** **** *** *** ** ****** **** * * *


----------------------------------------------------------|
----------------------------------------------------------|
----------------------------------------------------------|
----------------------------------------------------------|
-00-000000-000000-000000-000000-000000-0000-4-3-1-3-1-3---|
-00-000000-000000-000000-000000-000000-0000-4-3-1-3-1-3---|
 ** ****** ****** ****** ****** ****** **** 
--------------------------------------------------------|
--------------------------------------------------------|
--------------------------------------------------------|
--------------------------------------------------------|
-00-000000-000000-000000-000000-000000-0000-------------|
-00-000000-000000-000000-000000-000000-0000-3-5-3-5~-\--|
 ** ****** ****** ****** ****** ****** **** 



---------------------------------------------------------------|
---------------------------------------------------------------|
--7------------------------------------------------------------|
--5------------------------------------------------------------|
--5------------------------------------------------------------|
------------------------------------------3-5~-3-5~-3-5~-------|



2:47

--------------------------------------------------------|
--------------------------------------------------------|
-12------15-------15-14--15-14-10-12--------------------|
--X-------X--------X--X---X--X--X--X--------------------|
-10------13-------13\12--13\12--8/10--------------------|
----------------------------------------3-5~-3-5~-3-5~--|


-----------------------------------------------------|
-----------------------------------------------------|
-12------15-------15-14--15-14-10-12-----------------|
--X-------X--------X--X---X--X--X--X-----------------|
-10------13-------13\12--13\12--8/10----5-5-5-5------|
----------------------------------------5-5-5-5\-----|



3:02

---------------------------------------------------------------|
--11)--------10)---------11)--------10)------------------------|
--14---------13----------14---------13-------------------------|
---------------------------------------------------------------|
---------------------------------------------------------------|
---------------------------------------------------------------|
2
--------------------------------------------------------------------|
------------------------------------------------------------HHHHHHHH|
------------------------------------------------------------55555555|
------------------------------------------------------------55555555|
-5-----------3-----------5-----------3--3-3-3-3-3-3-3-3-3-3-HHHHHHHH|
-5-----------3-----------5-----------3--3-3-3-3-3-3-3-3-3-3---------|
                                        * * * * * * * * * * 


3:17

1
-------------------------------------------------------------------|
11-)----11-------11-)---11-------11-)---11-----------------^-------|
14----14--14-12--14---14--14-12--14---14--14-12-14-12-10-10-12-10--|
-----------------------------------------------------------------12|
-------------------------------------------------------------------|
-------------------------------------------------------------------|
2
--------3-3-3----------3-3-3------------------------------------|
--------3-3-3----------3-3-3---------8-8-8----8--8--8--8--8-----|
-------------------------------------7-7-7---10-10-10-10-10-----|
----------------------------------------------8--8--8--8--8-----|
-1--------------3----------------5---------8--------------------|
-1--------------3----------------5---------8--------------------|

1
----------------------------------------------------------PB-PB-|
-11-)----11-------11-)---11-------11-)---11-------15)-15-15-----|
-14----14--14-12--14---14--14-12--14---14--14-12--18--18-18-17--|
--------------------------------------------------------------17|
----------------------------------------------------------------|
----------------------------------------------------------------|
2
--------3-3-3----------3-3-3------------------------------------|
--------3-3-3----------3-3-3---------8-8-8----8--8--8--8--8-----|
-------------------------------------7-7-7---10-10-10-10-10-----|
----------------------------------------------8--8--8--8--8-----|
-1--------------3----------------5---------8--------------------|
-1--------------3----------------5---------8--------------------|



1
----------------------------------------------------------^-------|
11-)---11-------11-)---11-------11-)---11---------------10-12-10--|
14---14--14-12--14---14--14-12--14---14--14-12-14-12-10-10-12-10--|
----------------------------------------------------------------12|
------------------------------------------------------------------|
------------------------------------------------------------------|
2
--------3-3-3----------3-3-3------------------------------------|
--------3-3-3----------3-3-3---------8-8-8----8--8--8--8--8-----|
-------------------------------------7-7-7---10-10-10-10-10-----|
----------------------------------------------8--8--8--8--8-----|
-1--------------3----------------5---------8--------------------|
-1--------------3----------------5---------8--------------------|

1                                                )  ) ) ) ) )
-----------------------------------------------15)1515151515|
11-)---11-------11-)---11-------11-)---11------18-----------|
14---14--14-12--14---14--14-12--14---14--14-12--------------|
------------------------------------------------------------|
------------------------------------------------------------|
------------------------------------------------------------|
2
--------3-3-3----------3-3-3--------------------------------|
--------3-3-3----------3-3-3---------8-8-8----8--8--8--8--8-|
-------------------------------------7-7-7---10-10-10-10-10-|
----------------------------------------------8--8--8--8--8-|
-1--------------3----------------5---------8----------------|
-1--------------3----------------5---------8----------------|


3:39

---------------------------------------------------------|
---------------------------------------------------------|
---------------------------------------------------------|
---------------------------------------------------------|
-5-1---7-3---3-5---5-0---5-1---7-3-----------------------|
-5-1---7-3---3-5---5-0---5-1---7-3---3-5~-3-5~-3-5~------|

---------------------------------------------------------|
---------------------------------------------------------|
---------------------------------------------------------|
---------------------------------------------------------|
-5-1---7-3---3-5---5-0-----------------------------------|
-5-1---7-3---3-5---5-0---5-1-1-1-7-3-3-3--3-5~-3-5~-3-5~-|
                         * * * * * * * * 


3:55
--------------------------------------------------------------------------|
--------------------------------------------------------------------------|
--------------------------------------------------------------------------|
--------------------------------------------------------------------------|
----------------------------------------------------------------3---------|
5-1-11-1-7-3-33-3-3-5-55-5-5-0-00-0-5-1-11-1-7-3-33-3-5555-8-555-555-3-555|
    **       **       **       **       **       **   **** * ******* * ***


L
---------------------------------------------------------------------|
---------------------------------------------------------------------|
---------------------------------------------------------------------|
---------------------------------------------------------------------|
--------------------------------------5-1-1-1-7-3-3-3----------------|
-5-1-11-1-7-3-33-3-3-5-55-5-5-0-00-0--5-1-1-1-7-3-3-3--3-5~-3-5~-----|
     **       **       **       **    * * * * * * * * 

R
-------------------------------------------------------------------|
-------------------------------------------------------------------|
-------------------------------------------------------------------|
-------------------------------------------------------------------|
-5-1------7-3-----3-5------5-0---------5-1-1-1-7-3-3-3-------------|
-5-1------7-3-----3-5------5-0---------5-1-1-1-7-3-3-3--7-8~-7-8~--|
                                       * * * * * * * *





||||||||||||||||||||||||||||||||||||||||||||||||||||||||||||
||||||||||||||||||||||||||||||||||||||||||||||||||||||||||||
||||||||||||||||||||||||||||||||||||||||||||||||||||||||||||
||||||||||||||||||||||||||||||||||||||||||||||||||||||||||||








PARKWAY DRIVE 

ATLAS




acousic guitars arranged for D-G-C-F-A-D

electric guitars B-F#-B-E-G#C#



A
-2----------2------2--------------2----------2------2---------------|
-3----------3------3--------------3----------3------3---------------|
-0----------0------4--------------0----------0------4---------------|
-5----------4------2--------------5----------4------2---------------|
--------------------------------------------------------------------|
--------------------------------------------------------------------|



-2----------2------2--------------2----------2------2---------------|
-3----------3------3--------------3----------3------3---------------|
-0----------0------4--------------0----------0------4---------------|
-5----------4------2--------------5----------4------2---------------|
--------------------------------------------------------------------|
--------------------------------------------------------------------|

  ^
-2-3-0------------------------------------------|
------------------------------3---3-5---5-------|
------------------------------5---5-7---7-------|
------------------------------5---5-7---7-------|
--------2---------------------3---3-5---5-------|
----------0-------------------------------------|


                         w/pedal +1 octave
  ^
-2-3-0------------------------------------------|
------------------------------7---7-5---3-5-----|
------------------------------9---9-7---5-7-----|
------------------------------9---9-7---5-7-----|
--------2---------------------7---7-5---3-5-----|
----------0-------------------------------------|




0:54

w/intro again

L
----------------------------------------------|
----------------------------------------------|
--------/8~-------------------------8---------|
-6------------8~----3------6-666666---8-10-8--|
-6------------------3-------------------------|
-6------------------3-------------------------|
                           * ******
R
----------------------------------------------|
----------------------------------------------|
------------------------------------5---------|
-6-----/10~---------3------3-333333---5-6-5---|
-6-----------10~----3-------------------------|
-6------------------3-------------------------|
                           * ******


L
----------------------------------------------|
----------------------------------------------|
--------/8~-----------------------------------|
-6------------8~----3-------------------------|
-6------------------3-------------------------|
-6------------------3-------3-3333333---------|
                            * *******
R 
----------------------------------------------|
----------------------------------------------|
----------------------------------------------|
-6-----/10~---------3-------------------------|
-6-----------10~----3-------------------------|
-6------------------3-------3-3333333---------|
                            * *******


1:09


A
-----10--14--10--12--10--10------------------------------|
10-12--12--12--12--12--12--10-12-------------------------|
---------------------------------------------------------|
---------------------------------------------------------|
---------------------------------------------------------|
---------------------------------------------------------|

1
---------------------------------------------------------|
---------------------------------------------------------|
---------------------------------------------------------|
---------------------------------------------------------|
-1-------------------------------------------------------|
-1--------/6~~-5~~-3-3333333-----------3-3333333---------|
                   * *******           * *******
2
---------------------------------------------------------|
---------------------------------------------------------|
----------------------------8-------------------8--------|
-------------------6-666666---8-10-8---6-666666---8-10-8-|
---------------------------------------------------------|
---------------------------------------------------------|
3                  * ******            * ******
---------------------------------------------------------|
---------------------------------------------------------|
----------------------------5-------------------5--------|
-------------------3-333333---5-6-5----3-333333---5-6-5--|
---------------------------------------------------------|
---------------------------------------------------------|
                   * ******            * ******


acoustic
-----10--14--10--12--10--10------------------------------|
10-12--12--12--12--12--12--10-12-------------------------|
---------------------------------------------------------|
---------------------------------------------------------|
---------------------------------------------------------|
---------------------------------------------------------|
1
---------------------------------------------------------|
---------------------------------------------------------|
---------------------------------------------------------|
---------------------------------------------------------|
-1-------------------------------------------------------|
-1--------/6~~-5~~-3-3333333-----------3-3333333---------|
                   * *******           * *******
2
---------------------------------------------------------|
---------------------------------------------------------|
----------------------------8-------------------8--------|
-------------------6-666666---8-10-8---6-666666---8-10-8-|
---------------------------------------------------------|
---------------------------------------------------------|
3                  * ******            * ******
---------------------------------------------------------|
---------------------------------------------------------|
----------------------------5-------------------5--------|
-------------------3-333333---5-6-5----3-333333---5-6-5--|
---------------------------------------------------------|
---------------------------------------------------------|
                   * ******            * ******



1;24

acoustic 1
--8-----------------------10-----------------------------------|
--8-----------------------10-----------------------------------|
-10-----------------------12-----------------------------------|
-10-----------------------12-----------------------------------|
---------------------------------------------------------------|
---------------------------------------------------------------|

acoustic 2 finger picked
---------15--14--10-------------15--14--10---------------------|
---------------------------------------------------------------|
---------12--11---7-------------12--11---7---------------------|
---------------------------------------------------------------|
---------------------------------------------------------------|
---------------------------------------------------------------|




acoustic
-----------------------------------------------------------------|
-----------------------------------------------------------------|
-----7----7---4-------7---7---4----------------------------------|
-----------------------------------------------------------------|
----10---10---7-------9---9---5----------------------------------|
-0-----0----0-----------0---0------------------------------------|
L
-----------------------------------------------------------------|
-----------------------------------------------------------------|
------------10---------------------------------------------------|
----/10--8---------/10--8--6-------------------------------------|
-------------------------------1---------------3-----------------|
-------------------------------1------/6~--5~--3-----------------|

R
-----------------------------------------------------------------|
-----------------------------------------------------------------|
-----------5-----------------------------------------------------|
----/6--5----------/6--5-----------------------------------------|
--------------------------6----1---------------3-----------------|
-------------------------------1------/6~--5~--3-----------------|






1;40

L
---------------------------------------------------------------------------|
---------------------------------------------------------------------------|
----10-----6---6-8---8-----------------10-----13---13-1210-12--------------|
-----X-----X---X-X---X------------------X------X----X--X-X--X--------------|
-3---8-----4---4-6---6-----6-8------3---8-----11---11\10-8/10-----6-8------|
-3-----------------------------10-8-3---------------------------------10-8-|
R
---------------------------------------------------------------------------|
---------------------------------------------------------------------------|
----10-----6---6-8---8-----------------17-----17---17-15-13-15-------------|
-----X-----X---X-X---X------------------X------X----X--X--X--X-------------|
-3---8-----4---4-6---6-----6-8------3--15-----15---15\13-11/13----6-8------|
-3-----------------------------10-8-3---------------------------------10-8-|



L
----------------------------------------------------------------------|
----------------------------------------------------------------------|
----10-----6---6-8---8-----------------10-----13---13-1210-9----------|
-----X-----X---X-X---X------------------X------X----X--X-X-X----------|
-3---8-----4---4-6---6-----6-8------3---8-----11---11\10-8-7----------|
-3-----------------------------10-8-3---------------------------------|
R
----------------------------------------------------------------------|
----------------------------------------------------------------------|
----10-----6---6-8---8-----------------17-----17---17-15-13-12--------|
-----X-----X---X-X---X-----5-6----------X------X----X--X--X--X--------|
-3---8-----4---4-6---6----------6-4-3--15-----15---15\13-11-10--------|
-3----------------------------------3---------------------------------|





2:12


---------------------------------------------------------------------|
---------------------------------------------------------------------|
-4-6-6--6-6---------4-6-6-111111-----4-6-6--6-6---------4-6-6-11-9-11|
-4-6-6--6-6---------4-6-6--9-9-9-----4-6-6--6-6---------4-6-6--9-9-9-|
-2-4-4--4-4---------2-4-4--9-9-9-----2-4-4--4-4---------2-4-4--9-9-9-|
---------------------------------------------------------------------|


-12-13-12----------12-13-12----------12-13-12---------12-13-12----------|
----------13----13----------13----13---------13----13----------13----13-|
-------------14----------------14---------------14----------------14----|
------------------------------------------------------------------------|
------------------------------------------------------------------------|
------------------------------------------------------------------------|



----------------------------------------------------------------7-7-7---|
----------------------------------------------------------------8-8-8---|
-6-8--8-8-8-----6-8--8-8-8-11-9-8----6-8--8-8-8-----6-8--8-8-8--8-8-8---|
-4-6--6-6-6-----4-6--6-6-6--9-7-6----4-6--6-6-6-----4-6--6-6-6--6-6-6---|
-4-6--6-6-6-----4-6--6-6-6--9-7-6----4-6--6-6-6-----4-6--6-6-6--6-6-6---|
------------------------------------------------------------------------|



acoustic
---------------------------------------------------------------------|
---------------------------------------------------------------------|
-4-6-6--6-6---------4-6-6-111111-----4-6-6--6-6---------4-6-6-11-9-11|
-4-6-6--6-6---------4-6-6--9-9-9-----4-6-6--6-6---------4-6-6--9-9-9-|
-2-4-4--4-4---------2-4-4--9-9-9-----2-4-4--4-4---------2-4-4--9-9-9-|
---------------------------------------------------------------------|

R
----------15--------17------------------------15---------17----------|
-------------15----------------------------------15------------------|
----------------17----------------------------------17---------------|
---------------------------------------------------------------------|
---------------------------------------------------------------------|
---------------------------------------------------------------------|




2:33

acoustic
----------------------------------------------------------------7-7-7---|
----------------------------------------------------------------8-8-8---|
-6-8--8-8-8-----6-8--8-8-8-11-9-8----6-8--8-8-8-----6-8--8-8-8--8-8-8---|
-4-6--6-6-6-----4-6--6-6-6--9-7-6----4-6--6-6-6-----4-6--6-6-6--6-6-6---|
-4-6--6-6-6-----4-6--6-6-6--9-7-6----4-6--6-6-6-----4-6--6-6-6--6-6-6---|
------------------------------------------------------------------------|

                                                  grad increase to 2 steps
dist.        _______                 ___________      )
-------------)     (-----------------)         (----15------------------|
-----13-15-15--------13-15---------15------------13---------------------|
-/14------------------------14~-----------------------------------------|
------------------------------------------------------------------------|
------------------------------------------------------------------------|
------------------------------------------------------------------------|



acoustic
---------------------------------------------------------------------|
---------------------------------------------------------------------|
-4-6-6-6--4-6-6-6--4-6-6-6--4-6-4---4-6-6-6--4-6-6-6--4-6-6-6--9-9-9-|
-4-6-6-6--4-6-6-6--4-6-6-6--4-6-4---4-6-6-6--4-6-6-6--4-6-6-6--7-7-7-|
-2-4-4-4--2-4-4-4--2-4-4-4--2-4-2---2-4-4-4--2-4-4-4--2-4-4-4--7-7-7-|
---------------------------------------------------------------------|



2:49

acoustic
----------------------------------------------------------------7-7-7---|
----------------------------------------------------------------8-8-8---|
-6-8--8-8-8-----6-8--8-8-8-11-9-8----6-8--8-8-8-----6-8--8-8-8--8-8-8---|
-4-6--6-6-6-----4-6--6-6-6--9-7-6----4-6--6-6-6-----4-6--6-6-6--6-6-6---|
-4-6--6-6-6-----4-6--6-6-6--9-7-6----4-6--6-6-6-----4-6--6-6-6--6-6-6---|
------------------------------------------------------------------------|
      
dist.         ____
-----)()()(---)   ----/22-------20-----------------15------------|
-15---------15------------20-18----18-17-15--17-18----18-17-15---|
------------ph---------------------------------------------------|
-----------------------------------------------------------------|
-----------------------------------------------------------------|
-----------------------------------------------------------------|



acoustic
---------------------------------------------------------------------|
---------------------------------------------------------------------|
-4-6-6-6--4-6-6-6--4-6-6-6--4-6-4---4-6-6-6--4-6-6-6--4-6-6-6--9-9-9-|
-4-6-6-6--4-6-6-6--4-6-6-6--4-6-4---4-6-6-6--4-6-6-6--4-6-6-6--7-7-7-|
-2-4-4-4--2-4-4-4--2-4-4-4--2-4-2---2-4-4-4--2-4-4-4--2-4-4-4--7-7-7-|
---------------------------------------------------------------------|
dist.
-------------------------------------------------------------------------|
-------------------------------------------------------------------------|
7-7-7--7-7--7--7--9-9-9--9-9--9-9-101010-1010-10-10--12-12-12-15-15-15-15|
x-x-x--x-x--x--x--x-x-x--x-x--x-x--x-x-x--x-x--x--x---x--x--x--x--x--x--x|
5-5-5--5-5--5--5--7-7-7--7-7--7-7--8-8-8--8-8--8--8--10-10-10-13-13-13-12|
-------------------------------------------------------------------------|




3:08


L
------------------------------------------------------------------------|
------------------------------------------------------------------------|
-------7-----3---3-5---5------------------7----10--10-9--7-9------------|
-------X-----X---X-X---X------------------X-----X---X-X--X-X------------|
-0-----5-----1---1-3---3----3-5-----0-----5-----8---8-7--5/7----3-5-----|
-0------------------------------7-5-0-------------------------------7-5-|

R
------------------------------------------------------------------------|
------------------------------------------------------------------------|
-------7---10---10-12--12----------------10-----14--14-1210-12----------|
-------X----X----X--X---X-----------------X------X---X--X-X--X----------|
-0-----5----8----8-10--10----3-5-----0----8-----12--12-10-8/10---3-5----|
-0-------------------------------7-5-0-------------------------------7-5|



L
------------------------------------------------------------------------|
------------------------------------------------------------------------|
-------7-----3---3-5---5------------------7----10--10-9--7-9------------|
-------X-----X---X-X---X------------------X-----X---X-X--X-X------------|
-0-----5-----1---1-3---3----3-5-----0-----5-----8---8-7--5-7------------|
-0------------------------------7-5-0-----------------------------------|

R
------------------------------------------------------------------------|
------------------------------------------------------------------------|
-------7---10---10-12--12----------------10-----14--14-1210-12----------|
-------X----X----X--X---X-----------------X------X---X--X-X--X----------|
-0-----5----8----8-10--10----3-5-----0----8-----12--12-10-8-10----------|
-0-------------------------------7-5-0----------------------------------|


B
-------------------------------------------------------------|
-------------------------------------------------------------|
------9-7-----5-7--------------------------------------------|
------X-X-----X-X--------------------------------------------|
------7-5-----3-5--------------------------------------------|
-------------------------------------------------------------|









|||||||||||||||||||||||||||||||||||||||||||||||||||||||||||
|||||||||||||||||||||||||||||||||||||||||||||||||||||||||||
|||||||||||||||||||||||||||||||||||||||||||||||||||||||||||
|||||||||||||||||||||||||||||||||||||||||||||||||||||||||||








PARKWAY DRIVE

SLEIGHT OF HAND

B-F#-B-E-G#-C#





INTRO
1
---------------------------------------------------------------|
--[-6-]--SWELLS AND SLIGHTLY BENDS-----------------------------|
--[-9-]--------------------------------------------------------|
---------------------------------------------------------------|
---------------------------------------------------------------|
---------------------------------------------------------------|

2  0:06
---------------------------------------------------------------|
---------------------------------------------------------------|
-----------------------------------------REPEATS---------------|
---------------------------------------------------------------|
--0-------------------------------3----------------------------|
--0-------------------------------3----------------------------|

0:16
3       __
       /  \
--20-19-20-19----19----19-17-----------------|
--------------20----19-------17--------------|
------------------------------------REPEATS--|
---------------------------------------------|
---------------------------------------------|
---------------------------------------------|

|||||||||||||||||||||||||||||||||||||||||||||||||||||||||||||



0:28

1
----------------------------------------------------------------|
----------------------------------------------------------------|
1010-999------999----999----777-1010-999------999----999----777-|
---------1010-----99-----77--------------1010-----99-----77-----|
----------------------------------------------------------------|
----------------------------------------------------------------|
 * *      * *     **     **      * *      * *     **     **     
2
-------------------------------------------------------------|
-------------------------------------------------------------|
-------------------------------------------------------------|
-------------------------------------------------------------|
-0-0-000--0-000--0-000--0-000--2-2-222--2-222--2-222--2-222--|
-0-0-000--0-000--0-000--0-000--2-2-222--2-222--2-222--2-222--|
 * * ***  * ***  * ***  * ***  * * ***  * ***  * ***  * ***


1
----------------------------------------------------------------|
----------------------------------------------------------------|
1010-999------999----999----777-1010-999------999----999----777-|
---------1010-----99-----77--------------1010-----99-----77-----|
----------------------------------------------------------------|
----------------------------------------------------------------|
 * *      * *     **     **      * *      * *     **     **  

2
---------------------------------------------------------------|
---------------------------------------------------------------|
---------------------------------------------------------------|
---------------------------------------------------------------|
-3-3-333--3-333--3-333--3-333--5-5-555--5-555--5-555--5-555----|
-3-3-333--3-333--3-333--3-333--5-5-555--5-555--5-555--5-555----|
 * * ***  * ***  * ***  * ***  * * ***  * ***  * ***  * ***



0:40
1
----------------------------------------------------------------|
----------------------------------------------------------------|
1010-999------999----999----777-1010-999------999----999----777-|
---------1010-----99-----77--------------1010-----99-----77-----|
----------------------------------------------------------------|
----------------------------------------------------------------|
 * *      * *     **     **      * *      * *     **     **  
2
-------------------------------------------------------------|
-------------------------------------------------------------|
-------------------------------------------------------------|
-------------------------------------------------------------|
-0-0-000--0-000--0-000--0-000--2-2-222--2-222--2-222--2-222--|
-0-0-000--0-000--0-000--0-000--2-2-222--2-222--2-222--2-222--|
 * * ***  * ***  * ***  * ***  * * ***  * ***  * ***  * ***
3      __                           __
      /  \                         /  \
-20-19-20-19---19----19-17----20-19-20-19---19----19-17------|
------------20----19------17-------------20----19------17----|
-------------------------------------------------------------|
-------------------------------------------------------------|
-------------------------------------------------------------|
-------------------------------------------------------------|


1
----------------------------------------------------------------|
----------------------------------------------------------------|
1010-999------999----999----777-1010-999------999----999----777-|
---------1010-----99-----77--------------1010-----99-----77-----|
----------------------------------------------------------------|
----------------------------------------------------------------|
 * *      * *     **     **      * *      * *     **     **  

2
-------------------------------------------------------------|
-------------------------------------------------------------|
-------------------------------------------------------------|
-------------------------------------------------------------|
-3-3-333--3-333--3-333--3-333--5-5-555--5-555--5-555--5-\----|
-3-3-333--3-333--3-333--3-333--5-5-555--5-555--5-555--5-\----|
 * * ***  * ***  * ***  * ***  * * ***  * ***  * ***  * 

3      __                           __
      /  \                         /  \
-20-19-20-19---19----19-17----20-19-20-19---19----19-17------|
------------20----19------17-------------20----19------17----|
-------------------------------------------------------------|
-------------------------------------------------------------|
-------------------------------------------------------------|
-------------------------------------------------------------|




0:54

1+2
---------------------------------------------------------------------|
---------------------------------------------------------------------|
-----------------------------------------------------------------7---|
-------------------------------------------------------------------7-|
---------------------------------------------------------------------|
-880-0-0-0-0-0-0-880-0-0-0-0-0-0-880-0-0-0-0-0-0-888-8-101010-10-----|
 *** * * * * * * *** * * * * * * *** * * * * * * *** *  * * *  * 

---------------------------------------------------------------------|
-----------------------------------------------------------------H---|
-----------------------------------------------------------------7-H-|
-------------------------------------------------------------------7-|
---------------------------------------------------------------------|
-880-0-0-0-0-0-0-880-0-0-0-0-0-0-880-0-0-0-0-0-0-888-8-101010-10-----|
 *** * * * * * * *** * * * * * * *** * * * * * * *** *  * * *  *

---------------------------------------------------------------------|
---------------------------------------------------------------------|
-----------------------------------------------------------------7---|
-------------------------------------------------------------------7-|
---------------------------------------------------------------------|
-880-0-0-0-0-0-0-880-0-0-0-0-0-0-880-0-0-0-0-0-0-888-8-101010-10-----|
 *** * * * * * * *** * * * * * * *** * * * * * * *** *  * * *  * 

---------------------------------------------------------------------|
-----------------------------------------------------------------H---|
-----------------------------------------------------------------7-H-|
-------------------------------------------------------------------7-|
---------------------------------------------------------------------|
-880-0-0-0-0-0-0-880-0-0-0-0-0-0-880-0-0-0-0-0-0-888-8-101010-10-----|
 *** * * * * * * *** * * * * * * *** * * * * * * *** *  * * *  *




1:19

1
       __                           __
      /  \                         /  \
-20-19-20-19---19----19-17----20-19-20-19---19----19-17------|
------------20----19------17-------------20----19------17----|
-------------------------------------------------------------|
-------------------------------------------------------------|
-------------------------------------------------------------|
-------------------------------------------------------------|
2
---------------------------------------------------------------|
---------------------------------------------------------------|
---------------------------------------------2-----------------|
------------------------------2--------------3-----------------|
------------------------------2--2-2-2--2-2-----3-3-3---\------|
------------------------------2--2-2-2--2-2-----3-3-3---\------|


1
----------------------------------------------------------------|
----------------------------------------------------------------|
1010-999------999----999----777-1010-999------999----999----777-|
---------1010-----99-----77--------------1010-----99-----77-----|
----------------------------------------------------------------|
----------------------------------------------------------------|
 * *      * *     **     **      * *      * *     **     **  
2
-------------------------------------------------------------|
-------------------------------------------------------------|
-------------------------------------------------------------|
-------------------------------------------------------------|
-0-0-000--0-000--0-000--0-000--2-2-222--2-222--2-222--2-222--|
-0-0-000--0-000--0-000--0-000--2-2-222--2-222--2-222--2-222--|
 * * ***  * ***  * ***  * ***  * * ***  * ***  * ***  * ***


1
----------------------------------------------------------------|
----------------------------------------------------------------|
1010-999------999----999----777-1010-999------999----999----777-|
---------1010-----99-----77--------------1010-----99-----77-----|
----------------------------------------------------------------|
----------------------------------------------------------------|
 * *      * *     **     **      * *      * *     **     **  

2
---------------------------------------------------------------|
---------------------------------------------------------------|
---------------------------------------------------------------|
---------------------------------------------------------------|
-3-3-333--3-333--3-333--3-333--5-5-555--5-555--5-555--5-555----|
-3-3-333--3-333--3-333--3-333--5-5-555--5-555--5-555--5-555----|
 * * ***  * ***  * ***  * ***  * * ***  * ***  * ***  * ***

1
----------------------------------------------------------------|
----------------------------------------------------------------|
1010-999------999----999----777-1010-999------999----999----777-|
---------1010-----99-----77--------------1010-----99-----77-----|
----------------------------------------------------------------|
----------------------------------------------------------------|
 * *      * *     **     **      * *      * *     **     **  
2
-------------------------------------------------------------|
-------------------------------------------------------------|
-------------------------------------------------------------|
-------------------------------------------------------------|
-0-0-000--0-000--0-000--0-000--2-2-222--2-222--2-222--2-222--|
-0-0-000--0-000--0-000--0-000--2-2-222--2-222--2-222--2-222--|
 * * ***  * ***  * ***  * ***  * * ***  * ***  * ***  * ***


1
----------------------------------------------------------------|
----------------------------------------------------------------|
1010-999------999----999----777-1010-999------999----999----777-|
---------1010-----99-----77--------------1010-----99-----77-----|
----------------------------------------------------------------|
----------------------------------------------------------------|
 * *      * *     **     **      * *      * *     **     **  

2
---------------------------------------------------------------|
---------------------------------------------------------------|
---------------------------------------------------------------|
---------------------------------------------------------------|
-3-3-333--3-333--3-333--3-333--5-5-555--5-555--5-555--5-555----|
-3-3-333--3-333--3-333--3-333--5-5-555--5-555--5-555--5-555----|
 * * ***  * ***  * ***  * ***  * * ***  * ***  * ***  * ***



1:51

1+2
-----------------------------------_____-------|
----------------------------------/     \------|
------7-------9---------10------10-12-10\9-10~-|
-7777---7--88---8--1010----1010----------------|
-----------------------------------------------|
-----------------------------------------------|
 ****      **       * *     * *

-------------------------------PH-------------|
-------------------------------10-PH-PH-------|
------7-------9---------10--------10-9-PH-----|
---77---7--88---8--1010----10----------10-----|
----------------------------------------------|
----------------------------------------------|
  **      **       * *     * 


-----------------------------------_____-------|
----------------------------------/     \------|
------7-------9---------10------10-12-10\9-10~-|
---77---7--88---8--1010----1010----------------|
-----------------------------------------------|
-----------------------------------------------|
  **      **       * *     * *

-------------------------------PH-------------|
-------------------------------10-PH-PH-------|
------7-------9---------10--------10-9-PH-----|
---77---7--88---8--1010----10----------10-----|
----------------------------------------------|
----------------------------------------------|
  **      **       * *     * 


-----------------------------------_____-------|
----------------------------------/     \------|
------7-------9---------10------10-12-10\9-10~-|
---77---7--88---8--1010----1010----------------|
-----------------------------------------------|
-----------------------------------------------|
  **      **       * *     * *

-------------------------------PH-------------|
-------------------------------10-PH-PH-------|
------7-------9---------10--------10-9-PH-----|
---77---7--88---8--1010----10----------10-----|
----------------------------------------------|
----------------------------------------------|
  **      **       * *     * 


-----------------------------------_____-------|
----------------------------------/     \------|
------7-------9---------10------10-12-10\9-10~-|
---77---7--88---8--1010----1010----------------|
-----------------------------------------------|
-----------------------------------------------|
  **      **       * *     * *

----------------------|
----------------------|
------7-------9-------|
---77---7--88---8-----|
----------------------|
----------------------|
  **      **      



2:18

1+2
-----------------------------------------------------|
-----------------------------------------------------|
----_____---------------_____------------------------|
---/     \-------------/     \-----------------------|
-10-12-10-8-12-------10-12-10-8----------------------|
---------------0-0-0------------12-0-0-0-0000-0000---|
               * * *               * * * **** ****

----------------------------------------------------------|
----------------------------------------10-8-8------13-10-|
----_____---------------_____-----9-77---------1010-------|
---/     \-------------/     \----------------------------|
-10-12-10-8-12-------10-12-10-8---------------------------|
---------------0-0-0--------------------------------------|
               * * *                **          * *

-----------------------------------------------------|
-----------------------------------------------------|
----_____---------------_____------------------------|
---/     \-------------/     \-----------------------|
-10-12-10-8-12-------10-12-10-8----------------------|
---------------0-0-0------------12-0-0-0-0000-0000---|
               * * *               * * * **** ****

-------------------------------------|
-------------------------------------|
----_____---------------_____--------|
---/     \-------------/     \-------|
-10-12-10-8-12-------10-12-10-8------|
---------------0-0-0-----------------|
               * * *               


2:30
L
-----------------------------------------------------|
-----------------------------------------------------|
----_____---------------_____------------------------|
---/     \-------------/     \-----------------------|
-10-12-10-8-12-------10-12-10-8----------------------|
---------------0-0-0------------12-0-0-0-0000-0000---|
               * * *               * * * **** ****
R
-----------------------------------------------------|
-----------------------------------------------------|
---___-----------------___---------------------------|
--/   \---------------/   \--------------------------|
-7-8-7-5--8----------7-8-7-5-------------------------|
--------------0-0-0----------7---0-0-0-0000-0000-----|
              * * *              * * * **** ****

L

---------------------------------------------------------|
----------------------------------------10-8-8------13-10|
----_____---------------_____-----9-77---------1010------|
---/     \-------------/     \---------------------------|
-10-12-10-8-12-------10-12-10-8--------------------------|
---------------0-0-0-------------------------------------|
               * * *                **          * *
R
-----------------------------------------------------------|
----------------------------------------13-12-13-----17-13-|
---___-----------------___------12-1010----------1414------|
--/   \---------------/   \--------------------------------|
-7-8-7\5--8----------7-8-7\5-------------------------------|
--------------0-0-0----------------------------------------|
              * * *                 * *           * *
 

L
-----------------------------------------------------|
-----------------------------------------------------|
----_____---------------_____------------------------|
---/     \-------------/     \-----------------------|
-10-12-10-8-12-------10-12-10-8----------------------|
---------------0-0-0------------12-0-0-0-0000-0000---|
               * * *               * * * **** ****
R
-----------------------------------------------------|
-----------------------------------------------------|
---___-----------------___---------------------------|
--/   \---------------/   \--------------------------|
-7-8-7-5--8----------7-8-7-5-------------------------|
--------------0-0-0----------7---0-0-0-0000-0000-----|
              * * *              * * * **** ****

L
-----------------------------------|
-----------------------------------|
----_____---------------_____------|
---/     \-------------/     \-----|
-10-12-10-8-12-------10-12-10-8----|
---------------0-0-0---------------|
               * * *               
R
--------------------------------|
--------------------------------|
---___-----------------______---|
--/   \---------------/      \--|
-7-8-7-5--8----------10-12-10-8-|
--------------0-0-0-------------|
              * * *            


L           R          L            R
-----------19-19-14------141414-10---242424-19-|
-17-17-12--------------------------------------|
-----------------------------------------------|
-----------------------------------------------|
-----------------------------------------------|
-----------------------------------------------|


2:43

1+2
---------------------------------------------------------------------|
---------------------------------------------------------------------|
-----------------------------------------------------------------7---|
-------------------------------------------------------------------7-|
---------------------------------------------------------------------|
-880-0-0-0-0-0-0-880-0-0-0-0-0-0-880-0-0-0-0-0-0-888-8-101010-10-----|
 *** * * * * * * *** * * * * * * *** * * * * * * *** *  * * *  * 


---------------------------------------------------------------------|
-----------------------------------------------------------------H---|
-----------------------------------------------------------------7-H-|
-------------------------------------------------------------------7-|
---------------------------------------------------------------------|
-880-0-0-0-0-0-0-880-0-0-0-0-0-0-880-0-0-0-0-0-0-888-8-101010-10-----|
 *** * * * * * * *** * * * * * * *** * * * * * * *** *  * * *  *


2:56

----------------------------------------------------------------------------|
----------------------------------------------------------------------------|
-------------------------------------------------------------------------7--|
---------------------------------------------------------------------------7|
----------------------------------------------------------------------------|
-101212-0-0-0-0-0-0-101212-0-0-0-0-0-0-101212-0-0-0-0-0-0-888-8-101010-10---|
 *  * * * * * * * *  * * * * * * * * *  * * * * * * * * * *** *  * * *  * 

L
--------------------------------------------------------------------------|
--------------------------------------------------------------------------|
--------------------------------------------------------------------------|
--------------------------------------------------------------------------|
--------------------------------------------------------------------------|
-101212-0-0-0-0-0-0-101212-0-0-0-0-0-0-101212-0-0-0-0-0-0-888-8-101010-10-|
  * * * * * * * * *  * * * * * * * * *  * * * * * * * * * *** *  * * *  *
R
--------------------------------------------------------------------------|
--------------------------------------------------------------------------|
--------------------------------------------------------------------------|
--------------------------------------------------------------------------|
--------------------------------------------------------------------------|
-141515-0-0-0-0-0-0-141515-0-0-0-0-0-0-141515-0-0-0-0-0-0-888-8-101010-10-|
  * * * * * * * * *  * * * * * * * * *  * * * * * * * * * *** *  * * *  *

B
-------------------------------------|
----------------------------H--------|
----------------------------7-H------|
------------------------------7------|
-------------------------------------|
-888-8-101010-10-121212-12-----------|
 *** *  * * *  *  * * *  *



3:10

1
       __                           __
      /  \                         /  \
-20-19-20-19---19----19-17----20-19-20-19---19----19-17------|
------------20----19------17-------------20----19------17----|
-------------------------------------------------------------|
-------------------------------------------------------------|
-------------------------------------------------------------|
-------------------------------------------------------------|

2
---------------------------------------------------------------|
---------------------------------------------------------------|
---------------------------------------------------------------|
---------------------------------------------------------------|
--0----------------------------2-------------------------------|
--0----------------------------2-------------------------------|


1
       __                           __
      /  \                         /  \
-20-19-20-19---19----19-17----20-19-20-19---19----19-17------|
------------20----19------17-------------20----19------17----|
-------------------------------------------------------------|
-------------------------------------------------------------|
-------------------------------------------------------------|
-------------------------------------------------------------|

2
---------------------------------------------------------------|
---------------------------------------------------------------|
---------------------------------------------------------------|
---------------------------------------------------------------|
--3----------------------------5-------------------------------|
--3----------------------------5-------------------------------|



1
       __                           __
      /  \                         /  \
-20-19-20-19---19----19-17----20-19-20-19---19----19-17------|
------------20----19------17-------------20----19------17----|
-------------------------------------------------------------|
-------------------------------------------------------------|
-------------------------------------------------------------|
-------------------------------------------------------------|


-------------------------------------------------------------|
-------------------------------------------------------------|
-10--10-10-10-10-10-10-10--12--12--12--12--12--12--12--12----|
--X---X--X--X--X--X--X--X---X---X---X---X---X---X---X---X----|
--8---8--8--8--8--8--8--8--10--10--10--10--10--10--10--10----|
-------------------------------------------------------------|


1
       __                           __
      /  \                         /  \
-20-19-20-19---19----19-17----20-19-20-19---19----19-17------|
------------20----19------17-------------20----19------17----|
-------------------------------------------------------------|
-------------------------------------------------------------|
-------------------------------------------------------------|
-------------------------------------------------------------|

2
----------------------------------------------------------|
----------------------------------------------------------|
-14--14--14--14--14--14--14--14--17--17--17--17-----------|
--X---X---X---X---X---X---X---X---X---X---X---X--P--------|
-12--12--12--12--12--12--12--12--15--15--15--15---S\------|
----------------------------------------------------------|



1
----------------------------------------------------------------|
----------------------------------------------------------------|
1010-999------999----999----777-1010-999------999----999----777-|
---------1010-----99-----77--------------1010-----99-----77-----|
----------------------------------------------------------------|
----------------------------------------------------------------|
 * *      * *     **     **      * *      * *     **     **     
2
-------------------------------------------------------------|
-------------------------------------------------------------|
-------------------------------------------------------------|
-------------------------------------------------------------|
-0-0-000--0-000--0-000--0-000--2-2-222--2-222--2-222--2-222--|
-0-0-000--0-000--0-000--0-000--2-2-222--2-222--2-222--2-222--|
 * * ***  * ***  * ***  * ***  * * ***  * ***  * ***  * ***



1
----------------------------------------------------------------|
----------------------------------------------------------------|
1010-999------999----999----777-1010-999------999----999----777-|
---------1010-----99-----77--------------1010-----99-----77-----|
----------------------------------------------------------------|
----------------------------------------------------------------|
 * *      * *     **     **      * *      * *     **     **  

2
---------------------------------------------------------------|
---------------------------------------------------------------|
---------------------------------------------------------------|
---------------------------------------------------------------|
-3-3-333--3-333--3-333--3-333--5-5-555--5-555--5-555--5-555----|
-3-3-333--3-333--3-333--3-333--5-5-555--5-555--5-555--5-555----|
 * * ***  * ***  * ***  * ***  * * ***  * ***  * ***  * ***



1
----------------------------------------------------------------|
----------------------------------------------------------------|
1010-999------999----999----777-1010-999------999----999----777-|
---------1010-----99-----77--------------1010-----99-----77-----|
----------------------------------------------------------------|
----------------------------------------------------------------|
 * *      * *     **     **      * *      * *     **     **  
2
-------------------------------------------------------------|
-------------------------------------------------------------|
-------------------------------------------------------------|
-------------------------------------------------------------|
-0-0-000--0-000--0-000--0-000--2-2-222--2-222--2-222--2-222--|
-0-0-000--0-000--0-000--0-000--2-2-222--2-222--2-222--2-222--|
 * * ***  * ***  * ***  * ***  * * ***  * ***  * ***  * ***
3      __                           __
      /  \                         /  \
-20-19-20-19---19----19-17----20-19-20-19---19----19-17------|
------------20----19------17-------------20----19------17----|
-------------------------------------------------------------|
-------------------------------------------------------------|
-------------------------------------------------------------|
-------------------------------------------------------------|








|||||||||||||||||||||||||||||||||||||||||||||||||||||||||||||
|||||||||||||||||||||||||||||||||||||||||||||||||||||||||||||
|||||||||||||||||||||||||||||||||||||||||||||||||||||||||||||
|||||||||||||||||||||||||||||||||||||||||||||||||||||||||||||
|||||||||||||||||||||||||||||||||||||||||||||||||||||||||||||








PARKWAY DRIVE 

SNAKE OIL AND HOLY WATER

B-F#-B-E-G#-C#






0:02

---------------------------------------------------------------|
---------------------------------------------------------------|
---------------------------------------------------------------|
-----------------------------------------------7---------------|
-------------------------------------------------8---10-8-7-8--|
-0-0-0-12~-0-0-000-0-0-000-0-0-0-0-0-12~-0-0-8-----8-----------|
           * * *** * * *** * *           * *

-------------------------------------------------------------------|
-------------------------------------------------------------------|
-------------------------------------------------------------------|
-------------------------------------------------------------------|
-------------------------------------------------------------------|
-0-0-0-12~-0-0-000-0-0-000-0-0-0-0-0-12~-0-0-0-15-15-15-0-14-14-14-|
           * * *** * * *** * *           * * *          *


0:12

L
------------------------------------------------------------------|
------------------------------------------------------------------|
------------------------------------------------------------------|
-----------------------------------------------10-----------------|
-------------------------------------------------10---13-12-10-12-|
-0-0-0-12~-0-0-000-0-0-000-0-0-0-0-0-12~-0-0-12----12-------------|
           * * *** * * *** * *           * *
R
---------------------------------------------------------------|
---------------------------------------------------------------|
---------------------------------------------------------------|
-----------------------------------------------7---------------|
-------------------------------------------------8---10-8-7-8--|
-0-0-0-12~-0-0-000-0-0-000-0-0-0-0-0-12~-0-0-8-----8-----------|
           * * *** * * *** * *           * *

0:17
L
---------------------------------------------------------------------|
---------------------------------------------------------------------|
---------------------------------------------------------------------|
---------------------------------------------------------------------|
---------------------------------------------------------------------|
-0-0-0-12~--0-0-0-12~--0-0-12~--0-0-0-12~--0-0-0-19-19-19-0-17-17-17-|
                                               *          *       
R
---------------------------------------------------------------------|
---------------------------------------------------------------------|
---------------------------------------------------------------------|
---------------------------------------------------------------------|
---------------------------------------------------------------------|
-0-0-0-12~--0-0-0-12~--0-0-12~--0-0-0-12~--0-0-0-15-15-15-0-14-14-14-|
                                               *          *        


0:21
L
-----------------------------------------------------------------------|
-----------------------------------------------------------------------|
-----------------------------------------------------------------------|
-----------------------------------------------------------------------|
-----------------------------------------------------------------------|
-0-0-0-0-0-0-0-0-0-0-0-0-0-0-0-0-0-0-0-0-0-0-0-0-0-15-15-15-0-14-14-14-|
   * *   * * * *   * *   * * * *   * *   * * * * *          *
R
-----------------------------------------------------------------------|
-----------------------------------------------------------------------|
-----------------------------------------------------------------------|
-----------------------------------------------------------------------|
-----------------------------------------------------------------------|
-0-0-0-0-0-0-0-0-0-0-0-0-0-0-0-0-0-0-0-0-0-0-0-0-0-19-19-19-0-17-17-17-|
   * *   * * * *   * *   * * * *   * *   * * * * *          *

0:26
B
-------------------------------------------------------------------|
-------------------------------------------------------------------|
-------------------------------------------------------------------|
----------------------------------------------------------------7--|
---------------------------------------------------5-8-----7-10----|
-0-0-0-0-0-0-0-0-0-0-0-0-0-0-0-0-0-0-0-0-0-0-0-0-8------10---------|
   * *   * * * *   * *   * * * *   * *   * * * *           

L
-----------------------------------------------------------------------|
-----------------------------------------------------------------------|
-----------------------------------------------------------------------|
-----------------------------------------------------------------------|
-----------------------------------------------------------------------|
-0-0-0-0-0-0-0-0-0-0-0-0-0-0-0-0-0-0-0-0-0-0-0-0-0-15-15-15-0-14-14-14-|
   * *   * * * *   * *   * * * *   * *   * * * * *          *
R
-----------------------------------------------------------------------|
-----------------------------------------------------------------------|
-----------------------------------------------------------------------|
-----------------------------------------------------------------------|
-----------------------------------------------------------------------|
-0-0-0-0-0-0-0-0-0-0-0-0-0-0-0-0-0-0-0-0-0-0-0-0-0-19-19-19-0-17-17-17-|
   * *   * * * *   * *   * * * *   * *   * * * * *          *

L
---------------------------------------------------------------------|
---------------------------------------------------------------------|
---------------------------------------------------------------------|
-----------------------------------------------------------------7---|
---------------------------------------------------5-8-8----7-10-----|
-0-0-0-0-0-0-0-0-0-0-0-0-0-0-0-0-0-0-0-0-0-0-0-0-8-------10----------|
   * *   * * * *   * *   * * * *   * *   * * * *           
R
---------------------------------------------------------------------|
---------------------------------------------------------------------|
---------------------------------------------------------------------|
------------------------------------------------------------------12-|
---------------------------------------------------8-12-12--12-15----|
-0-0-0-0-0-0-0-0-0-0-0-0-0-0-0-0-0-0-0-0-0-0-0-0-12-------15---------|
   * *   * * * *   * *   * * * *   * *   * * * *           


0:41
--------------------------------------------------------------------|
--------------------------------------------------------------------|
--------------------------------------------------------------------|
--------------------------------------------------------------------|
---------77777777---------77778888---------77777777--------77773333-|
33333333---------33333333---------00000000---------00000000---------|

----------------------------------------------------------------------------|
----------------------------------------------------------------------------|
----------------------------------------------------------------------------|
------------7777------------7777------------5555101010109999----------------|
--------3333------------3333------------5555----------------1010101012121212|
77777777--------77777777--------55555555------------------------------------|


--------------------------------------------------------------------|
--------------------------------------------------------------------|
--------------------------------------------------------------------|
--------------------------------------------------------------------|
---------77777777---------77778888---------77777777--------77773333-|
33333333---------33333333---------00000000---------00000000---------|

----------------------------------------------------------------------------|
----------------------------------------------------------------------------|
----------------------------------------------------------------------------|
------------7777------------7777------------5555101010109999----------------|
--------3333------------3333------------5555----------------1010101012121212|
77777777--------77777777--------55555555------------------------------------|



1:00
-----------------------------------------------------------|
-----------------------------------------------------------|
-----------------------------------------------------------|
-----------------------------------------------------------|
-----------------------------------------------------0-----|
-7-0-8-0-10-0-7-0-8-0-10-0-7-0-8-0-10-0-7-0-8-0-10-0-0-|---|


L
------------------------------------------------------------------|
------------------------------------------------------------------|
------------------------------------------------------------------|
-----------------------------------------------10-----------------|
-------------------------------------------------10---13-12-10-12-|
-0-0-0-12~-0-0-000-0-0-000-0-0-0-0-0-12~-0-0-12----12-------------|
           * * *** * * *** * *           * *
R
---------------------------------------------------------------|
---------------------------------------------------------------|
---------------------------------------------------------------|
-----------------------------------------------7---------------|
-------------------------------------------------8---10-8-7-8--|
-0-0-0-12~-0-0-000-0-0-000-0-0-0-0-0-12~-0-0-8-----8-----------|
           * * *** * * *** * *           * *

L
-------------------------------------------------------------------|
-------------------------------------------------------------------|
-------------------------------------------------------------------|
-------------------------------------------------------------------|
-------------------------------------------------------------------|
-0-0-0-12~-0-0-000-0-0-000-0-0-0-0-0-12~-0-0-0-19-19-19-0-17-17-17-|
           * * *** * * *** * *           * * *          *
R
-------------------------------------------------------------------|
-------------------------------------------------------------------|
-------------------------------------------------------------------|
-------------------------------------------------------------------|
-------------------------------------------------------------------|
-0-0-0-12~-0-0-000-0-0-000-0-0-0-0-0-12~-0-0-0-15-15-15-0-14-14-14-|
           * * *** * * *** * *           * * *          *


1:13
L
-----------------------------------------------------------------------|
-----------------------------------------------------------------------|
-----------------------------------------------------------------------|
-----------------------------------------------------------------------|
-----------------------------------------------------------------------|
-0-0-0-0-0-0-0-0-0-0-0-0-0-0-0-0-0-0-0-0-0-0-0-0-0-15-15-15-0-14-14-14-|
   * *   * * * *   * *   * * * *   * *   * * * * *          *
R
-----------------------------------------------------------------------|
-----------------------------------------------------------------------|
-----------------------------------------------------------------------|
-----------------------------------------------------------------------|
-----------------------------------------------------------------------|
-0-0-0-0-0-0-0-0-0-0-0-0-0-0-0-0-0-0-0-0-0-0-0-0-0-19-19-19-0-17-17-17-|
   * *   * * * *   * *   * * * *   * *   * * * * *          *         

B
-------------------------------------------------------------------|
-------------------------------------------------------------------|
-------------------------------------------------------------------|
-----------------------------------------------------------------7-|
----------------------------------------------------5-8-----7-10---|
-0-0-0-0-0-0-0-0-0-0-0-0-0-0-0-0-0-0-0-0-0-0-0-0--8------10--------|
   * *   * * * *   * *   * * * *   * *   * * * *           


1:23
L
----------------------------------------------------------------------|
----------------------------------------------------------------------|
----------------------------------------------------------------------|
----------------------------------------------------------------------|
----------------------------------------------------------------------|
000-0-12-0-0-0-0-000-0-0-0-0-0-0-000-0-0-0-0-0-0-0-15-15-15-0-14-14-14|
*** *    * * * * *** *   * * * * *** *   * * * * *          *
R
----------------------------------------------------------------------|
----------------------------------------------------------------------|
----------------------------------------------------------------------|
----------------------------------------------------------------------|
----------------------------------------------------------------------|
000-0-12-0-0-0-0-000-0-0-0-0-0-0-000-0-0-0-0-0-0-0-19-19-19-0-17-17-17|
*** *    * * * * *** *   * * * * *** *   * * * * *          *


L
-------------------------------------------------------------------|
-------------------------------------------------------------------|
-------------------------------------------------------------------|
-------------------------------------------------------------------|
----------------------------------------------------5-8-----7-10---|
-000-0-12-0-0-0-0-000-0-0-0-0-0-0-000-0-0-0-0-0-0-8------10--------|
 *** *    * * * * *** *   * * * * *** *   * * * * 
R
-------------------------------------------------------------------|
-------------------------------------------------------------------|
-------------------------------------------------------------------|
-------------------------------------------------------------------|
-------12-------------------------------------------5-8-----7-10---|
-000-0-12-0-0-0-0-000-0-0-0-0-0-0-000-0-0-0-0-0-0-8------10--------|
 *** *    * * * * *** *   * * * * *** *   * * * * 


1:33
1
--------------------------------------------------------|
--------------------------------------------------------|
-----10------10--------7--------3----------10------10---|
---------10---------------7--------7-----------10-------|
--------------------------------------------------------|
-8------------------0--------3---------8----------------|
2
--------------------------------------------------------|
--------------------------------------------------------|
-----10------------------7--------3--------10-----------|
---------10-----------------7--------7---------10-------|
-------------10------------------------------------10---|
-8-----------10------0--------3---------8----------10---|


B
------------------------------------|
------------------------------------|
------------------------------------|
------------------------------------|
------------------------------------|
-7-0-8-0-10-0-7-0-8-0-10-0-8-0-7-0--|


1
--------------------------------------------------------|
--------------------------------------------------------|
-----10------10--------7--------3----------10------10---|
---------10---------------7--------7-----------10-------|
--------------------------------------------------------|
-8------------------0--------3---------8----------------|
2
--------------------------------------------------------|
--------------------------------------------------------|
-----10------------------7--------3--------10-----------|
---------10-----------------7--------7---------10-------|
-------------10------------------------------------10---|
-8-----------10------0--------3---------8----------10---|


B
---------------------------------------------|
---------------------------------------------|
---------------------------------------------|
---------------------------------------------|
----------------------------------------0----|
-7-0-8-0-10-0-7-0-8-0-10-0-7-0-8-0-10-0-0-|--|



1:53

----------------------------------------------------------------|
----------------------------------------------------------------|
----------------------------------------------------------------|
-------------------------------------------------7--------------|
---------------------------------------------------8---10-8-7-8-|
-0-0-0-12~--0-0-0-12~--0-0-12~--0-0-0-12~--0-0-8-----8----------|


---------------------------------------------------------------------|
---------------------------------------------------------------------|
---------------------------------------------------------------------|
---------------------------------------------------------------------|
---------------------------------------------------------------------|
-0-0-0-12~--0-0-0-12~--0-0-12~--0-0-0-12~--0-0-0-15-15-15-0-14-14-14-|
                                               *          *

2:03
L
------------------------------------------------------------------------|
------------------------------------------------------------------------|
------------------------------------------------------------------------|
------------------------------------------------------------------------|
------------------------------------------------------------------------|
-000-000-000-000-000-000-000-000-000-000-000-000-10-13-13-13-10-12-12-12|
 *** *** *** *** *** *** *** *** *** *** *** ***  *  *  *  *  *  *  *  *
R
------------------------------------------------------------------------|
------------------------------------------------------------------------|
------------------------------------------------------------------------|
------------------------------------------------------------------------|
-------------------------------------------------10-13-13-13-10-12-12-12|
-000-000-000-000-000-000-000-000-000-000-000-000------------------------|
 *** *** *** *** *** *** *** *** *** *** *** ***  *  *  *  *  *  *  *  *

L
-------------------------------------------------------------------|
-------------------------------------------------------------------|
-------------------------------------------------------------------|
-----------------------------------------------------------------7-|
---------------------------------------------------5-8-8----7-10---|
-000-000-000-000-000-000-000-000-000-000-000-000-8-------10--------|
 *** *** *** *** *** *** *** *** *** *** *** ***
R
---------------------------------------------------------------------|
---------------------------------------------------------------------|
---------------------------------------------------------------------|
-------------------------------------------------------------------12|
----------------------------------------------------8-12-12---12-15--|
-000-000-000-000-000-000-000-000-000-000-000-000-12---------15-------|
 *** *** *** *** *** *** *** *** *** *** *** ***



--------------------------------------------------------------------|
--------------------------------------------------------------------|
--------------------------------------------------------------------|
--------------------------------------------------------------------|
---------77777777---------77778888---------77777777--------77773333-|
33333333---------33333333---------00000000---------00000000---------|


----------------------------------------------------------------------------|
----------------------------------------------------------------------------|
----------------------------------------------------------------------------|
------------7777------------7777------------5555101010109999----------------|
--------3333------------3333------------5555----------------1010101012121212|
77777777--------77777777--------55555555------------------------------------|


--------------------------------------------------------------------|
--------------------------------------------------------------------|
--------------------------------------------------------------------|
--------------------------------------------------------------------|
---------77777777---------77778888---------77777777--------77773333-|
33333333---------33333333---------00000000---------00000000---------|

L
-------------------------------------------------------------------------|
-------------------------------------------------------------------------|
----------------------------------------------------99997777-------------|
------------7777------------7777--------999910101010--------999910101010-|
--------3333------------3333---------------------------------------------|
77777777--------77777777--------55555555---------------------------------|

R
----------------------------------------------------------------------------|
----------------------------------------------------------------------------|
----------------------------------------------------------------------------|
------------7777------------7777------------5555101010109999----------------|
--------3333------------3333------------5555----------------1010101012121212|
77777777--------77777777--------55555555------------------------------------|






L
---------------------------------------------------------------------|
---------------------------------------------------------------------|
---------------------------------------------------------------------|
---------99999999--------999910101010--------99999999--------99995555|
-55555555--------55555555------------55555555--------55555555--------|
---------------------------------------------------------------------|
R
--------------------------------------------------------------------|
--------------------------------------------------------------------|
--------------------------------------------------------------------|
--------------------------------------------------------------------|
---------77777777---------77778888---------77777777--------77773333-|
33333333---------33333333---------00000000---------00000000---------|


L
-------------------------------------------------------------|
-------------------------------------------------------------|
-------------------------------------------------------------|
--------999910101010--------999910101010--------999910101010-|
77777777------------77777777------------55555555-------------|
-------------------------------------------------------------|
L CONT
-------------------------|
-------------------------|
-99997777----------------|
---------999910101010----|
-------------------------|
-------------------------|
R
----------------------------------------------------------------------------|
----------------------------------------------------------------------------|
----------------------------------------------------------------------------|
------------7777------------7777------------5555101010109999----------------|
--------3333------------3333------------5555----------------1010101012121212|
77777777--------77777777--------55555555------------------------------------|


L                          B
--------------------------------------------------------|
--------------------------------------------------------|
--------------------------------------------------------|
--------------------------------------------------------|
------------------------------------------------0-------|
-7-0-8-0-10-0-7-0-8-0-10-0-7-0-8-0-10-0-8-0-7-0-0-|-----|







||||||||||||||||||||||||||||||||||||||||||||||||||||||||
||||||||||||||||||||||||||||||||||||||||||||||||||||||||
||||||||||||||||||||||||||||||||||||||||||||||||||||||||
||||||||||||||||||||||||||||||||||||||||||||||||||||||||








PARKWAY DRIVE

BLUE AND THE GREY

A#-F-A#-D#-G-C





1
------------------------------------------------------------------|
--------------------------------------------------------^---------|
-----14--14--14--14--12--12---9---9--10--10-12---10---12-10-------|
-----15--15--15--15--14--14--10--10--12--12-14---12---------14-12-|
------------------------------------------------------------------|
------------------------------------------------------------------|
2
------------------------------------------------------------------|
------------------------------------------------------------------|
------------------------------------------------------------------|
-14------------------------------10--------------12---------------|
-12-------------------------------8--------------10---------------|
-12-------------------------------8--------------10---------------|


1
--------------------------------------------------------|
--------------------------------------------------------|
-----14--14--14--14--12--12---9---9--10--10-12---10-----|
-----15--15--15--15--14--14--10--10--12--12-14---12-----|
--------------------------------------------------------|
--------------------------------------------------------|
2
--------------------------------------------------------|
--------------------------------------------------------|
--------------------------------------------------------|
-14------------------------------10--------------12-----|
-12-------------------------------8--------------10-----|
-12-------------------------------8--------------10-----|


1
------------------------------------------------------------------|
--------------------------------------------------------^---------|
-----14--14--14--14--12--12---9---9--10--10-12---10---12-10-------|
-----15--15--15--15--14--14--10--10--12--12-14---12---------14-12-|
------------------------------------------------------------------|
------------------------------------------------------------------|
2
------------------------------------------------------------------|
------------------------------------------------------------------|
------------------------------------------------------------------|
-14------------------------------10--------------12---------------|
-12-------------------------------8--------------10---------------|
-12-------------------------------8--------------10---------------|


1
--------------------------------------------------------|
--------------------------------------------------------|
-----14--14--14--14--12--12---9---9--10--10-12---10-----|
-----15--15--15--15--14--14--10--10--12--12-14---12-----|
--------------------------------------------------------|
--------------------------------------------------------|
2
---------------------------------------------------------------|
---------------------------------------------------------------|
---------------------------------------------------------------|
-14------------------------------10--------------12------------|
-12-------------------------------8--------------10------------|
-12-------------------------------8--------------10------------|
3
---------------------------------------------------------------|
---------------------------------------------------------------|
---------------------------------------------------------------|
---------------------------------------------------------------|
--------------------------------------------------------0-0----|
--------------------------------------------------------0-0----|
                                                        * *




0:34


1
------------------------------------------------------------------|
--------------------------------------------------------^---------|
-----14--14--14--14--12--12---9---9--10--10-12---10---12-10-------|
-----15--15--15--15--14--14--10--10--12--12-14---12---------14-12-|
------------------------------------------------------------------|
------------------------------------------------------------------|
2
------------------------------------------------------------------|
------------------------------------------------------------------|
------------------------------------------------------------------|
-14------------------------------10--------------12---------------|
-12-------------------------------8--------------10---------------|
-12-------------------------------8--------------10---------------|
3
------------------------------------------------------------------|
------------------------------------------------------------------|
------------------------------------------------------------------|
-0----------------------------------------------------------------|
-0--------------------0-0----------------0-0------------0-0-------|
-0--------------------0-0----------------0-0------------0-0-------|
                      * *                * *            * *


1
--------------------------------------------------------|
--------------------------------------------------------|
-----14--14--14--14-15-14--12---9---9--10--10-12---10---|
-----15--15--15--15/17-15--14--10--10--12--12-14---12---|
--------------------------------------------------------|
--------------------------------------------------------|
2
---------------------------------------------------------------|
---------------------------------------------------------------|
-------------------------------------------------12------------|
-14------------------------------10--------------12------------|
-12-------------------------------8--------------10------------|
-12-------------------------------8--------------10------------|
3
---------------------------------------------------------------|
---------------------------------------------------------------|
---------------------------------------------------------------|
-0---------------------------0--0------------------------------|
-0---------------------------0--0------------------------------|
-0---------------------------0--0------------------------------|
                             *  *           



0:49

1
---------------------------------------------------------|
---------------------------------------------------------|
-7------------7-7-7-1010------1010-9-5-5------10-9--9-9--|
-X------------X-X-X--X-X-------X-X-X-X-X-------X-X--X-X--|
-5------------5-5-7/-8-8-------8-8-7\3-3-------8\7--7-7--|
---------------------------------------------------------|
2
---------------------------------------------------------|
---------------------------------------------------------|
---------------------------------------------------------|
---------------------------------------------------------|
-0----------------------8--------------10----------------|
-0----------------------8--------------10----------------|


1
---------------------------------------------------------|
---------------------------------------------------------|
-7------------7-7-7-1010------1010-9-5-5------10-9--9-9--|
-X------------X-X-X--X-X-------X-X-X-X-X-------X-X--X-X--|
-5------------5-5-7/-8-8-------8-8-7\3-3-------8\7--7-7--|
---------------------------------------------------------|
2
---------------------------------------------------------|
---------------------------------------------------------|
---------------------------------------------------------|
---------------------------------------------------------|
-0----------------------8--------------10----------------|
-0----------------------8--------------10----------------|


1
---------------------------------------------------------|
---------------------------------------------------------|
-7------------7-7-7-1010------1010-9-5-5------10-9--9-9--|
-X------------X-X-X--X-X-------X-X-X-X-X-------X-X--X-X--|
-5------------5-5-7/-8-8-------8-8-7\3-3-------8\7--7-7--|
---------------------------------------------------------|
2
---------------------------------------------------------|
---------------------------------------------------------|
---------------------------------------------------------|
---------------------------------------------------------|
-0----------------------8--------------10----------------|
-0----------------------8--------------10----------------|


1
---------------------------------------------------------|
---------------------------------------------------------|
-7------------7-7-7-1010------1010-9-5-5------10-9--9-9--|
-X------------X-X-X--X-X-------X-X-X-X-X-------X-X--X-X--|
-5------------5-5-7/-8-8-------8-8-7\3-3-------8\7--7-7--|
---------------------------------------------------------|
2
---------------------------------------------------------|
---------------------------------------------------------|
---------------------------------------------------------|
---------------------------------------------------------|
-0----------------------8--------------10----------------|
-0----------------------8--------------10----------------|


-----------------------------------|
-----------------------------------|
---------------------P-------------|
----------------------S\-----------|
--8----------10--------------------|
--8----------10--------------------|





1:18


---------------------------------------------------------|
---------------------------------------------------------|
----------------------------------------9-9-9------------|
-------------7-7-7-------10-10-10-7-7-7-------10-10-12---|
-------5-5-5-------8-8-8---------------------------------|
-0-0-0---------------------------------------------------|
 * * * * * * * * * * * *  *  *  * * * * * * *  *  *  *

---------------------------------------------------------|
---------------------------------------------------------|
----------------------------------------9-9-9------------|
-------------7-7-7-------10-10-10-7-7-7-------10-10-12---|
-------5-5-5-------8-8-8---------------------------------|
-0-0-0---------------------------------------------------|
 * * * * * * * * * * * *  *  *  * * * * * * *  *  *  *

---------------------------------------------------------|
---------------------------------------------------------|
----------------------------------------9-9-9------------|
-------------7-7-7-------10-10-10-7-7-7-------10-10-12---|
-------5-5-5-------8-8-8---------------------------------|
-8-8-8---------------------------------------------------|
 * * * * * * * * * * * *  *  *  * * * * * * *  *  *  *

1
----------------------------------------------------------|
----------------------------------------------------------|
----------------------------------------------------------|
-------------7-7-7----------------------------------------|
-------5-5-5-------8-8-8----------------------------------|
-8-8-8---------------------8-8-8-8-12-8-10-10-10-10-14-10-|
 * * * * * * * * * * * * 
2
------------------------------------------------------|
------------------------------------------------------|
------------------------------------------------------|
-------------7-7-7------------------------------------|
-------5-5-5-------8-8-8------------------------------|
-8-8-8---------------------5-5-5-5-8-5-7-7-7-7-10-7---|
 * * * * * * * * * * * * 


1:31

1             pan delay effect
---13--13----[--13--13----]---13--13-------------------------|
-17--17--17--[17--17--17--]-17--17--17----------------__-----|
-----------17[----------17]-----------17--14----14---/  \----|
---------------------------------------------17----15-14-15--|
-------------------------------------------------------------|
-------------------------------------------------------------|
2
----------------------------------------------------------------|
----------------------------------------------------------------|
----------------------------------------------------------------|
----------------------------------------------------------------|
-0000000------0000---0000---0000000-----------------------------|
-0000000------0000---0000---0000000--5-5-5-5-8-5-7-7-7-7-10-7---|
 *******      ****   ****   *******  
3
-------------------------------------------------------------------|
-------------------------------------------------------------------|
-------------------------------------------------------------------|
-------------------------------------------------------------------|
-------------------------------------------------------------------|
------------------------------------8-8-8-8-12-8-10-10-10-10-14-10-|



1             pan delay effect
---13--13----[--13--13----]---13--13-------------------------|
-17--17--17--[17--17--17--]-17--17--17----------------__-----|
-----------17[----------17]-----------17--14----14---/  \----|
---------------------------------------------17----15-14-15--|
-------------------------------------------------------------|
-------------------------------------------------------------|
R HARMONY
---17--17----------------------------------------------------|
-20--20--20--------------------------------------------------|
-----------19------------------------------------------------|
-------------------------------------------------------------|
-------------------------------------------------------------|
-------------------------------------------------------------|

2
--------------------------------------------------------------|
--------------------------------------------------------------|
--------------------------------------------------------------|
--------------------------------------------------------------|
-0000000------0000---0000---0000000---------------------------|
-0000000------0000---0000---0000000--8--------10--------------|
 *******      ****   ****   *******  
3
--------------------------------------------------------------|
--------------------------------------------------------------|
--------------------------------------------------------------|
--------------------------------------------------------------|
--------------------------------------------------------------|
-------------------------------------12--------14-------------|




1:44

---------------------------------------------------------|
---------------------------------------------------------|
----------------------------------------9-9-9------------|
-------------7-7-7-------10-10-10-7-7-7-------10-10-12---|
-------5-5-5-------8-8-8---------------------------------|
-0-0-0---------------------------------------------------|
 * * * * * * * * * * * *  *  *  * * * * * * *  *  *  *

---------------------------------------------------------|
---------------------------------------------------------|
----------------------------------------9-9-9------------|
-------------7-7-7-------10-10-10-7-7-7-------10-10-12---|
-------5-5-5-------8-8-8---------------------------------|
-0-0-0---------------------------------------------------|
 * * * * * * * * * * * *  *  *  * * * * * * *  *  *  *

---------------------------------------------------------|
---------------------------------------------------------|
----------------------------------------9-9-9------------|
-------------7-7-7-------10-10-10-7-7-7-------10-10-12---|
-------5-5-5-------8-8-8---------------------------------|
-8-8-8---------------------------------------------------|
 * * * * * * * * * * * *  *  *  * * * * * * *  *  *  *


-----------------------------13--13--------|
---------------------------17--17--17------|
-------------------------------------17----|
-------------7-7-7-------------------------|
-------5-5-5-------8-8-8-------------------|
-8-8-8-------------------------------------|
 * * * * * * * * * * * *  


1:58


1             pan delay effect
---13--13----[--13--13----]---13--13-------------------------|
-17--17--17--[17--17--17--]-17--17--17----------------__-----|
-----------17[----------17]-----------17--14----14---/  \----|
---------------------------------------------17----15-14-15--|
-------------------------------------------------------------|
-------------------------------------------------------------|
2
----------------------------------------------------------------|
----------------------------------------------------------------|
----------------------------------------------------------------|
----------------------------------------------------------------|
-0000000------0000---0000---0000000-----------------------------|
-0000000------0000---0000---0000000--5-5-5-5-8-5-7-7-7-7-10-7---|
 *******      ****   ****   *******  
3
-------------------------------------------------------------------|
-------------------------------------------------------------------|
-------------------------------------------------------------------|
-------------------------------------------------------------------|
-------------------------------------------------------------------|
------------------------------------8-8-8-8-12-8-10-10-10-10-14-10-|



1             pan delay effect
---13--13----[--13--13----]---13--13-------------------------|
-17--17--17--[17--17--17--]-17--17--17-----------------------|
-----------17[----------17]-----------17--14----14---^-------|
---------------------------------------------17----15-14-15--|
-------------------------------------------------------------|
-------------------------------------------------------------|
R HARMONY
---17--17---------------------17--17-------------------------|
-20--20--20-----------------20--20--17-----------------------|
-----------19-------------------------17---------------------|
-------------------------------------------------------------|
-------------------------------------------------------------|
-------------------------------------------------------------|

2
--------------------------------------------------------------|
--------------------------------------------------------------|
--------------------------------------------------------------|
--------------------------------------------------------------|
-0000000------0000---0000---0000000---------------------------|
-0000000------0000---0000---0000000--8--------10--------------|
 *******      ****   ****   *******  
3
--------------------------------------------------------------|
--------------------------------------------------------------|
--------------------------------------------------------------|
--------------------------------------------------------------|
--------------------------------------------------------------|
-------------------------------------12--------14-------------|



2:10

L
-----------------------------------------------------------------------|
-----------------------------------------------------------------------|
-----------------------------------------------------------------------|
-----------------------------------------------------------------------|
--------12-12-8--10-10-7---------7-7-10--8-8-12---------12-12-8-10-10-7|
000-000------------------000-000----------------000-000----------------|
*** ***  *  * *   *  * * *** *** * *  *  * *  * *** ***  *  * *  *  * * 

R
---------------------------------------------------------------|
---------------------------------------------------------------|
---------------------------------------------------------------|
-0-------------------------------------------------------------|
-0-------------------------------------------------------------|
-0-------------------------------------------------------------|


1L
------------------------|
-------------__---------|
-14----14---/  \--------|
----17----15-14-15------|
------------------------|
------------------------|
2R
------------------------|
--------------__--------|
--10----10---/  \-------|
-----14----12-10-12-----|
------------------------|
------------------------|



2:17

1
------------------------------------------------------------------------|
------------------------------------------------------------------------|
------------------------------------------------------------------------|
------------------------------------------------------------------------|
--------12-12-8--10-10-7---------7-7-10--8-8-12---------12-12-8--10-10-7|
000-000------------------000-000----------------000-000-----------------|
*** ***  *  * *   *  * * *** *** * *  *  * *  * *** ***  *  * *   *  * *
2
-----------------------------------------------------------------------|
-----------------------------------------------------------------------|
-----------------------------------------------------------------------|
-----------------------------------------------------------------------|
-----------------------------------------------------------------------|
000-000------------------000-000----------------000-000----------------|
*** ***                  *** ***                *** ***



2:25

B
------------------------------------------------------------------------|
------------------------------------------------------------------------|
------------------------------------------------------------------------|
------------------------------------------------------------------------|
--------12-12-8--10-10-7---------12-12-8--10-10-7--------12-12-8-10-10-7|
000-000------------------000-000------------------000-000---------------|
*** ***  *  * *   *  * * *** ***  *  * *   * *  * *** *** *  * *  *  * *

--------------------------------------------|
--------------------------------------------|
--------------------------------------------|
--------------------------------------------|
---------8-8-8-8-------------10-10-10-10----|
-8-8-8-8---------10-10-10-10----------------|


------------------------------------------------------------------------|
------------------------------------------------------------------------|
------------------------------------------------------------------------|
------------------------------------------------------------------------|
--------12-12-8--10-10-7---------12-12-8--10-10-7--------12-12-8-10-10-7|
000-000------------------000-000------------------000-000---------------|
*** ***  *  * *   *  * * *** ***  *  * *   * *  * *** *** *  * *  *  * *

--------------------------------------------|
--------------------------------------------|
--------------------------------------------|
--------------------------------------------|
---------8-8-8-8-------------10-10-10-10----|
-8-8-8-8---------10-10-10-10----------------|



2:38

L
-----------------------------------------------------------------|
-----------------------------------------------------------------|
-----------------------------------------------------------------|
-----------------------------------------------------------------|
---------8-8-5--7-7-3---------3-3-7--5-5-8----------8-8-5--7-7-3-|
-000-000--------------000-000--------------000-000---------------|
 *** *** * * *  * * * *** *** * * *  * * * *** ***  * * *  * * * 
R
------------------------------------------------------------------------|
------------------------------------------------------------------------|
------------------------------------------------------------------------|
------------------------------------------------------------------------|
--------12-12-8--10-10-7---------7-7-10--8-8-12---------12-12-8--10-10-7|
000-000------------------000-000----------------000-000-----------------|
*** ***  *  * *   *  * * *** *** * *  *  * *  * *** ***  *  * *  *  *  *

1
--------------------------------------------|
--------------------------------------------|
--------------------------------------------|
--------------------------------------------|
---------5-5-5-5---------7-7-7-7------------|
-5-5-5-5---------7-7-7-7--------------------|
2
--------------------------------------------|
--------------------------------------------|
--------------------------------------------|
--------------------------------------------|
---------8-8-8-8-------------10-10-10-10----|
-8-8-8-8---------10-10-10-10----------------|


2:44

1
--------------------------------------------------------------------|
--------------------------------------------------------------------|
---------------------------------------------------9-10-12-10-12-14-|
---------------------------------------------------X--X--X--X--X--X-|
-000-000-------------000-000-------------000-000---7--8-10--8-10-12-|
-000-000-------------000-000-------------000-000--------------------|
 *** ***             *** ***             *** ***   

2
---------------------------------------------------------------|
---------------------------------------------------------------|
--------------------------------------------------5-7-9-7-9-10-|
--------------------------------------------------X-X-X-X-X-X--|
-000-000-------------000-000-------------000-000--3-5-7-5-7-8--|
-000-000-------------000-000-------------000-000---------------|
 *** ***             *** ***             *** ***  


2:51

B
---------------------------------------------------------|
---------------------------------------------------------|
----------------------------------------9-9-9------------|
-------------7-7-7-------10-10-10-7-7-7-------10-10-12---|
-------5-5-5-------8-8-8---------------------------------|
-8-8-8---------------------------------------------------|
 * * * * * * * * * * * *  *  *  * * * * * * *  *  *  *

---------------------------------------------------------|
---------------------------------------------------------|
----------------------------------------9-9-9------------|
-------------7-7-7-------10-10-10-7-7-7-------10-10-12---|
-------5-5-5-------8-8-8---------------------------------|
-8-8-8---------------------------------------------------|
 * * * * * * * * * * * *  *  *  * * * * * * *  *  *  *

L
------------------------------------------------------------|
------------------------------------------------------------|
----------------------------9-9-9----------12-12-12-9-9-10--|
-------------10-10-10-7-7-7-------10-10-10------------------|
-------8-8-8------------------------------------------------|
-0-0-0------------------------------------------------------|
 * * * * * *  *  *  * * * * * * *  *  *  *  *  *  * * *  *
R
---------------------------------------------------------|
---------------------------------------------------------|
----------------------------------------9-9-9------------|
-------------7-7-7-------10-10-10-7-7-7-------10-10-12---|
-------5-5-5-------8-8-8---------------------------------|
-0-0-0---------------------------------------------------|
 * * * * * * * * * * * *  *  *  * * * * * * *  *  *  *

L
------------------------------------------------------------|
------------------------------------------------------------|
------------------------------------------------------------|
-------------10-10-10-7-7-7---------------------------------|
-------8-8-8------------------------------------------------|
-0-0-0-----------------------8-8-8-8-12-8-10-10-10-10-14-10-|
 * * * * * *  *  * *  * * * 
R
------------------------------------------------------------|
------------------------------------------------------------|
------------------------------------------------------------|
-------------7-7-7------------------------------------------|
-------5-5-5-------8-8-8------------------------------------|
-0-0-0-----------------------8-8-8-8-12-8-10-10-10-10-14-10-|
 * * * * * * * * * * * * 


3:04

B
----------------------------------------------------------|
----------------------------------------------------------|
----------------------------------------------------------|
-------------7-7-7----------------------10-10-10----------|
-------5-5-5-------8-8-8----------7-7-7----------8-8-8----|
-8-8-8-------------------10-10-10-------------------------|
 * * * * * * * * * * * *  *  *  * * * *  *  *  * * * *

----------------------------------------------------------------------|
----------------------------------------------------------------------|
------------------------------------------------------10-10-10--------|
-------------------12-12-12-------------------12-12-12--------14-14-14|
----------12-12-12----------12-12-12----------------------------------|
-12-12-12----------------------------10-10-10-------------------------|
  *  *  *  *  *  *  *  *  *  *  *  *  *  *  *  *  *  *  * * *  *  *  *

----------------------------------------------------------|
----------------------------------------------------------|
----------------------------------------------------------|
-------------7-7-7----------------------10-10-10----------|
-------5-5-5-------8-8-8----------7-7-7----------7-7-8----|
-8-8-8-------------------10-10-10-------------------------|
 * * * * * * * * * * * *  *  *  * * * *  *  *  * * * *

-------------------------------------------|
-------------------------------------------|
-------------------------------------------|
-------------------12-12-12----------------|
----------12-12-12----------12-12-12-0-----|
-12-12-12----------------------------0-|---|
  *  *  *  *  *  *  *  *  *  *  *  *


3:17

----------------------------------------------------------------|
----------------------------------------------------------------|
----------------------------------------------------------------|
----------------------------------------------------------------|
-0000000------0000---0000---0000000-----------------------------|
-0000000------0000---0000---0000000--5-5-5-5-8-5-7-7-7-7-10-7---|
 *******      ****   ****   *******

--------------------------------------------------------------|
--------------------------------------------------------------|
--------------------------------------------------------------|
--------------------------------------------------------------|
-0000000------0000---0000---0000000---------------------------|
-0000000------0000---0000---0000000--8--------10--------------|
 *******      ****   ****   *******  

--------------------------------------------------------------|
--------------------------------------------------------------|
--------------------------------------------------------------|
--------------------------------------------------------------|
--------------------------------------------------------------|
-------------------------------------12--------14-------------|



3:30

1             pan delay effect
---13--13----[--13--13----]---13--13-------------------------|
-17--17--17--[17--17--17--]-17--17--17-----------------------|
-----------17[----------17]-----------17--14----14---^-------|
---------------------------------------------17----15-14-15--|
-------------------------------------------------------------|
-------------------------------------------------------------|

2
----------------------------------------------------------------|
----------------------------------------------------------------|
----------------------------------------------------------------|
----------------------------------------------------------------|
----------------------------------------------------------------|
-0000000------0000---0000---0000000--5-5-5-5-8-5-7-7-7-7-10-7---|



1             pan delay effect
---13--13----[--13--13----]---13--13-------------------------|
-17--17--17--[17--17--17--]-17--17--17-----------------------|
-----------17[----------17]-----------17--14----14---^-------|
---------------------------------------------17----15-14-15--|
-------------------------------------------------------------|
-------------------------------------------------------------|
R HARMONY
---17--17---------------------17--17-------------------------|
-20--20--20-----------------20--20--17-----------------------|
-----------19-------------------------17---------------------|
-------------------------------------------------------------|
-------------------------------------------------------------|
-------------------------------------------------------------|
2
--------------------------------------------------------------|
--------------------------------------------------------------|
--------------------------------------------------------------|
--------------------------------------------------------------|
---------------------------------------8--------10--------0---|
-0000000------0000---0000---0000000----8--------10--------0---|
                                     






3:45

1
------------------------------------------------------------------|
--------------------------------------------------------^---------|
-----14--14--14--14--12--12---9---9--10--10-12---10---12-10-------|
-----15--15--15--15--14--14--10--10--12--12-14---12---------14-12-|
------------------------------------------------------------------|
------------------------------------------------------------------|
2
------------------------------------------------------------------|
------------------------------------------------------------------|
------------------------------------------------------------------|
-14------------------------------10--------------12---------------|
-12-------------------------------8--------------10---------------|
-12-------------------------------8--------------10---------------|


1
--------------------------------------------------------|
--------------------------------------------------------|
-----14--14--14--14-15-14--12---9---9--10--10-12---10---|
-----15--15--15--15/17-15--14--10--10--12--12-14---12---|
--------------------------------------------------------|
--------------------------------------------------------|
2
--------------------------------------------------------|
--------------------------------------------------------|
-------------------------------------------------12-----|
-14------------------------------10--------------12-----|
-12-------------------------------8--------------10-----|
-12-------------------------------8--------------10-----|




3:58

1
---------------------------------------------------------|
---------------------------------------------------------|
-7------------7-7-7-1010------1010-9-5-5------10-9--9-9--|
-X------------X-X-X--X-X-------X-X-X-X-X-------X-X--X-X--|
-5------------5-5-7/-8-8-------8-8-7\3-3-------8\7--7-7--|
---------------------------------------------------------|
2
---------------------------------------------------------|
---------------------------------------------------------|
---------------------------------------------------------|
---------------------------------------------------------|
-0----------------------8--------------10----------------|
-0----------------------8--------------10----------------|


1
---------------------------------------------------------|
---------------------------------------------------------|
-7------------7-7-7-1010------1010-9-5-5------10-9--9-9--|
-X------------X-X-X--X-X-------X-X-X-X-X-------X-X--X-X--|
-5------------5-5-7/-8-8-------8-8-7\3-3-------8\7--7-7--|
---------------------------------------------------------|
2
---------------------------------------------------------|
---------------------------------------------------------|
---------------------------------------------------------|
---------------------------------------------------------|
-0----------------------8--------------10----------------|
-0----------------------8--------------10----------------|





4:11


1 SOLO
--------------------------------------------)--|
--)--(--------------------------------10-12----|
-7-----7~~-5-7--5-----7--7/9---9-10---9--12----|
--------------8---7/8--8----10-----12----------|
-----------------------------------------------|
-----------------------------------------------|
              *        *     *      *
2
----------------------------------------------|
----------------------------------------------|
----------------------------------------------|
----------------------------------------------|
-0------------------8-----------10------------|
-0------------------8-----------10------------|


4:17


1
-(---------------)-(-  ---)-(--------------------------|
---13-12-10-12-12----13-12-----------------------10-13-|
---13-12-10-12-12-------12-----10-12-------10-12-------|
-------------------------------------12~---------------|
-------------------------------------------------------|
-------------------------------------------------------|

2
---------------------------------------------------|
---------------------------------------------------|
---------------------------------------------------|
---------------------------------------------------|
-0----------------------8-----------10------0-0----|
-0----------------------8-----------10------0-0----|
                                            * *



4:24
                             T   T      T   T      T   T      T   T
1                             ^   /\     ^   /\     ^   /\     ^   /\     
--------10-----12-----13----1715171513-1715171513-1715171513-1715171513|
10~10/11--11/13--13/15--15---------------------------------------------|
-----------------------------------------------------------------------|
-----------------------------------------------------------------------|
-----------------------------------------------------------------------|
-----------------------------------------------------------------------|

2
-------------------------------------------------|
-------------------------------------------------|
-------------------------------------------------|
-------------------------------------------------|
-------------------------------------------------|
000-000-000-000-000-000-000-000-888-888-888-888--|
*** *** *** *** *** *** *** *** *** *** *** ***


4:29

   T   T      T   T      T   T      T   T
1   ^   /\     ^   /\     ^   /\     ^   /\     )()()()(   )SLOW RELEASE
--2015201513-2015201513-2015201513-2015201513-20---------18------------|
-----------------------------------------------------------------------|
-----------------------------------------------------------------------|
-----------------------------------------------------------------------|
-----------------------------------------------------------------------|
-----------------------------------------------------------------------|
2
---------------------------------------------------------------|
---------------------------------------------------------------|
---------------------------------------------------------------|
---------------------------------------------------------------|
---------------------------------------------------------------|
-101010-101010-101010-101010--000-000-000-000-000-000-000-000--|
  * * *  * * *  * * *  * * *  *** *** *** *** *** *** *** *** 


4:34
   ___
1 /   \
17181715-17-15-----15----------------------------------------------------|
--------------18-17--18-17-15-18-17-15-13-15-13---------13--------)(^----|
------------------------------------------------14-12-14--14-12-12---10--|
-----------------------------------------------------------------------12|
-------------------------------------------------------------------------|
-------------------------------------------------------------------------|

2
------------------------------------------|
------------------------------------------|
------------------------------------------|
------------------------------------------|
------------------------------------------|
-888-888-888-888-101010-101010-10-10------|
 *** *** *** ***  * * *  * * *  *  *


4:37

W/ MELODY ECHOED

---------------------------------------------------------------|
---------------------------------------------------------------|
---------------------------------------------------------------|
---------------------------------------------------------------|
-0---------0--0-0-----------8---------10--10-10----------------|
-0---0-0-0-0--0-0---0-0-0-0-8---8-8-8-10--10-10---10-10-10-10--|
     * * *          * * * *     * * *              *  *  *  *

---------------------------------------------------------------|
---------------------------------------------------------------|
---------------------------------------------------------------|
---------------------------------------------------------------|
-0---------0--0-0-----------8---------10--10-10----------------|
-0---0-0-0-0--0-0---0-0-0-0-8---8-8-8-10--10-10---10-10-10-10--|
     * * *          * * * *     * * *              *  *  *  *


4:50

1
2ND SOLO
--------------------SLOW BND-------------|
-----------------------------------------|
-------14--12-------)--------------------|
-/12-----------15-14---------14~~~-------|
-----------------------------------------|
-----------------------------------------|

2
----------------------------------------------|
----------------------------------------------|
----------------------------------------------|
----------------------------------------------|
-0------------------------8-----------10------|
-0------------------------8-----------10------|



1
-------------------)---(--------------|
----------------/15------15~~---------|
-----14--12-------------------P-------|
-12---------15-----------------S\-----|
--------------------------------------|
--------------------------------------|

2
----------------------------------------------|
----------------------------------------------|
----------------------------------------------|
----------------------------------------------|
-0------------------------8-----------10------|
-0------------------------8-----------10------|


5:03

W/ MELODY 

---------------------------------------------------------------|
---------------------------------------------------------------|
---------------------------------------------------------------|
---------------------------------------------------------------|
-0---------0--0-0-----------8---------10--10-10----------------|
-0---0-0-0-0--0-0---0-0-0-0-8---8-8-8-10--10-10---10-10-10-10--|
     * * *          * * * *     * * *              *  *  *  *

---------------------------------------------------------------|
---------------------------------------------------------------|
---------------------------------------------------------------|
---------------------------------------------------------------|
-0---------0--0-0-----------8---------10--10-10----------------|
-0---0-0-0-0--0-0---0-0-0-0-8---8-8-8-10--10-10---10-10-10-10--|
     * * *          * * * *     * * *              *  *  *  *




5:16

1
----6----6----------|
-10---10---10-------|
--------------7-----|
--------------------|
--------------------|
--------------------|

2
-----------------------------------------------------------------|
-----------------------------------------------------------------|
-----------------------------------------------------------------|
-----------------------------------------------------------------|
-0---0-0--0-----------0-0-0---8---------10--10-10----------------|
-0---0-0--0-----------0-0-0---8---8-8-8-10--10-10---10-10-10-10--|
     * *  *           * * *

W/ MELODY 

---------------------------------------------------------------|
---------------------------------------------------------------|
---------------------------------------------------------------|
---------------------------------------------------------------|
-0---0 0 0 0--0-0---0 0 0 0-8---------10--10-10----------------|
-0---0-0-0-0--0-0---0-0-0-0-8---8-8-8-10--10-10---10-10-10-10--|
     * * * *  * *   * * * *     * * *              *  *  *  *

----------------------------------------------------|
----------------------------------------------------|
----------------------------------------------------|
------------------------------------------------0---|
-0---0 0 0 0--0-0---0 0 0 0--0-0--0-0-0--0-0-0--0---|
-0---0-0-0-0--0-0---0-0-0-0--0-0--0-0-0--0-0-0--0---|
     * * * *  * *   * * * *  * *  * * *  * * *  *
comments
print report bad tab
1 comment total.
0 reply
Shashi_Cloud wrote on March 21 2013, 11:52 am

Wish someone could make the whole atlas album in guitar pro. all in one, just like "The Devil Wears Prada - With Roots Above And Branches Below Album" by Kwonnie. LOL, I suck at tabbing using guitar pro. T_T
good tab btw, worth learning.

I want to post or [tab]
guest
You may want to rate the tab now too:
select rating
Please do not post tabs as comments. Select "correction" instead!