Oops, an error
Loading. Please wait.

Blue And The Grey Tab

9,663 views 48 this week
1 commentread comment
1 2 3 4 5
excellent!
x 8
Autoscroll
+/-
esc
set tempo
stop
Contributor
WARNING: You are trying to view
                                    content from Ultimate-Guitar.com
                                    in an unauthorized application,
                                    which is prohibited.

                                    Please use an official Ultimate
                                    Guitar Tabs application for iPhone,
                                    iPad or Android to access legitimate
                                    chords, guitar, bass, and drum tabs
                                    from Ultimate-Guitar.com database.

                                    Type "ultimate guitar tabs" in Apple
                                    App Store's or Android Market's
                                    search to find the application.
PARKWAY DRIVE

BLUE AND THE GREY

A#-F-A#-D#-G-C


TABBED BY andherembrace


1
------------------------------------------------------------------|
--------------------------------------------------------^---------|
-----14--14--14--14--12--12---9---9--10--10-12---10---12-10-------|
-----15--15--15--15--14--14--10--10--12--12-14---12---------14-12-|
------------------------------------------------------------------|
------------------------------------------------------------------|
2
------------------------------------------------------------------|
------------------------------------------------------------------|
------------------------------------------------------------------|
-14------------------------------10--------------12---------------|
-12-------------------------------8--------------10---------------|
-12-------------------------------8--------------10---------------|


1
--------------------------------------------------------|
--------------------------------------------------------|
-----14--14--14--14--12--12---9---9--10--10-12---10-----|
-----15--15--15--15--14--14--10--10--12--12-14---12-----|
--------------------------------------------------------|
--------------------------------------------------------|
2
--------------------------------------------------------|
--------------------------------------------------------|
--------------------------------------------------------|
-14------------------------------10--------------12-----|
-12-------------------------------8--------------10-----|
-12-------------------------------8--------------10-----|


1
------------------------------------------------------------------|
--------------------------------------------------------^---------|
-----14--14--14--14--12--12---9---9--10--10-12---10---12-10-------|
-----15--15--15--15--14--14--10--10--12--12-14---12---------14-12-|
------------------------------------------------------------------|
------------------------------------------------------------------|
2
------------------------------------------------------------------|
------------------------------------------------------------------|
------------------------------------------------------------------|
-14------------------------------10--------------12---------------|
-12-------------------------------8--------------10---------------|
-12-------------------------------8--------------10---------------|


1
--------------------------------------------------------|
--------------------------------------------------------|
-----14--14--14--14--12--12---9---9--10--10-12---10-----|
-----15--15--15--15--14--14--10--10--12--12-14---12-----|
--------------------------------------------------------|
--------------------------------------------------------|
2
---------------------------------------------------------------|
---------------------------------------------------------------|
---------------------------------------------------------------|
-14------------------------------10--------------12------------|
-12-------------------------------8--------------10------------|
-12-------------------------------8--------------10------------|
3
---------------------------------------------------------------|
---------------------------------------------------------------|
---------------------------------------------------------------|
---------------------------------------------------------------|
--------------------------------------------------------0-0----|
--------------------------------------------------------0-0----|
                                                        * *




0:34


1
------------------------------------------------------------------|
--------------------------------------------------------^---------|
-----14--14--14--14--12--12---9---9--10--10-12---10---12-10-------|
-----15--15--15--15--14--14--10--10--12--12-14---12---------14-12-|
------------------------------------------------------------------|
------------------------------------------------------------------|
2
------------------------------------------------------------------|
------------------------------------------------------------------|
------------------------------------------------------------------|
-14------------------------------10--------------12---------------|
-12-------------------------------8--------------10---------------|
-12-------------------------------8--------------10---------------|
3
------------------------------------------------------------------|
------------------------------------------------------------------|
------------------------------------------------------------------|
-0----------------------------------------------------------------|
-0--------------------0-0----------------0-0------------0-0-------|
-0--------------------0-0----------------0-0------------0-0-------|
                      * *                * *            * *


1
--------------------------------------------------------|
--------------------------------------------------------|
-----14--14--14--14--12--12---9---9--10--10-12---10-----|
-----15--15--15--15--14--14--10--10--12--12-14---12-----|
--------------------------------------------------------|
--------------------------------------------------------|
2
---------------------------------------------------------------|
---------------------------------------------------------------|
---------------------------------------------------------------|
-14------------------------------10--------------12------------|
-12-------------------------------8--------------10------------|
-12-------------------------------8--------------10------------|
3
---------------------------------------------------------------|
---------------------------------------------------------------|
---------------------------------------------------------------|
-0---------------------------0--0------------------------------|
-0---------------------------0--0------------------------------|
-0---------------------------0--0------------------------------|
                             *  *           



0:49

1
---------------------------------------------------------|
---------------------------------------------------------|
-7------------7-7-7-1010------1010-9-5-5------10-9--9-9--|
-X------------X-X-X--X-X-------X-X-X-X-X-------X-X--X-X--|
-5------------5-5-7/-8-8-------8-8-7\3-3-------8\7--7-7--|
---------------------------------------------------------|
2
---------------------------------------------------------|
---------------------------------------------------------|
---------------------------------------------------------|
---------------------------------------------------------|
-0----------------------8--------------10----------------|
-0----------------------8--------------10----------------|


1
---------------------------------------------------------|
---------------------------------------------------------|
-7------------7-7-7-1010------1010-9-5-5------10-9--9-9--|
-X------------X-X-X--X-X-------X-X-X-X-X-------X-X--X-X--|
-5------------5-5-7/-8-8-------8-8-7\3-3-------8\7--7-7--|
---------------------------------------------------------|
2
---------------------------------------------------------|
---------------------------------------------------------|
---------------------------------------------------------|
---------------------------------------------------------|
-0----------------------8--------------10----------------|
-0----------------------8--------------10----------------|


1
---------------------------------------------------------|
---------------------------------------------------------|
-7------------7-7-7-1010------1010-9-5-5------10-9--9-9--|
-X------------X-X-X--X-X-------X-X-X-X-X-------X-X--X-X--|
-5------------5-5-7/-8-8-------8-8-7\3-3-------8\7--7-7--|
---------------------------------------------------------|
2
---------------------------------------------------------|
---------------------------------------------------------|
---------------------------------------------------------|
---------------------------------------------------------|
-0----------------------8--------------10----------------|
-0----------------------8--------------10----------------|


1
---------------------------------------------------------|
---------------------------------------------------------|
-7------------7-7-7-1010------1010-9-5-5------10-9--9-9--|
-X------------X-X-X--X-X-------X-X-X-X-X-------X-X--X-X--|
-5------------5-5-7/-8-8-------8-8-7\3-3-------8\7--7-7--|
---------------------------------------------------------|
2
---------------------------------------------------------|
---------------------------------------------------------|
---------------------------------------------------------|
---------------------------------------------------------|
-0----------------------8--------------10----------------|
-0----------------------8--------------10----------------|


-----------------------------------|
-----------------------------------|
---------------------P-------------|
----------------------S\-----------|
--8----------10--------------------|
--8----------10--------------------|





1:18


---------------------------------------------------------|
---------------------------------------------------------|
----------------------------------------9-9-9------------|
-------------7-7-7-------10-10-10-7-7-7-------10-10-12---|
-------5-5-5-------8-8-8---------------------------------|
-0-0-0---------------------------------------------------|
 * * * * * * * * * * * *  *  *  * * * * * * *  *  *  *

---------------------------------------------------------|
---------------------------------------------------------|
----------------------------------------9-9-9------------|
-------------7-7-7-------10-10-10-7-7-7-------10-10-12---|
-------5-5-5-------8-8-8---------------------------------|
-0-0-0---------------------------------------------------|
 * * * * * * * * * * * *  *  *  * * * * * * *  *  *  *

---------------------------------------------------------|
---------------------------------------------------------|
----------------------------------------9-9-9------------|
-------------7-7-7-------10-10-10-7-7-7-------10-10-12---|
-------5-5-5-------8-8-8---------------------------------|
-8-8-8---------------------------------------------------|
 * * * * * * * * * * * *  *  *  * * * * * * *  *  *  *

1
----------------------------------------------------------|
----------------------------------------------------------|
----------------------------------------------------------|
-------------7-7-7----------------------------------------|
-------5-5-5-------8-8-8----------------------------------|
-8-8-8---------------------8-8-8-8-12-8-10-10-10-10-14-10-|
 * * * * * * * * * * * * 
2
------------------------------------------------------|
------------------------------------------------------|
------------------------------------------------------|
-------------7-7-7------------------------------------|
-------5-5-5-------8-8-8------------------------------|
-8-8-8---------------------5-5-5-5-8-5-7-7-7-7-10-7---|
 * * * * * * * * * * * * 


1:31

1             pan delay effect
---13--13----[--13--13----]---13--13-------------------------|
-17--17--17--[17--17--17--]-17--17--17-----------------------|
-----------17[----------17]-----------17--14----14---^-------|
---------------------------------------------17----15-14-15--|
-------------------------------------------------------------|
-------------------------------------------------------------|
2
----------------------------------------------------------------|
----------------------------------------------------------------|
----------------------------------------------------------------|
----------------------------------------------------------------|
-0000000------0000---0000---0000000-----------------------------|
-0000000------0000---0000---0000000--5-5-5-5-8-5-7-7-7-7-10-7---|
 *******      ****   ****   *******  
3
-------------------------------------------------------------------|
-------------------------------------------------------------------|
-------------------------------------------------------------------|
-------------------------------------------------------------------|
-------------------------------------------------------------------|
------------------------------------8-8-8-8-12-8-10-10-10-10-14-10-|



1             pan delay effect
---13--13----[--13--13----]---13--13-------------------------|
-17--17--17--[17--17--17--]-17--17--17-----------------------|
-----------17[----------17]-----------17--14----14---^-------|
---------------------------------------------17----15-14-----|
-------------------------------------------------------------|
-------------------------------------------------------------|
R HARMONY
---17--17----------------------------------------------------|
-20--20--20--------------------------------------------------|
-----------19------------------------------------------------|
-------------------------------------------------------------|
-------------------------------------------------------------|
-------------------------------------------------------------|

2
--------------------------------------------------------------|
--------------------------------------------------------------|
--------------------------------------------------------------|
--------------------------------------------------------------|
-0000000------0000---0000---0000000---------------------------|
-0000000------0000---0000---0000000--8--------10--------------|
 *******      ****   ****   *******  
3
--------------------------------------------------------------|
--------------------------------------------------------------|
--------------------------------------------------------------|
--------------------------------------------------------------|
--------------------------------------------------------------|
-------------------------------------12--------14-------------|




1:44

---------------------------------------------------------|
---------------------------------------------------------|
----------------------------------------9-9-9------------|
-------------7-7-7-------10-10-10-7-7-7-------10-10-12---|
-------5-5-5-------8-8-8---------------------------------|
-0-0-0---------------------------------------------------|
 * * * * * * * * * * * *  *  *  * * * * * * *  *  *  *

---------------------------------------------------------|
---------------------------------------------------------|
----------------------------------------9-9-9------------|
-------------7-7-7-------10-10-10-7-7-7-------10-10-12---|
-------5-5-5-------8-8-8---------------------------------|
-0-0-0---------------------------------------------------|
 * * * * * * * * * * * *  *  *  * * * * * * *  *  *  *

---------------------------------------------------------|
---------------------------------------------------------|
----------------------------------------9-9-9------------|
-------------7-7-7-------10-10-10-7-7-7-------10-10-12---|
-------5-5-5-------8-8-8---------------------------------|
-8-8-8---------------------------------------------------|
 * * * * * * * * * * * *  *  *  * * * * * * *  *  *  *


-----------------------------13--13--------|
---------------------------17--17--17------|
-------------------------------------17----|
-------------7-7-7-------------------------|
-------5-5-5-------8-8-8-------------------|
-8-8-8-------------------------------------|
 * * * * * * * * * * * *  


1:58


1             pan delay effect
---13--13----[--13--13----]---13--13-------------------------|
-17--17--17--[17--17--17--]-17--17--17-----------------------|
-----------17[----------17]-----------17--14----14---^-------|
---------------------------------------------17----15-14-----|
-------------------------------------------------------------|
-------------------------------------------------------------|
2
----------------------------------------------------------------|
----------------------------------------------------------------|
----------------------------------------------------------------|
----------------------------------------------------------------|
-0000000------0000---0000---0000000-----------------------------|
-0000000------0000---0000---0000000--5-5-5-5-8-5-7-7-7-7-10-7---|
 *******      ****   ****   *******  
3
-------------------------------------------------------------------|
-------------------------------------------------------------------|
-------------------------------------------------------------------|
-------------------------------------------------------------------|
-------------------------------------------------------------------|
------------------------------------8-8-8-8-12-8-10-10-10-10-14-10-|



1             pan delay effect
---13--13----[--13--13----]---13--13-------------------------|
-17--17--17--[17--17--17--]-17--17--17-----------------------|
-----------17[----------17]-----------17--14----14---^-------|
---------------------------------------------17----15-14-15--|
-------------------------------------------------------------|
-------------------------------------------------------------|
R HARMONY
---17--17---------------------17--17-------------------------|
-20--20--20-----------------20--20--17-----------------------|
-----------19-------------------------17---------------------|
-------------------------------------------------------------|
-------------------------------------------------------------|
-------------------------------------------------------------|

2
--------------------------------------------------------------|
--------------------------------------------------------------|
--------------------------------------------------------------|
--------------------------------------------------------------|
-0000000------0000---0000---0000000---------------------------|
-0000000------0000---0000---0000000--8--------10--------------|
 *******      ****   ****   *******  
3
--------------------------------------------------------------|
--------------------------------------------------------------|
--------------------------------------------------------------|
--------------------------------------------------------------|
--------------------------------------------------------------|
-------------------------------------12--------14-------------|



2:10

L
-----------------------------------------------------------------------|
-----------------------------------------------------------------------|
-----------------------------------------------------------------------|
-----------------------------------------------------------------------|
--------12-12-8--10-10-7---------7-7-10--8-8-12---------12-12-8-10-10-7|
000-000------------------000-000----------------000-000----------------|
*** ***  *  * *   *  * * *** *** * *  *  * *  * *** ***  *  * *  *  * * 

R
---------------------------------------------------------------|
---------------------------------------------------------------|
---------------------------------------------------------------|
-0-------------------------------------------------------------|
-0-------------------------------------------------------------|
-0-------------------------------------------------------------|


1L
------------------------|
-------------__---------|
-14----14---/  \--------|
----17----15-14-15------|
------------------------|
------------------------|
2R
------------------------|
--------------__--------|
--10----10---/  \-------|
-----14----12-10-12-----|
------------------------|
------------------------|



2:17

1
------------------------------------------------------------------------|
------------------------------------------------------------------------|
------------------------------------------------------------------------|
------------------------------------------------------------------------|
--------12-12-8--10-10-7---------7-7-10--8-8-12---------12-12-8--10-10-7|
000-000------------------000-000----------------000-000-----------------|
*** ***  *  * *   *  * * *** *** * *  *  * *  * *** ***  *  * *   *  * *
2
-----------------------------------------------------------------------|
-----------------------------------------------------------------------|
-----------------------------------------------------------------------|
-----------------------------------------------------------------------|
-----------------------------------------------------------------------|
000-000------------------000-000----------------000-000----------------|
*** ***                  *** ***                *** ***



2:25

B
------------------------------------------------------------------------|
------------------------------------------------------------------------|
------------------------------------------------------------------------|
------------------------------------------------------------------------|
--------12-12-8--10-10-7---------12-12-8--10-10-7--------12-12-8-10-10-7|
000-000------------------000-000------------------000-000---------------|
*** ***  *  * *   *  * * *** ***  *  * *   * *  * *** *** *  * *  *  * *

--------------------------------------------|
--------------------------------------------|
--------------------------------------------|
--------------------------------------------|
---------8-8-8-8-------------10-10-10-10----|
-8-8-8-8---------10-10-10-10----------------|


------------------------------------------------------------------------|
------------------------------------------------------------------------|
------------------------------------------------------------------------|
------------------------------------------------------------------------|
--------12-12-8--10-10-7---------12-12-8--10-10-7--------12-12-8-10-10-7|
000-000------------------000-000------------------000-000---------------|
*** ***  *  * *   *  * * *** ***  *  * *   * *  * *** *** *  * *  *  * *

--------------------------------------------|
--------------------------------------------|
--------------------------------------------|
--------------------------------------------|
---------8-8-8-8-------------10-10-10-10----|
-8-8-8-8---------10-10-10-10----------------|



2:38

L
-----------------------------------------------------------------|
-----------------------------------------------------------------|
-----------------------------------------------------------------|
-----------------------------------------------------------------|
---------8-8-5--7-7-3---------3-3-7--5-5-8----------8-8-5--7-7-3-|
-000-000--------------000-000--------------000-000---------------|
 *** *** * * *  * * * *** *** * * *  * * * *** ***  * * *  * * * 
R
------------------------------------------------------------------------|
------------------------------------------------------------------------|
------------------------------------------------------------------------|
------------------------------------------------------------------------|
--------12-12-8--10-10-7---------7-7-10--8-8-12---------12-12-8--10-10-7|
000-000------------------000-000----------------000-000-----------------|
*** ***  *  * *   *  * * *** *** * *  *  * *  * *** ***  *  * *  *  *  *

1
--------------------------------------------|
--------------------------------------------|
--------------------------------------------|
--------------------------------------------|
---------5-5-5-5---------7-7-7-7------------|
-5-5-5-5---------7-7-7-7--------------------|
2
--------------------------------------------|
--------------------------------------------|
--------------------------------------------|
--------------------------------------------|
---------8-8-8-8-------------10-10-10-10----|
-8-8-8-8---------10-10-10-10----------------|


2:44

1
--------------------------------------------------------------------|
--------------------------------------------------------------------|
---------------------------------------------------9-10-12-10-12-14-|
---------------------------------------------------X--X--X--X--X--X-|
-000-000-------------000-000-------------000-000---7--8-10--8-10-12-|
-000-000-------------000-000-------------000-000--------------------|
 *** ***             *** ***             *** ***   

2
---------------------------------------------------------------|
---------------------------------------------------------------|
--------------------------------------------------5-7-9-7-9-10-|
--------------------------------------------------X-X-X-X-X-X--|
-000-000-------------000-000-------------000-000--3-5-7-5-7-8--|
-000-000-------------000-000-------------000-000---------------|
 *** ***             *** ***             *** ***  


2:51

B
---------------------------------------------------------|
---------------------------------------------------------|
----------------------------------------9-9-9------------|
-------------7-7-7-------10-10-10-7-7-7-------10-10-12---|
-------5-5-5-------8-8-8---------------------------------|
-8-8-8---------------------------------------------------|
 * * * * * * * * * * * *  *  *  * * * * * * *  *  *  *

---------------------------------------------------------|
---------------------------------------------------------|
----------------------------------------9-9-9------------|
-------------7-7-7-------10-10-10-7-7-7-------10-10-12---|
-------5-5-5-------8-8-8---------------------------------|
-8-8-8---------------------------------------------------|
 * * * * * * * * * * * *  *  *  * * * * * * *  *  *  *

L
------------------------------------------------------------|
------------------------------------------------------------|
----------------------------9-9-9----------12-12-12-9-9-10--|
-------------10-10-10-7-7-7-------10-10-10------------------|
-------8-8-8------------------------------------------------|
-0-0-0------------------------------------------------------|
 * * * * * *  *  *  * * * * * * *  *  *  *  *  *  * * *  *
R
---------------------------------------------------------|
---------------------------------------------------------|
----------------------------------------9-9-9------------|
-------------7-7-7-------10-10-10-7-7-7-------10-10-12---|
-------5-5-5-------8-8-8---------------------------------|
-0-0-0---------------------------------------------------|
 * * * * * * * * * * * *  *  *  * * * * * * *  *  *  *

L
------------------------------------------------------------|
------------------------------------------------------------|
------------------------------------------------------------|
-------------10-10-10-7-7-7---------------------------------|
-------8-8-8------------------------------------------------|
-0-0-0-----------------------8-8-8-8-12-8-10-10-10-10-14-10-|
 * * * * * *  *  * *  * * * 
R
------------------------------------------------------------|
------------------------------------------------------------|
------------------------------------------------------------|
-------------7-7-7------------------------------------------|
-------5-5-5-------8-8-8------------------------------------|
-0-0-0-----------------------8-8-8-8-12-8-10-10-10-10-14-10-|
 * * * * * * * * * * * * 


3:04

B
----------------------------------------------------------|
----------------------------------------------------------|
----------------------------------------------------------|
-------------7-7-7----------------------10-10-10----------|
-------5-5-5-------8-8-8----------7-7-7----------8-8-8----|
-8-8-8-------------------10-10-10-------------------------|
 * * * * * * * * * * * *  *  *  * * * *  *  *  * * * *

----------------------------------------------------------------------|
----------------------------------------------------------------------|
------------------------------------------------------10-10-10--------|
-------------------12-12-12-------------------12-12-12--------14-14-14|
----------12-12-12----------12-12-12----------------------------------|
-12-12-12----------------------------10-10-10-------------------------|
  *  *  *  *  *  *  *  *  *  *  *  *  *  *  *  *  *  *  * * *  *  *  *

----------------------------------------------------------|
----------------------------------------------------------|
----------------------------------------------------------|
-------------7-7-7----------------------10-10-10----------|
-------5-5-5-------8-8-8----------7-7-7----------7-7-8----|
-8-8-8-------------------10-10-10-------------------------|
 * * * * * * * * * * * *  *  *  * * * *  *  *  * * * *

-------------------------------------------|
-------------------------------------------|
-------------------------------------------|
-------------------12-12-12----------------|
----------12-12-12----------12-12-12-0-----|
-12-12-12----------------------------0-|---|
  *  *  *  *  *  *  *  *  *  *  *  *


3:17

----------------------------------------------------------------|
----------------------------------------------------------------|
----------------------------------------------------------------|
----------------------------------------------------------------|
-0000000------0000---0000---0000000-----------------------------|
-0000000------0000---0000---0000000--5-5-5-5-8-5-7-7-7-7-10-7---|
 *******      ****   ****   *******

--------------------------------------------------------------|
--------------------------------------------------------------|
--------------------------------------------------------------|
--------------------------------------------------------------|
-0000000------0000---0000---0000000---------------------------|
-0000000------0000---0000---0000000--8--------10--------------|
 *******      ****   ****   *******  

--------------------------------------------------------------|
--------------------------------------------------------------|
--------------------------------------------------------------|
--------------------------------------------------------------|
--------------------------------------------------------------|
-------------------------------------12--------14-------------|



3:30

1             pan delay effect
---13--13----[--13--13----]---13--13-------------------------|
-17--17--17--[17--17--17--]-17--17--17-----------------------|
-----------17[----------17]-----------17--14----14---^-------|
---------------------------------------------17----15-14-15--|
-------------------------------------------------------------|
-------------------------------------------------------------|

2
----------------------------------------------------------------|
----------------------------------------------------------------|
----------------------------------------------------------------|
----------------------------------------------------------------|
----------------------------------------------------------------|
-0000000------0000---0000---0000000--5-5-5-5-8-5-7-7-7-7-10-7---|



1             pan delay effect
---13--13----[--13--13----]---13--13-------------------------|
-17--17--17--[17--17--17--]-17--17--17-----------------------|
-----------17[----------17]-----------17--14----14---^-------|
---------------------------------------------17----15-14-15--|
-------------------------------------------------------------|
-------------------------------------------------------------|
R HARMONY
---17--17---------------------17--17-------------------------|
-20--20--20-----------------20--20--17-----------------------|
-----------19-------------------------17---------------------|
-------------------------------------------------------------|
-------------------------------------------------------------|
-------------------------------------------------------------|
2
--------------------------------------------------------------|
--------------------------------------------------------------|
--------------------------------------------------------------|
--------------------------------------------------------------|
---------------------------------------8--------10--------0---|
-0000000------0000---0000---0000000----8--------10--------0---|
                                     






3:45

1
------------------------------------------------------------------|
--------------------------------------------------------^---------|
-----14--14--14--14--12--12---9---9--10--10-12---10---12-10-------|
-----15--15--15--15--14--14--10--10--12--12-14---12---------14-12-|
------------------------------------------------------------------|
------------------------------------------------------------------|
2
------------------------------------------------------------------|
------------------------------------------------------------------|
------------------------------------------------------------------|
-14------------------------------10--------------12---------------|
-12-------------------------------8--------------10---------------|
-12-------------------------------8--------------10---------------|


1
--------------------------------------------------------|
--------------------------------------------------------|
-----14--14--14--14--12--12---9---9--10--10-12---10-----|
-----15--15--15--15--14--14--10--10--12--12-14---12-----|
--------------------------------------------------------|
--------------------------------------------------------|
2
--------------------------------------------------------|
--------------------------------------------------------|
--------------------------------------------------------|
-14------------------------------10--------------12-----|
-12-------------------------------8--------------10-----|
-12-------------------------------8--------------10-----|




3:58

1
---------------------------------------------------------|
---------------------------------------------------------|
-7------------7-7-7-1010------1010-9-5-5------10-9--9-9--|
-X------------X-X-X--X-X-------X-X-X-X-X-------X-X--X-X--|
-5------------5-5-7/-8-8-------8-8-7\3-3-------8\7--7-7--|
---------------------------------------------------------|
2
---------------------------------------------------------|
---------------------------------------------------------|
---------------------------------------------------------|
---------------------------------------------------------|
-0----------------------8--------------10----------------|
-0----------------------8--------------10----------------|


1
---------------------------------------------------------|
---------------------------------------------------------|
-7------------7-7-7-1010------1010-9-5-5------10-9--9-9--|
-X------------X-X-X--X-X-------X-X-X-X-X-------X-X--X-X--|
-5------------5-5-7/-8-8-------8-8-7\3-3-------8\7--7-7--|
---------------------------------------------------------|
2
---------------------------------------------------------|
---------------------------------------------------------|
---------------------------------------------------------|
---------------------------------------------------------|
-0----------------------8--------------10----------------|
-0----------------------8--------------10----------------|





4:11


1 SOLO
--------------------------------------------)--|
--)--(--------------------------------10-12----|
-7-----7~~-5-7--5-----7--7/9---9-10---9--12----|
--------------8---7/8--8----10-----12----------|
-----------------------------------------------|
-----------------------------------------------|
              *        *     *      *
2
----------------------------------------------|
----------------------------------------------|
----------------------------------------------|
----------------------------------------------|
-0------------------8-----------10------------|
-0------------------8-----------10------------|


4:17


1
-(---------------)-(-12---)-(--------------------------|
---13-12-10-12-12----13-12-----------------------10-13-|
---13-12-10-12-12-------12-----10-12-------10-12-------|
-------------------------------------12~---------------|
-------------------------------------------------------|
-------------------------------------------------------|

2
---------------------------------------------------|
---------------------------------------------------|
---------------------------------------------------|
---------------------------------------------------|
-0----------------------8-----------10------0-0----|
-0----------------------8-----------10------0-0----|
                                            * *



4:24
                             T   T      T   T      T   T      T   T
1                             ^   /\     ^   /\     ^   /\     ^   /\     
--------10-----12-----13----1715171513-1715171513-1715171513-1715171513|
10~10/11--11/13--13/15--15---------------------------------------------|
-----------------------------------------------------------------------|
-----------------------------------------------------------------------|
-----------------------------------------------------------------------|
-----------------------------------------------------------------------|

2
-------------------------------------------------|
-------------------------------------------------|
-------------------------------------------------|
-------------------------------------------------|
-------------------------------------------------|
000-000-000-000-000-000-000-000-888-888-888-888--|
*** *** *** *** *** *** *** *** *** *** *** ***


4:29

   T   T      T   T      T   T      T   T
1   ^   /\     ^   /\     ^   /\     ^   /\     )()()()(   )SLOW RELEASE
--2015201513-2015201513-2015201513-2015201513-20---------18------------|
-----------------------------------------------------------------------|
-----------------------------------------------------------------------|
-----------------------------------------------------------------------|
-----------------------------------------------------------------------|
-----------------------------------------------------------------------|
2
---------------------------------------------------------------|
---------------------------------------------------------------|
---------------------------------------------------------------|
---------------------------------------------------------------|
---------------------------------------------------------------|
-101010-101010-101010-101010--000-000-000-000-000-000-000-000--|
  * * *  * * *  * * *  * * *  *** *** *** *** *** *** *** *** 


4:34
   ___
1 /   \
17181715-17-15-----15----------------------------------------------------|
--------------18-17--18-17-15-18-17-15-13-15-13---------13--------)(^----|
------------------------------------------------14-12-14--14-12-12---10--|
-----------------------------------------------------------------------12|
-------------------------------------------------------------------------|
-------------------------------------------------------------------------|

2
------------------------------------------|
------------------------------------------|
------------------------------------------|
------------------------------------------|
------------------------------------------|
-888-888-888-888-101010-101010-10-10------|
 *** *** *** ***  * * *  * * *  *  *


4:37

W/ MELODY ECHOED

---------------------------------------------------------------|
---------------------------------------------------------------|
---------------------------------------------------------------|
---------------------------------------------------------------|
-0---------0--0-0-----------8---------10--10-10----------------|
-0---0-0-0-0--0-0---0-0-0-0-8---8-8-8-10--10-10---10-10-10-10--|
     * * *          * * * *     * * *              *  *  *  *

---------------------------------------------------------------|
---------------------------------------------------------------|
---------------------------------------------------------------|
---------------------------------------------------------------|
-0---------0--0-0-----------8---------10--10-10----------------|
-0---0-0-0-0--0-0---0-0-0-0-8---8-8-8-10--10-10---10-10-10-10--|
     * * *          * * * *     * * *              *  *  *  *


4:50

1
2ND SOLO
--------------------SLOW BND-------------|
-----------------------------------------|
-------14--12-------)--------------------|
-/12-----------15-14---------14~~~-------|
-----------------------------------------|
-----------------------------------------|

2
----------------------------------------------|
----------------------------------------------|
----------------------------------------------|
----------------------------------------------|
-0------------------------8-----------10------|
-0------------------------8-----------10------|



1
-------------------)---(--------------|
----------------/15------15~~---------|
-----14--12-------------------P-------|
-12---------15-----------------S\-----|
--------------------------------------|
--------------------------------------|

2
----------------------------------------------|
----------------------------------------------|
----------------------------------------------|
----------------------------------------------|
-0------------------------8-----------10------|
-0------------------------8-----------10------|


5:03

W/ MELODY 

---------------------------------------------------------------|
---------------------------------------------------------------|
---------------------------------------------------------------|
---------------------------------------------------------------|
-0---------0--0-0-----------8---------10--10-10----------------|
-0---0-0-0-0--0-0---0-0-0-0-8---8-8-8-10--10-10---10-10-10-10--|
     * * *          * * * *     * * *              *  *  *  *

---------------------------------------------------------------|
---------------------------------------------------------------|
---------------------------------------------------------------|
---------------------------------------------------------------|
-0---------0--0-0-----------8---------10--10-10----------------|
-0---0-0-0-0--0-0---0-0-0-0-8---8-8-8-10--10-10---10-10-10-10--|
     * * *          * * * *     * * *              *  *  *  *




5:16

1
----6----6----------|
-10---10---10-------|
--------------7-----|
--------------------|
--------------------|
--------------------|

2
-----------------------------------------------------------------|
-----------------------------------------------------------------|
-----------------------------------------------------------------|
-----------------------------------------------------------------|
-0---0-0--0-----------0-0-0---8---------10--10-10----------------|
-0---0-0--0-----------0-0-0---8---8-8-8-10--10-10---10-10-10-10--|
     * *  *           * * *

W/ MELODY 

---------------------------------------------------------------|
---------------------------------------------------------------|
---------------------------------------------------------------|
---------------------------------------------------------------|
-0---0 0 0 0--0-0---0 0 0 0-8---------10--10-10----------------|
-0---0-0-0-0--0-0---0-0-0-0-8---8-8-8-10--10-10---10-10-10-10--|
     * * * *  * *   * * * *     * * *              *  *  *  *

----------------------------------------------------|
----------------------------------------------------|
----------------------------------------------------|
------------------------------------------------0---|
-0---0 0 0 0--0-0---0 0 0 0--0-0--0-0-0--0-0-0--0---|
-0---0-0-0-0--0-0---0-0-0-0--0-0--0-0-0--0-0-0--0---|
     * * * *  * *   * * * *  * *  * * *  * * *  *        
                                                S
comments
print report bad tab
1 comment total.
+1 reply
andherembrace wrote on November 7 2012, 12:03 pm

check out my solo cover

https://www.facebook.com/photo.php?v=528799503798051&set=vb.100000040195827&type=3&theater

I want to post or [tab]
guest
You may want to rate the tab now too:
select rating
Please do not post tabs as comments. Select "correction" instead!