Oops, an error
Loading. Please wait.

Boneyards Tab

ver3
ver3

Whole song

More versions @911Tabs.com
1,454 views 33 this week
no commentswrite comment
1 2 3 4 5
accurate
x 5
Autoscroll
+/-
esc
set tempo
stop
Contributor
Difficulty
Tuning
intermediate
B F# B E G# C#
WARNING: You are trying to view
                                    content from Ultimate-Guitar.com
                                    in an unauthorized application,
                                    which is prohibited.

                                    Please use an official Ultimate
                                    Guitar Tabs application for iPhone,
                                    iPad or Android to access legitimate
                                    chords, guitar, bass, and drum tabs
                                    from Ultimate-Guitar.com database.

                                    Type "ultimate guitar tabs" in Apple
                                    App Store's or Android Market's
                                    search to find the application.
PARKWAY DRIVE

BONEYARDS

B-F#-B-E-G#-C#


TABBED BY andherembrace





---------------------------------------------------------------|
-----------------------------------^---/\---/\-----------------|
----444422224444---444422224444---454-5750-4540---000044440000-|
-2---------------3--------------5---------------3--------------|
-2---------------3--------------5---------------3--------------|
-2---------------3--------------5---------------3--------------|

---------------------------------------------------------------|
-----------------------------------^---/\---/\-----------------|
----444422224444---444422224444---454-5750-4540---000044440000-|
-2---------------3--------------5---------------3--------------|
-2---------------3--------------5---------------3--------------|
-2---------------3--------------5---------------3--------------|

---------------------------------------------------------------|
-----------------------------------^---/\---/\-----------------|
----444422224444---444422224444---454-5750-4540---000044440000-|
-2---------------3--------------5---------------3--------------|
-2---------------3--------------5---------------3--------------|
-2---------------3--------------5---------------3--------------|

---------------------------------------------------------------|
-----------------------------------^---/\---/\-----------------|
----444422224444---444422224444---454-5750-4540---000044440000-|
-2---------------3--------------5---------------3--------------|
-2---------------3--------------5---------------3--------------|
-2---------------3--------------5---------------3--------------|



0:18

-----------------------------------------------------------------|
-----------------------------------------------------------------|
-----------------------------------------------------------------|
-----------------------------------------------------------------|
5-------7-------8--------10--8-------5-------7-------8--10---8---|
--7-0-0---8-0-0---10-0-0---12-10-0-0---7-0-0---8-0-0--10--12--10-|
    * *     * *      * *         * *     * *     * *

L
------------------------------------|
------------------------------------|
-------------------------5555-------|
-----77775555777788887777----7777---|
------------------------------------|
-8----------------------------------|

R
--------------------------------------|
--------------------------------------|
--------------------------------------|
-----------------------------7777-----|
-----888877778888101010108888----8888-|
-8------------------------------------|



0:26

-------------------------------------------------------------------------|
-------------------------------------------------------------------------|
-------------------------------------------------------------------------|
---------------------------------------------------/\--5-----875---5-----|
-0----0-0000-00--00-0-00--0000-00--0----0-0000-00-0578---875-----8---875-|
-0----0-0000-00--00-0-00--0000-00--0----0-0000-00------------------------|
 *    * **** **  ** * **  **** **  *    * **** **

-------------------------------------------------------------------------|
-------------------------------------------------------------------------|
-------------------------------------------------------------------------|
---------------------------------------------------/\--5-----875---5-----|
-0----0-0000-00--00-0-00--0000-00--0----0-0000-00-0578---875-----8---875-|
-0----0-0000-00--00-0-00--0000-00--0----0-0000-00------------------------|
 *    * **** **  ** * **  **** **  *    * **** **

L
-------------------------------------------------------------------|
-------------------------------------------------------------------|
----------------------------------------------------------5555-----|
--------------------------------------------------88887777----7777-|
-0----0-0000-00--00-0-00--0000-00--0----0-0000-00------------------|
-0----0-0000-00--00-0-00--0000-00--0----0-0000-00------------------|
 *    * **** **  ** * **  **** **  *    * **** **
R
-----------------------------------------------------------------------|
-----------------------------------------------------------------------|
-----------------------------------------------------------------------|
--------------------------------------------------------------7777-----|
-0----0-0000-00--00-0-00--0000-00--0----0-0000-00-101010108888----8888-|
-0----0-0000-00--00-0-00--0000-00--0----0-0000-00----------------------|
 *    * **** **  ** * **  **** **  *    * **** **

L
---------------------------------------------------------------------------|
---------------------------------------------------------------------------|
---------------------------------------------------------------------------|
---------------------------------------------------------------------------|
0--0-0000-00--00-0-00--0000-00--0--0-0000-00-12---10----8--10-----8-----7--|
0--0-0000-00--00-0-00--0000-00--0--0-0000-00---8-0--7-0--12--12-0--10-0--10|
*  * **** **  ** * **  **** **  *  * **** **
R
-----------------------------------------------------------------------|
-----------------------------------------------------------------------|
-----------------------------------------------------------------------|
-----------------------------------------------------------------------|
0---0-0000-00--00-0-00--0000-00--0--0-0000-00--0-------------------12--|
0---0-0000-00--00-0-00--0000-00--0--0-0000-00--0-------------------12\-|
*   * **** **  ** * **  **** **  *  * **** **  *



0:54

---------------------------------------------------------------------|
---------------------------------------------------------------------|
---------------------------------------------------------------------|
---------------------------------------------------------------------|
-8-----8-----7----8-----8-----7---8-----8-----7---10-----10-----8----|
---0-0---0-0---0----0-0---0-0---0---5-5---5-5---5----7-7----7-7---7--|
   * *   * *   *    * *   * *   *   * *   * *   *    * *    * *   *

----------------------------------------------------------------------|
----------------------------------------------------------------------|
-------------------------------------------------------------_--------|
------------------------------------------------------------/ \-------|
-8-----8-----7----8-----8-----7---5-----5-----3---7------7-7-8-7-5-3--|
---0-0---0-0---0----0-0---0-0---0---3-3---3-3---3---5-5---------------|
   * *   * *   *    * *   * *   *   * *   * *   *   * *

---------------------------------------------------------------------|
---------------------------------------------------------------------|
---------------------------------------------------------------------|
---------------------------------------------------------------------|
-8-----8-----7----8-----8-----7---8-----8-----7---10-----10-----8----|
---0-0---0-0---0----0-0---0-0---0---5-5---5-5---5----7-7----7-7---7--|
   * *   * *   *    * *   * *   *   * *   * *   *    * *    * *   *

----------------------------------------------------------------------|
----------------------------------------------------------------------|
-------------------------------------------------------------_--------|
------------------------------------------------------------/ \-------|
-8-----8-----7----8-----8-----7---5-----5-----3---7------7-7-8-7-5-3--|
---0-0---0-0---0----0-0---0-0---0---3-3---3-3---3---5-5---------------|
   * *   * *   *    * *   * *   *   * *   * *   *   * *


1:13

1
-------------------------------------------------------------------|
-------------------------------------------------------------------|
-------------------------------------------------------------------|
-------------------------------------------------------------------|
-3-5-3-0-0-0-0-0-5-7-5-0-0-0-0-0-5-------7-------8--------10---8---|
-3-5-3-0-0-0-0-0-5-7-5-0-0-0-0-0---7-0-0---8-0-0---10-0-0---12--10-|
         * * * *         * * * *     * *     * *      * *
L
-----------------------------------------------------------------|
-----------------------------------------------------------------|
-----------------------------------------------------------------|
-----------------------------------------------------------------|
-3-5-3-0-----------------------------5-------7-------8--10--8----|
-3-5-3-0-------------------------0-0---7-0-0---8-0-0--10--12-10--|
                                 * *     * *     * *
R
----------------------------------------------------------------|
----------------------------------------------------------------|
----------------------------------------------------------------|
----------------------------------------------------------------|
-3-5-3-0-0-0-0-0-5-7-5-0-0-0-0-0-----5-------7-------8--10--8---|
-3-5-3-0-0-0-0-0-5-7-5-0-0-0-0-0-0-0---7-0-0---8-0-0--10--12-10-|
         * * * *         * * * * * *     * *     * *


-------------------------------------------------------------------|
-------------------------------------------------------------------|
-------------------------------------------------------------------|
-------------------------------------------------------------------|
-3-5-3-0-0-0-0-0-5-7-5-0-0-0-0-0-5-------7-------8--------10---8---|
-3-5-3-0-0-0-0-0-5-7-5-0-0-0-0-0---7-0-0---8-0-0---10-0-0---12--10-|
         * * * *         * * * *     * *     * *      * *
----------------------------------------------------------------|
----------------------------------------------------------------|
----------------------------------------------------------------|
----------------------------------------------------------------|
-3-5-3-0-0-0-0-0-5-7-5-0-0-0-0-0-----5-------7-------8--10--8---|
-3-5-3-0-0-0-0-0-5-7-5-0-0-0-0-0-0-0---7-0-0---8-0-0--10--12-10-|
         * * * *         * * * * * *     * *     * *

-----------------------------------------------------------------|
-----------------------------------------------------------------|
-----------------------------------------------------------------|
-----------------------------------------------------------------|
-3-5-3-0-0-0-0-0-0-0-0-0-0-0-0-0-3-5-3-0-0-0-0-0-3-5-3-0-5-7-5-0-|
-3-5-3-0-0-0-0-0-0-0-0-0-0-0-0-0-3-5-3-0-0-0-0-0-3-5-3-0-5-7-5-0-|
         * * * * * * * * * * * *         * * * * * * * * * * * *

-----------------------------------------------------------------|
-----------------------------------------------------------------|
-----------------------------------------------------------------|
-----------------------------------------------------------------|
-3-5-3-0-0-0-0-0-0-0-0-0-0-0-0-0-3-5-3-0-0-0-0-0-3-5-3-0-5-7-5-0-|
-3-5-3-0-0-0-0-0-0-0-0-0-0-0-0-0-3-5-3-0-0-0-0-0-3-5-3-0-5-7-5-0-|
         * * * * * * * * * * * *         * * * * * * * * * * * *


1:44

         R        L                    L         R
----------------------------------------------------------------------------|
----------------------------------------------------------------------------|
----------------------------------------------------------------------------|
1--1--1----------------------1--1--1----------------------------------------|
0--0--0---0--0-0---0-0-0-0---0--0--0---0--0-0---0-0-0-0---12-----10-----8---|
1--1--1---0--0-0---0-0-0-0---1--1--1---0--0-0---0-0-0-0-0----8-0----7-0---12|
*  *  *   *  * *   * * * *   *  *  *   *  * *   * * * * *      *      *


----------------------------------------------------------------------------|
----------------------------------------------------------------------------|
----------------------------------------------------------------------------|
1--1--1----1--1-1------1--1--1----1--1-1-----1-1-1-1------------------------|
0--0--0----0--0-0------0--0--0----0--0-0-----0-0-0-0------12-----10-----8---|
1--1--1----1--1-1------1--1--1----1--1-1-----1-1-1-1----0----8-0----7-0---12|
*  *  *    *  * *      *  *  *    *  * *     * * * *    *      *      *

---------------------------------------------------------------------|
---------------------------------------------------------------------|
---------------------------------------------------------------------|
---------------------------------------------------------------------|
0--0--0----0--0-0---0-0-0-0---0000-0-0----0--0--0---0--0-0---0-0-0-0-|
0--0--0----0--0-0---0-0-0-0---0000-0-0----0--0--0---0--0-0---0-0-0-0-|
*  *  *    *  * *   * * * *   **** * *    *  *  *   *  * *   * * * *

------------------------|
------------------------|
------------------------|
------------------------|
--12-----10-----8-------|
0----8-0----7-0---12----|
*      *      *



2:18

1                                  B
---------------------------------------------------------------------|
---------------------------------------------------------------------|
---------------------------------------------------------------------|
---------------------------------------------------------------------|
-8-----8-----7----8-----8-----7---8-----8-----7---10-----10-----8----|
---0-0---0-0---0----0-0---0-0---0---5-5---5-5---5----7-7----7-7---7--|
   * *   * *   *    * *   * *   *   * *   * *   *    * *    * *   *

----------------------------------------------------------------------|
----------------------------------------------------------------------|
-------------------------------------------------------------_--------|
------------------------------------------------------------/ \-------|
-8-----8-----7----8-----8-----7---5-----5-----3---7------7-7-8-7-5-3--|
---0-0---0-0---0----0-0---0-0---0---3-3---3-3---5---5-5---------------|
   * *   * *   *    * *   * *   *   * *   * *   *   * *

2:27

L
---------------------------------------------------------------------|
---------------------------------------------------------------------|
---------------------------------------------------------------------|
---------------------------------------------------------------------|
-8-----8-----7----8-----8-----7---8-----8-----7---10-----10-----8----|
---0-0---0-0---0----0-0---0-0---0---5-5---5-5---5----7-7----7-7---7--|
   * *   * *   *    * *   * *   *   * *   * *   *    * *    * *   *
R
---------------------------------------------------------------------|
---------------------------------------------------------------------|
---------------------------------------------------------------------|
---------------------------------------------------------------------|
-5-----5-----3----5-----5-----3---5-----5-----3----7------7-----5----|
---0-0---0-0---0----0-0---0-0---0---5-5---5-5---5----7-7----7-7---7--|
   * *   * *   *    * *   * *   *   * *   * *   *    * *    * *   *
L
----------------------------------------------------------------------|
----------------------------------------------------------------------|
-------------------------------------------------------------_--------|
------------------------------------------------------------/ \-------|
-8-----8-----7----8-----8-----7---5-----5-----3---7------7-7-8-7-5-3--|
---0-0---0-0---0----0-0---0-0---0---3-3---3-3---3---5-5---------------|
   * *   * *   *    * *   * *   *   * *   * *   *   * *
R
----------------------------------------------------------------------|
------------------------------------------------------------_---------|
-----------------------------------------------------------/ \--------|
----------------------------------3-----3-----2---5-----5-5-7-5-3-2---|
-5-----5-----3----5-----5-----3---------------------------------------|
---0-0---0-0---0----0-0---0-0---0---3-3---3-3---3---5-5---------------|
   * *   * *   *    * *   * *   *   * *   * *   *   * *


2:37

----------------------------------------------------------|
----------------------------------------------------------|
----------------------------------------------------------|
--------------------------------0-------------------------|
-12---10----8--10-----8-----7---0-------------------------|
---8-0--7-0--12--12-0--10-0--10-0-------------------------|

----------------------------------------------------------|
----------------------------------------------------------|
----------------------------------------------------------|
--------------------------------0-------------------------|
-12---10----8--10-----8-----7---0-----------------------0-|
---8-0--7-0--12--12-0--10-0--10-0-----------------------0-|
                                                        *

2:55

-------------------------------------------------------------------------|
-------------------------------------------------------------------------|
-------------------------------------------------------------------------|
---------------------------------------------------/\--5-----875---5-----|
-0----0-0000-00--00-0-00--0000-00--0----0-0000-00-0578---875-----8---875-|
-0----0-0000-00--00-0-00--0000-00--0----0-0000-00------------------------|
 *    * **** **  ** * **  **** **  *    * **** **

-----------------------------------------------------------------------|
-----------------------------------------------------------------------|
-----------------------------------------------------------------------|
--------------------------------------------------------------7777-----|
-0----0-0000-00--00-0-00--0000-00--0----0-0000-00-101010108888----8888-|
-0----0-0000-00--00-0-00--0000-00--0----0-0000-00----------------------|
 *    * **** **  ** * **  **** **  *    * **** **

L
-----------------------------|
-----------------------------|
---------5555----------------|
-88887777----7777------------|
---------------------0-------|
---------------------0--|----|
R
-----------------------------|
-----------------------------|
-----------------------------|
-------------7777------------|
101010108888----8888-0-------|
---------------------0--|----|
comments
print report bad tab
I want to post or [tab]
guest
You may want to rate the tab now too:
select rating
Please do not post tabs as comments. Select "correction" instead!