Oops, an error
Loading. Please wait.

Carrion Tab

ver4
ver4

Interactive

More versions @911Tabs.com
9,137 views 6 this week
no commentswrite comment
1 2 3 4 5
not so good
x 1
Autoscroll
+/-
esc
set tempo
stop
Contributor
Difficulty
Tuning
novice
C# G# C# F# A# D#
Hey! There's an official Ultimate Guitar app which is ideal
for learning songs when you're away from computer. Get the app
WARNING: You are trying to view
                                    content from Ultimate-Guitar.com
                                    in an unauthorized application,
                                    which is prohibited.

                                    Please use an official Ultimate
                                    Guitar Tabs application for iPhone,
                                    iPad or Android to access legitimate
                                    chords, guitar, bass, and drum tabs
                                    from Ultimate-Guitar.com database.

                                    Type "ultimate guitar tabs" in Apple
                                    App Store's or Android Market's
                                    search to find the application.
Song:Carrion
Band:Parkway Drive
Album:Horizons

~ = Vibrate
PM - palm mute
h = hammer on
p = pull off
\ = slide down
/ = slide up
T = tap
= = Let ring
() = ghost notes


Let ring-----------| let ring------------------------------------

|-----------------------------------------------------------------|
|----------------------------------------------------5------------|
|-----5--------------------9----------9---9---7---------------4---|
|-3-------0------5----7--------5--(5)---5---5-----3------0--------|
|-3-------0-----------7--------5------------------3------0--------|
|-3-------0-----------7--------5------------------3------0--------|

Let ring-----------| let ring--------------------------------------

|-------------------------------------------------------------------|
|-------------------------------------------------------------------|
|----9---7---9------------5-4-5-4~~------4---5---4------9-7-9-7~~---|
|-7------5------5-----3------------0---5---5---5-----7--------------|
|-7------5------------3------------0-----------------7--------------|
|-7------5------------3------------0-----------------7--------------|

 Let ring---------|                   PM  PM  PM

|--------------------|
|--------------------|
|------5---9---7~~---|
|5---5---5---5-------|
|5-------------------|
|5-------------------|
     PM PM PM  i am here
|--------------------------------------------------------------------|
|--------------------------------------------------------------------|
|----5-4-5-4--------4---5---4~~-----9-7-9-7--------5---9---7~~-------|
|-3------------0--5---5---5-----7------------5---5---5---5-----------|
|-3------------0----------------7------------5-----------------------|
|-3------------0----------------7------------5-----------------------|

                  PM PM PM                       PM  PM  PM

|---------------------------------------------------------------------|
|---------------------------------------------------------------------|
|---------------------------------------------------------------------|
|---------------------------------------------------------------------|
|0----0----0-------12\------------------------------------------------|
|0----0----0-------12\------------------------------------------------|

P.M----------------------------------------------------------------
|---------------------------------------------------------------------|
|---------------------------------------------------------------------|
|---------------------------------------------------------------------|
|-7--------5-----7-3--------7-----3-------------------7--------5------|
|-8--0--0--7--0--8-5--0--0--8--0--5--0-----7h8p7------8--0--0--7--0---|
|----0--0-----0-------0--0-----0-----0--10-------10------0--0-----0---|

    PM---|    PM     PM---|    PM    PM                 PM---|   PM

|-------------------------------------|
|-------------------------------------|
|-------------------------------------|
|7--3--------7-----3------------------|
|8--5--0--0--8--0--5--0-----7h8p7-----|
|------0--0-----0-----0--10--------10-|

      PM---|   PM     PM

|--------------------------------------------------------------------|
|--------------------------------------------------------------------|
|--------------------------------------------------------------------|
|-7--------5-----7-3--------7-----3-------------------7--------5-----|
|-8--0--0--7--0--8-5--0--0--8--0--5--0-----7h8p7------8--0--0--7--0--|
|----0--0-----0-------0--0-----0-----0--10-------10------0--0-----0--|

    PM---|   PM      PM---|   PM    PM                  PM---|    PM

|-------------------------------------|
|-------------------------------------|
|-------------------------------------|
|7--3--------7-----3------------------|
|8--5--0--0--8--0--5--0-----7h8p7-----|
|------0--0-----0-----0--10-------10--|

      PM---|   PM    PM

|-------------------------------------------------------------------|
|-------------------------------------------------------------------|
|-------------------------------------------------------------------|
|-7---------7-----7-3-----------------7==----7--------7------7-3----|
|-8---------8-----8-5-----------------8==----8--------8------8-5----|
|----0---0-----0----------0--0-0-0-0------------0--0------0---------|

   PM-----|   PM        PM----------|          PM---|    PM

|---------------------|
|---------------------| I AM RIGHT HERE !! ^-^ LOL .
|---------------------|
|---------------7==---|
|---------------8==---|
|--0--0-0-0-0---------|

  PM----------|

|-------------------------------------------------------------------|
|-------------------------------------------------------------------|
|-------------------------------------------------------------------|
|-7---------7-----7-3-----------------7==----7--------7------7-3----|
|-8---------8-----8-5-----------------8==----8--------8------8-5----|
|----0---0-----0----------0--0-0-0-0------------0--0------0---------|

   PM-----|   PM        PM----------|          PM---|    PM

|---------------------------------------------------------------------|
|---------------------------------------------------------------------|
|---------------------------------------------------------------------|
|---------------7==---------------------------------------------------|
|---------------8==---------------------------------------------------|
|--0--0-0-0-0---------------------------------------------------------|

  PM------------------------------------------------------------------|

|---------------------------------------------------------------------|
|---------------------------------------------------------------------|
|---------------------------------------------------------------------|
|-7--------5-----7-3--------7-----3-------------------7--------5------|
|-8--0--0--7--0--8-5--0--0--8--0--5--0-----7h8p7------8--0--0--7--0---|
|----0--0-----0-------0--0-----0-----0--10-------10------0--0-----0---|

    PM---|   PM      PM---|   PM    PM                  PM---|    PM

|-------------------------------------|
|-------------------------------------|
|-------------------------------------|
|7--3--------7-----3------------------|
|8--5--0--0--8--0--5--0-----7h8p7-----|
|------0--0-----0-----0--10-------10--|

      PM---|   PM    PM

|--------------------------------------------------------------------|
|--------------------------------------------------------------------|
|--------------------------------------------------------------------|
|-7--------5-----7-3--------7-----3-------------------7--------5-----|
|-8--0--0--7--0--8-5--0--0--8--0--5--0-----7h8p7------8--0--0--7--0--|
|----0--0-----0-------0--0-----0-----0--10-------10------0--0-----0--|

    PM---|   PM      PM---|   PM    PM                  PM---|    PM

|-------------------------------------|
|-------------------------------------|
|-------------------------------------|
|7--3--------7-----3------------------|
|8--5--0--0--8--0--5--0-----7h8p7-----|
|------0--0-----0-----0--10-------10--|

      PM---|   PM    PM

|--------------------------------------------------------------------|
|--------------------------------------------------------------------|
|------5-4-5-4-------4---5---4~~-------9-7-9-7------5---9---7~~------|
|-3-----------0---5---5---5-----7-------------5---5---5---5------3---|
|-3-----------0-----------------7-------------5------------------3---|
|-3-----------0-----------------7-------------5------------------3---|

                 PM  PM  PM                      PM  PM  PM

|----------------|
|----------------|
|--4---5---4~~---|
|5---5---5-------|
|----------------|
|----------------|
 PM  PM  PM
|--------------------------------------------------------------------|
|--------------------------------------------------------------------|
|-----9-7-9-7--------5---9---7~~-------------------------------------|
|-7------------5---5---5---5------7------7---7-3---------------7==---|
|-7------------5------------------8------8---8-5---------------8==---|
|-7------------5---------------------0-0---0--------0--0-0-0-0-------|

                  PM  PM  PM        PM--| PM       PM---------|

|------------------------------------|
|------------------------------------|
|------------------------------------|
|7------7----7-3---------------7==---|
|8------8----8-5---------------8==---|
|--0-0----0---------0--0-0-0-0-------|

  PM--|  PM       PM----------|

|-------------------------------------------------------------------|
|-------------------------------------------------------------------|
|-------------------------------------------------------------------|
|-7------7-----7-3-----------------7==---7--------7------7-3--------|
|-8------8-----8-5-----------------8==---8--------8------8-5--------|
|---0--0----0-----------0--0-0-0-0----------0--0-----0--------------|

   PM---|  PM          PM---------|        PM---|   PM

|---------------------|
|---------------------|
|---------------------|
|------------7==------|
|------------8==------|
|0--0-0-0-0-----------|
PM----------| 32------| 1O'S

|--------------------------------------------------------------------|
|--10-10-10-10-10-10-10-10-10-10-10-10-10-10-10-10-10-10-10-10-10-10-|
|--12-12-12-12-10-10-10-10--9--9--9--9--7--7--7--7-12-12-12-12-10-10-|
|--------------------------------------------------------------------|
|--------------------------------------------------------------------|
|--------------------------------------------------------------------|

|--------------------------------------------------------------------|
|10-10-10-10-10-10-10-10-10-10---------------------------------------|
|10-10--9--9--9--9--7--7--7--7---------------------------------------|
|--------------------------------2-3-3--3-2--0--0-0----------0--2-2--|
|----------------------------------------------------3-5-5-----------|
|--------------------------------------------------------------------|

|--------------------------------------------------------------------|
|--------------------------------------------------------------------|
|--------------------------------------------------------------------|
|-0-2--5--3--2--0--------2--3-3---3-2--0--0-0---------0-2-2--0-2--5--|
|------------------3---------------------------3-5-5-----------------|
|--------------------------------------------------------------------|

|-------------|
|-------------|
|-------------|
|3--2--0------|
|---------3---|
|-------------|

|------------------------------------------------------------------|
|------------------------------------------------------------------|
|----5-4-5-4--------4---5---4~~-----9-7-9-7--------5---9---7~~-----|
|-3------------0--5---5---5-----7------------5---5---5---5---------|
|-3------------0----------------7------------5---------------------|
|-3------------0----------------7------------5---------------------|

                  PM PM PM                       PM  PM  PM

|--------------------------------|
|--------------------------------|
|----5-4-5-4--------4---5---4~~--|
|-3------------0--5---5---5------|
|-3------------0-----------------|
|-3------------0-----------------|

                  PM PM PM

|--------------------------------------------------------------------|
|--------------------------------------------------------------------|
|-----9-7-9-7---------5---9------------------------------------------|
|-7-------------5---5---5---5--0-5-8---7----------------0-3-7--5-----|
|-7-------------5----------------------------------------------------|
|-7-------------5------------------------0--0--0--0--0-----------0---|

                   PM  PM  PM           PM---|   PM----|        PM--

|----------------------|
|----------------------|
|----------------------|
|--------------0-5-8---|
|----------------------|
|0--0--0--0------------|
--|   PM---|
|--------------------------------------------------------------------|
|--------------------------------------------------------------------|
|--------------------------------------------------------------------|
|-10-------------------8-7-5---------------------0-5-8----7----------|
|-----------------------------8--------------------------------------|
|------0--0--0--0--0--------------0--0--0--0--0--------------0--0--0-|

     PM----|  PM----|            PM---|  PM----|            PM---|

|----------------------------------------|
|----------------------------------------|
|----------------------------------------|
|-------0-3-7--5------------------0-5-8--|
|----------------------------------------|
|-0--0------------0--0--0--0--0----------|

 PM---|          PM---|   PM---|

|--------------------------------------------------------------------|
|--------------------------------------------------------------------|
|--------------------------------------------------------------------|
|-10-----------------8p7p5--7-7------8-----7-----5--------5-----2----|
|---------------------------8-8-----10-----8-----7--------7-----3----|
|-----0--0--0--0--0--------------0------0------0--------------0------|

    PM-----|  PM----|           PM     PM     PM             PM

|--------------------------------------------------------------------|
|--------------------------------------------------------------------|
|--------------------------------------------------------------------|
|2---0-5-8-7-----------------0-3-7-5-----------------0-5-8-10--------|
|3-------------------------------------------------------------------|
|-------------0--0--0--0--0-----------0--0--0--0--0------------0--0--|

            PM----|  PM----|         PM---|  PM-----|         PM----|

|--------------------------------------------------------------------|
|--------------------------------------------------------------------|
|--------------------------------------------------------------------|
|---------8-7-5--------------------0-5-8-7------------------0-5-8-10-|
|---------------8----------------------------------------------------|
|0--0--0-----------0--0--0--0--0-------------0--0--0--0--0-----------|

   PM----|        PM---|   PM----|         PM----|   PM----|

|------------------------------------------------------------|
|------------------------------------------------------------|
|------------------------------------------------------------|
|----------------8-7-5--7-7----8---7---5-------5---2--2--2---|
|-----------------------8-8---10---8---7-------7---3--3--3---|
|-0--0--0--0--0-------------0----0---0-----------0-----------|

 PM---|   PM---|           PM   PM  PM          PM

|--------------------------------------------------------------------|
|--------------------------------------------------------------------|
|-------5-4-5-4-------4---5---4----------9-7-9-7---------5---9---7~~-|
|-------------------5---5---5-------7--------------5---5---5---5-----|
|-----------------------------------7--------------5-----------------|
|---3------------0------------------7--------------5-----------------|

                   PM PM  PM                           PM PM PM

|--------------------------------------------------------------------|
|--------------------------------------------------------------------|
|-----9-7-9-7---------5---9---7~~------------------------------------|
|-7-------------5---5---5---5------3---7-7-7-7-7-7-7-7-7-9-9-9-9-5---|
|-7-------------5------------------3-----------------------------5---|
|-7-------------5------------------3-----------------------------5---|

                   PM  PM  PM

|---------------------------------------------------------------------|
|---------------------------------------------------------------------|
|---------------------------------------------------------------------|
|9-9-9-9-9-9-9-9-10-10-10-10-7--10-10-10-10-10-10-10-10-12-12-12-12-5-|
|----------------------------7--------------------------------------5-|
|----------------------------7--------------------------------------5-|

|--------------------------------------------------------------------|
|--------------------------------------------------------------------|
|--------------------------------------------------------------------|
|-9-9-9-9-9-9-9-9-10-10-10-10--3--7-7-7-7-7-7-7-7-9-9-9-9-5--9-9-9-9-|
|------------------------------3--------------------------5----------|
|------------------------------3--------------------------5----------|

|---------------------------------------------------------------------|
|---------------------------------------------------------------------|
|---------------------------------------------------------------------|
|9-9-9-9-10-10-10-10-0--5-5-5-5-5-5-5-5-7-7-7-7-3---3-3-3-3-3-3-3-3-5-|
|--------------------0--------------------------3---------------------|
|--------------------0--------------------------3---------------------|

|--------------------------------------------------------------------|
|--------------------------------------------------------------------|
|--------------------------------------------------------------------|
|-5-5-5--3--7-7-7-7-7-7-7-7-9-9-9-9-5--9-9-9-9-9-9-9-9-10-10-10-10---|
|--------3--------------------------5--------------------------------|
|--------3--------------------------5--------------------------------|

|--------------------------------------------------------------------|
|--------------------------------------------------------------------|
|--------------------------------------------------------------------|
|-7--10-10-10-10-10-10-10-10-12-12-12-12-5--9-9-9-9-9-9-9-9-10-10-10-|
|-7--------------------------------------5---------------------------|
|-7--------------------------------------5---------------------------|

|--------------------------------------------------------------------|
|--------------------------------------------------------------------|
|--------------------------------------------------------------------|
|10--3--7-7-7-7-7-7-7-7-9-9-9-9-5--9-9-9-9-9-9-9-9-10-10-10-10--0--5-|
|----3--------------------------5-------------------------------0----|
|----3--------------------------5-------------------------------0----|

|-------------------------------------------------|
|-------------------------------------------------|
|-------------------------------------------------|
|5-5-5-5-5-5-5-7-7-7-7-3--3-3-3-3-3-3-3-3-5-5-5-5-|
|----------------------3--------------------------|
|----------------------3--------------------------|
comments
We did not receive enough feedback on this tab! Please rate:
print report bad tab
1 2 3 4 5
I want to post or [tab]
guest
You may want to rate the tab now too:
select rating
Please do not post tabs as comments. Select "correction" instead!