Oops, an error
Loading. Please wait.

Carrion Tab

ver7
ver7

Interactive

More versions @911Tabs.com
2,572 views 21 this week
no commentswrite comment
1 2 3 4 5
excellent!
x 4
Autoscroll
+/-
esc
set tempo
stop
Contributor
Hey! There's an official Ultimate Guitar app which is ideal
for learning songs when you're away from computer. Get the app
WARNING: You are trying to view
                                    content from Ultimate-Guitar.com
                                    in an unauthorized application,
                                    which is prohibited.

                                    Please use an official Ultimate
                                    Guitar Tabs application for iPhone,
                                    iPad or Android to access legitimate
                                    chords, guitar, bass, and drum tabs
                                    from Ultimate-Guitar.com database.

                                    Type "ultimate guitar tabs" in Apple
                                    App Store's or Android Market's
                                    search to find the application.
PARKWAY DRIVE

CARRION

B-F#-B-E-G#-C#


TABBED BY andherembrace






-----------------------------------------------------|
------5----------------------------------------------|
------5-----------4----------9-----------9---9---7---|
-3--------0-------5-----7----7-----5-------5---5-----|
-3--------0-------------7----------5-----------------|
-3--------0-------------7----------5-----lightly-----|
                                         * * * * *

----------------------------------------------------|
------5---------------------------------------------|
------5-----------4----------9-----------9----------|
-3--------0-------5-----7----7-----5-------5--------|
-3--------0-------------7----------5----------------|
-3--------0-------------7----------5----lightly-----|
                                         * *

0:12

1
--------_----------------------------_-------------------|
-------/ \--------------------------/ \------------------|
----5-4-5-4------4---5---4-------9-7-9-7------5---9---7~-|
-3----------0--5---5---5------7-----------5-9---9---9----|
-3----------0-----------------7-----------5--------------|
-3----------0---------------/-7-----------5--------------|
               *   *   *                    *   *   *
2
---------------------------------------------------------|
---------------------------------------------------------|
---------------------------------------------------------|
-3----------0-----------------7-----------5--------------|
-3----------0-----------------7-----------5--------------|
-3----------0-|-------------/-7-----------5-|------------|


1
--------_----------------------------_-------------------|
-------/ \--------------------------/ \------------------|
----5-4-5-4------4---5---4-------9-7-9-7------5---9---7~-|
-3----------0--5---5---5------7-----------5-9---9---9----|
-3----------0-----------------7-----------5--------------|
-3----------0-----------------7-----------5--------------|
               *   *   *                    *   *   *
2
---------------------------------------------------------|
---------------------------------------------------------|
---------------------------------------------------------|
-3----------0-----------------7-----------5--------------|
-3----------0-----------------7-----------5-----------15-|
-3----------0-|-------------/-7-----------5-|---------15\|


0:25

L
-----------------------------------------|
-----------------------------------------|
----------------------------------_------|
---------------------------------/ \-----|
-8-0-0-7-0-8-5-0-0-8-0-3-0--^---7-8-7----|
-7-0-0-5-0-7-3-0-0-7-0-2-0-8-10-------10-|
   * *   *     * *   *   *
R
-----------------------------------------|
-----------------------------------------|
-----------------------------------------|
-----------------------------------------|
-0-----0-----0---------------------------|
-0-----0-----0---------------------------|
 *     *     *

B
-----------------------------------------|
-----------------------------------------|
----------------------------------_------|
---------------------------------/ \-----|
-8-0-0-7-0-8-5-0-0-8-0-3-0--^---7-8-7----|
-7-0-0-5-0-7-3-0-0-7-0-2-0-8-10-------10-|
   * *   *     * *   *   *
-----------------------------------------|
-----------------------------------------|
----------------------------------_------|
---------------------------------/ \-----|
-8-0-0-7-0-8-5-0-0-8-0-3-0--^---7-8-7----|
-7-0-0-5-0-7-3-0-0-7-0-2-0-8-10-------10-|
   * *   *     * *   *   *
-----------------------------------------|
-----------------------------------------|
----------------------------------_------|
---------------------------------/ \-----|
-8-0-0-7-0-8-5-0-0-8-0-3-0--^---7-8-7----|
-7-0-0-5-0-7-3-0-0-7-0-2-0-8-10-------10-|
   * *   *     * *   *   *


0:37

----------------------------------------------------------|
----------------------------------------------------------|
----------------------------------------------------------|
----------------------------------------------------------|
-8-0-0-8-0-8-5----0-000-12-----8-0-0-8-0-8-5---0-000-12---|
-7-0-0-7-0-7-3----0-000-10\----7-0-0-7-0-7-3---0-000-10\--|
   * *   *        * ***          * *   *       * ***

------------------------------------------------------------|
------------------------------------------------------------|
------------------------------------------------------------|
------------------------------------------------------------|
-8-0-0-8-0-8-5----0-000-12-----8-0-0-8-0-8-5---0-000--PH----|
-7-0-0-7-0-7-3----0-000-10\----7-0-0-7-0-7-3---0-000--3-~~~~|
   * *   *        * ***          * *   *       * ***


0:49

-----------------------------------------|
-----------------------------------------|
----------------------------------_------|
---------------------------------/ \-----|
-8-0-0-7-0-8-5-0-0-8-0-3-0--^---7-8-7----|
-7-0-0-5-0-7-3-0-0-7-0-2-0-8-10-------10-|
   * *   *     * *   *   *
-----------------------------------------|
-----------------------------------------|
----------------------------------_------|
---------------------------------/ \-----|
-8-0-0-7-0-8-5-0-0-8-0-3-0--^---7-8-7----|
-7-0-0-5-0-7-3-0-0-7-0-2-0-8-10-------10-|
   * *   *     * *   *   *
-----------------------------------------|
-----------------------------------------|
----------------------------------_------|
---------------------------------/ \-----|
-8-0-0-7-0-8-5-0-0-8-0-3-0--^---7-8-7----|
-7-0-0-5-0-7-3-0-0-7-0-2-0-8-10-------10-|
   * *   *     * *   *   *
-----------------------------------------|
-----------------------------------------|
----------------------------------_------|
---------------------------------/ \-----|
-8-0-0-7-0-8-5-0-0-8-0-3-0--^---7-8-7----|
-7-0-0-5-0-7-3-0-0-7-0-2-0-8-10-------10-|
   * *   *     * *   *   *


1:01


1
--------_----------------------------_-------------------|
-------/ \--------------------------/ \------------------|
----5-4-5-4------4---5---4-------9-7-9-7------5---9---7~-|
-3----------0--5---5---5------7-----------5-9---9---9----|
-3----------0-----------------7-----------5--------------|
-3----------0---------------/-7-----------5--------------|
               *   *   *                    *   *   *
2
---------------------------------------------------------|
---------------------------------------------------------|
---------------------------------------------------------|
-3----------0-----------------7-----------5--------------|
-3----------0-----------------7-----------5--------------|
-3----------0-|-------------/-7-----------5-|------------|


1
--------_----------------------------_-------------------|
-------/ \--------------------------/ \------------------|
----5-4-5-4------4---5---4-------9-7-9-7------5---9---7~-|
-3----------0--5---5---5------7-----------5-9---9---9----|
-3----------0-----------------7-----------5--------------|
-3----------0---------------/-7-----------5--------------|
               *   *   *                    *   *   *
2
---------------------------------------------------------|
---------------------------------------------------------|
---------------------------------------------------------|
-3----------0-----------------7-----------5--------------|
-3----------0-----------------7-----------5-----------15-|
-3----------0-|-------------/-7-----------5-|---------15\|



1:13

----------------------------------------------------------|
----------------------------------------------------------|
----------------------------------------------------------|
----------------------------------------------------------|
-8-0-0-8-0-8-5----0-000-12-----8-0-0-8-0-8-5---0-000-12---|
-7-0-0-7-0-7-3----0-000-10\----7-0-0-7-0-7-3---0-000-10\--|
   * *   *        * ***          * *   *       * ***
----------------------------------------------------------|
----------------------------------------------------------|
----------------------------------------------------------|
----------------------------------------------------------|
-8-0-0-8-0-8-5----0-000-12-----8-0-0-8-0-8-5---0-000-12---|
-7-0-0-7-0-7-3----0-000-10\----7-0-0-7-0-7-3---0-000-10\--|
   * *   *        * ***          * *   *       * ***



1:25

-------------------------------------------------|
-------------------------------------------------|
-14-14-14-14-14-14-14-14-12-12-12-12-12-12-12-12-|
-17-17-17-17-15-15-15-15-14-14-14-14-12-12-12-12-|
-------------------------------------------------|
-------------------------------------------------|


L
-------------------------------------------------|
-------------------------------------------------|
-14-14-14-14-14-14-14-14-12-12-12-12-12-12-12-12-|
-17-17-17-17-15-15-15-15-14-14-14-14-12-12-12-12-|
-------------------------------------------------|
-------------------------------------------------|

R
-------------------------------------------------|
-------------------------------------------------|
-12-12-12-12-10-10-10-10--9--9--9--9-12-12-12-12-|
-12-12-12-12-12-12-12-12-10-10-10-10-10-10-10-10-|
-------------------------------------------------|
-------------------------------------------------|



1:31

1
--------------------------------------------------------------|
--------------------------------------------------------------|
-10-1010--910-9--7--7-7--5-5-777-9--9-9-7-9-9-9-12-10-99-777--|
--X--X-X--X-X-X--X--X-X--X-X-XXX-X--X-X-X-X-X-X--X--X-XX-XXX--|
--8--8-8--7/8\7--5--5-5--3-3-555/7--7-7-5/7-7-7/10--8-77-555--|
--------------------------------------------------------------|

2
------------------------------------------------------------------|
------------------------------------------------------------------|
------------------------------------------------------------------|
------------------------------------------------------------------|
-3--3-3-3-3-3----0--0--0-0-0-0-0----7--7-7-7-7-7---5--5--5-5-5-5-5|
-3--3-3-3-3-3----0--0--0-0-0-0-0----7--7-7-7-7-7---5--5--5-5-5-5-5|


1
--------------------------------------------------------------|
--------------------------------------------------------------|
-10-1010--910-9--7--7-7--5-5-777-9--9-9-7-9-9-9-12-10-99-777--|
--X--X-X--X-X-X--X--X-X--X-X-XXX-X--X-X-X-X-X-X--X--X-XX-XXX--|
--8--8-8--7/8\7--5--5-5--3-3-555/7--7-7-5/7-7-7/10--8-77-555--|
--------------------------------------------------------------|

2
----------------------------------------------------------------|
----------------------------------------------------------------|
----------------------------------------------------------------|
----------------------------------------------------------------|
-3--3-3-3-3-3----0--0--0-0-0-0-0----7--7-7-7-7-7---5--5--5--15--|
-3--3-3-3-3-3----0--0--0-0-0-0-0----7--7-7-7-7-7---5--5--5--15\-|



1:44

1
--------_----------------------------_-------------------|
-------/ \--------------------------/ \------------------|
----5-4-5-4------4---5---4-------9-7-9-7------5---9---7~-|
-3----------0--5---5---5------7-----------5-9---9---9----|
-3----------0-----------------7-----------5--------------|
-3----------0---------------/-7-----------5--------------|
               *   *   *                    *   *   *
HARMONY
-------_-----------------------------_-------------------|
------/ \---------------------------/ \------------------|
---9-7-9-7-------7---9---7-------5-4-5-4------2---5---4~-|
-7----------7--9---9---9------2----------5--5---5---5----|
---------------------------------------------------------|
---------------------------------------------------------|
               *   *   *                    *   *   *
2
---------------------------------------------------------|
---------------------------------------------------------|
---------------------------------------------------------|
-3----------0-----------------7-----------5--------------|
-3----------0-----------------7-----------5--------------|
-3----------0---------------/-7-----------5--------------|


1
--------_----------------------------_-------------------|
-------/ \--------------------------/ \------------------|
----5-4-5-4------4---5---4-------9-7-9-7------5---9------|
-3----------0--5---5---5------7-----------5-9---9---9----|
-3----------0-----------------7-----------5--------------|
-3----------0---------------/-7-----------5--------------|
               *   *   *                    *   *   *
HARMONY
-------_-----------------------------_-------------------|
------/ \---------------------------/ \------------------|
---9-7-9-7-------7---9---7-------5-4-5-4------2---5------|
-7----------7--9---9---9------2----------5--5---5---5----|
---------------------------------------------------------|
---------------------------------------------------------|
               *   *   *                    *   *   *
2
---------------------------------------------------------|
---------------------------------------------------------|
---------------------------------------------------------|
-3----------0-----------------7-----------5--------------|
-3----------0-----------------7-----------5--------------|
-3----------0---------------/-7-----------5--------------|




1:56

B
----------------------------------------------------------------|
---_-----------------_-----------------_------------------_-----|
--/ \---------------/ \---------------/ \----------------/ \----|
-0-5-8-7-----------0-3-7-5-----------0-7-8-10-----------8-7-5---|
--------------------------------------------------------------8-|
---------0-0-0-0-0---------0-0-0-0-0----------0-0-0-0-0---------|
         * *   * *         * *   * *          * *   * *

----------------------------------------------------------------|
---_-----------------_-----------------_------------------_-----|
--/ \---------------/ \---------------/ \----------------/ \----|
-0-5-8-7-----------0-3-7-5-----------0-7-8-10-----------8-7-5---|
--------------------------------------------------------------8-|
---------0-0-0-0-0---------0-0-0-0-0----------0-0-0-0-0---------|
         * *   * *         * *   * *          * *   * *

----------------------------------|
----------------------------------|
----------------------------------|
-7-7----8---7---5--5----2--2------|
-8-8---10---8---7--7----3--3------|
-----0----0---0------0------------|
     *    *   *      *

----------------------------------------------------------------|
---_-----------------_-----------------_------------------_-----|
--/ \---------------/ \---------------/ \----------------/ \----|
-0-5-8-7-----------0-3-7-5-----------0-7-8-10-----------8-7-5---|
--------------------------------------------------------------8-|
---------0-0-0-0-0---------0-0-0-0-0----------0-0-0-0-0---------|
         * *   * *         * *   * *          * *   * *

----------------------------------------------------------------|
---_-----------------_-----------------_------------------_-----|
--/ \---------------/ \---------------/ \----------------/ \----|
-0-5-8-7-----------0-3-7-5-----------0-7-8-10-----------8-7-5---|
--------------------------------------------------------------8-|
---------0-0-0-0-0---------0-0-0-0-0----------0-0-0-0-0---------|
         * *   * *         * *   * *          * *   * *

----------------------------------|
----------------------------------|
----------------------------------|
-7-7----8---7---5--5----2-2-2-2---|
-8-8---10---8---7--7----3-3-3-3---|
-----0----0---0------0------------|
     *    *   *      *




2:23

1
--------_----------------------------_-------------------|
-------/ \--------------------------/ \------------------|
----5-4-5-4------4---5---4-------9-7-9-7------5---9---7~-|
---------------5---5---5------7-----------5-9---9---9----|
------------------------------7-----------5--------------|
-3----------0---------------/-7-----------5--------------|
               *   *   *                    *   *   *
HARMONY
-------------------------------------_-------------------|
------------------------------------/ \------------------|
---------------------------------5-4-5-4------2---5---4~-|
------------------------------2----------5--5---5---5----|
---------------------------------------------------------|
---------------------------------------------------------|
               *   *   *                    *   *   *
2
---------------------------------------------------------|
---------------------------------------------------------|
---------------------------------------------------------|
------------------------------7-----------5--------------|
------------------------------7-----------5--------------|
----------------------------/-7-----------5--------------|


1
--------_----------------------------_-------------------|
-------/ \--------------------------/ \------------------|
----5-4-5-4------4---5---4-------9-7-9-7------5---9---7--|
-3----------0--5---5---5------7-----------5-9---9---9----|
-3----------0-----------------7-----------5--------------|
-3----------0---------------/-7-----------5--------------|
               *   *   *                    *   *   *
HARMONY
-------_-----------------------------_-------------------|
------/ \---------------------------/ \------------------|
---9-7-9-7-------7---9---7-------5-4-5-4------2---5---4--|
-7----------7--9---9---9------2----------5--5---5---5----|
---------------------------------------------------------|
---------------------------------------------------------|
               *   *   *                    *   *   *
2
---------------------------------------------------------|
---------------------------------------------------------|
---------------------------------------------------------|
-3----------0-----------------7-----------5--------------|
-3----------0-----------------7-----------5-----------15-|
-3----------0-|-------------/-7-----------5-|---------15\|



2:36

REPEATS-FADES

L
-------------------------------------------------------------------|
-------------------------------------------------------------------|
----555555557777---777777779999---9999999910101010---777777779999--|
-3---------------5--------------7------------------5---------------|
-3---------------5--------------7------------------5---------------|
-3---------------5--------------7------------------5---------------|

R
-------------------------------------------------------------------|
-------------------------------------------------------------------|
--222222224444----444444445555-----555555557777------444444445555--|
3--------------5----------------7------------------5---------------|
3--------------5----------------7------------------5---------------|
3--------------5----------------7------------------5---------------|


L
----------------------------------------------------------------|
----------------------------------------------------------------|
----555555557777---777777779999----444444445555---222222224444--|
-3---------------5--------------0---------------3---------------|
-3---------------5--------------0---------------3---------------|
-3---------------5--------------0---------------3---------------|

R
----------------------------------------------------------------|
----------------------------------------------------------------|
--222222224444----444444445555----000000002222---222222220000---|
3--------------5----------------0--------------3----------------|
3--------------5----------------0--------------3----------------|
3--------------5----------------0--------------3----------------|
comments
print report bad tab
I want to post or [tab]
guest
You may want to rate the tab now too:
select rating
Please do not post tabs as comments. Select "correction" instead!