Oops, an error
Loading. Please wait.

Dead Dreams Tab

4,916 views 4 this week
1 commentread comment
1 2 3 4 5
excellent!
x 2
Autoscroll
+/-
esc
set tempo
stop
Contributor
WARNING: You are trying to view
                                    content from Ultimate-Guitar.com
                                    in an unauthorized application,
                                    which is prohibited.

                                    Please use an official Ultimate
                                    Guitar Tabs application for iPhone,
                                    iPad or Android to access legitimate
                                    chords, guitar, bass, and drum tabs
                                    from Ultimate-Guitar.com database.

                                    Type "ultimate guitar tabs" in Apple
                                    App Store's or Android Market's
                                    search to find the application.
                                  Dead Dreams                                   


                                                                   Parkway Drive
Track 1



              S S S S S S S S S S S S S S S S  
C#||-------|----------------------------------|
G#||-------|----------------------------------|
E ||-------|----------------------------------|
B ||-------|----------2-2-2-2-3-3-3-3-2-2-2-2-|
F#||-------|--5-5-5-5-------------------------|
B ||-------|----------------------------------|


                                     PM PM    PM PM    PM     
  S S S S S S S S S S S S S S S S    E  E  E  E  E  E  E  E   
----------------------------------|--------------------------|
----------------------------------|--------------------------|
----------------------------------|--------------------------|
--5-5-5-5-3-3-3-3-2-2-2-2---------|--------------------------|
--------------------------5-5-5-5-|--0--0--3--0--0--5--0--3--|
----------------------------------|--0--0-----0--0-----0-----|


  PM PM    PM PM    PM                                        
  E  E  E  E  E  E  E  E     S S S S S S S S S S S S S S S S  
--------------------------|----------------------------------|
--------------------------|----------------------------------|
--------------------------|--2-2-2-2-------------------------|
--------------------------|----------3-3-3-3-5-5-5-5-2-2-2-2-|
--0--0--1--0--0--3--0--1--|----------------------------------|
--0--0-----0--0-----0-----|----------------------------------|


                                     PM PM    PM PM    PM PM  
  S S S S S S S S S S S S S S S S    E  E  E  E  E  E  E  E   
----------------------------------|--------------------------|
----------------------------------|--------------------------|
----------------------------------|--------------------------|
--3-3-3-3---------2-2-2-2---------|--------------------------|
----------5-5-5-5---------3-3-3-3-|--0--0--3--0--0--5--0--0--|
----------------------------------|--0--0-----0--0-----0--0--|


     PM PM    PM PM   NH                                        
  E  E  E  E  E  E    Q        S S S S S S S S S S S S S S S S  
----------------------------|----------------------------------|
----------------------------|----------------------------------|
----------------------------|----------------------------------|
--3--------2----------------|----------2-2-2-2-3-3-3-3-2-2-2-2-|
-----0--0-----0--0--<>5~----|--5-5-5-5-------------------------|
-----0--0-----0--0----------|----------------------------------|


                                     PM PM    PM PM    PM     
  S S S S S S S S S S S S S S S S    E  E  E  E  E  E  E  E   
----------------------------------|--------------------------|
----------------------------------|--------------------------|
----------------------------------|--------------------------|
--5-5-5-5-3-3-3-3-2-2-2-2---------|--------------------------|
--------------------------5-5-5-5-|--0--0--3--0--0--5--0--3--|
----------------------------------|--0--0-----0--0-----0-----|


  PM PM    PM PM    PM                                        
  E  E  E  E  E  E  E  E     S S S S S S S S S S S S S S S S  
--------------------------|----------------------------------|
--------------------------|----------------------------------|
--------------------------|--2-2-2-2-------------------------|
--------------------------|----------3-3-3-3-5-5-5-5-2-2-2-2-|
--0--0--1--0--0--3--0--1--|----------------------------------|
--0--0-----0--0-----0-----|----------------------------------|


                                     PM PM    PM PM    PM PM  
  S S S S S S S S S S S S S S S S    E  E  E  E  E  E  E  E   
----------------------------------|--------------------------|
----------------------------------|--------------------------|
----------------------------------|--------------------------|
--3-3-3-3---------2-2-2-2---------|--------------------------|
----------5-5-5-5---------3-3-3-3-|--0--0--3--0--0--5--0--0--|
----------------------------------|--0--0-----0--0-----0--0--|


     PM PM   NH              PM PM                           PM PM       
  E  E  E    E   H           E  E  Q    H           H        E  E  Q     
--------------------------|----------------------|----------------------|
--------------------------|----------------------|----------------------|
--------------------------|----------------------|----------------------|
--3-----------------------|----------------------|----------------------|
-----0--0--<>5~--L--------|--0--0--0----L--------|--L--------0--0--0----|
-----0--0-----------------|--0--0--0----L--------|--L--------0--0--0----|


  PM PM                           PM PM         PM PM                
  E  E  Q    H           H        E  E  Q       E  E  Q    H         
----------------------|----------------------|----------------------|
----------------------|----------------------|----------------------|
----------------------|----------------------|----------------------|
----------------------|----------------------|----------------------|
--0--0--0----L--------|--L--------0--0--0----|--0--0--0----L--------|
--0--0--0----L--------|--L--------0--0--0----|--0--0--0----L--------|


           PM PM         PM PM        W                         W          
  H        E  E  Q       E  E  Q      H            Q    E  E    H          
----------------------|-------------------------|-------------------------|
----------------------|-------------------------|-------------------------|
----------------------|-------------------------|-------------------------|
----------------------|-------------------------|-------------------------|
--L--------0--0--0----|--0--0--0----<>3~--------|--L----------<>3~--------|
--L--------0--0--0----|--0--0--0----------------|-------0-----------------|


  PM PM                           PM PM         PM PM                
  E  E  Q    H           H        E  E  Q       E  E  Q    H         
----------------------|----------------------|----------------------|
----------------------|----------------------|----------------------|
----------------------|----------------------|----------------------|
----------------------|----------------------|----------------------|
--0--0--0----L--------|--L--------0--0--0----|--0--0--0----L--------|
--0--0--0----L--------|--L--------0--0--0----|--0--0--0----L--------|


           PM PM         PM PM                           PM PM       
  H        E  E  Q       E  E  Q    H           H        E  E  Q     
----------------------|----------------------|----------------------|
----------------------|----------------------|----------------------|
----------------------|----------------------|----------------------|
----------------------|----------------------|----------------------|
--L--------0--0--0----|--0--0--0----L--------|--L--------0--0--0----|
--L--------0--0--0----|--0--0--0----L--------|--L--------0--0--0----|


  PM PM                           PM PM         PM PM    PM       PM PM  
  E  E  Q    H           H        E  E  Q       E  E  E  E  E  E  E  E   
----------------------|----------------------|--------------------------|
----------------------|----------------------|--------------------------|
----------------------|----------------------|--------------------------|
----------------------|----------------------|--------6-----5--3--------|
--0--0--0----L--------|--L--------0--0--0----|--3--3-----3--------3--3--|
--0--0--0----L--------|--L--------0--0--0----|--3--3-----3--------3--3--|


     PM    PM                PM PM    PM                PM         PM          
  E  E  E  E  E  E  E  E     E  E  E  E  E  E  E  E     E  E  Q    E  E  Q     
--------------------------|--------------------------|------------------------|
--------------------------|--------------------------|------------------------|
--5-----------------------|--------------------------|------------------------|
--------6-----5--3-----3--|--------6-----5--3-----3--|--6--6--L----1--1--L----|
-----3-----3--------6-----|--3--3-----3--------6-----|--6--6--L----1--1--L----|
-----3-----3--------------|--3--3-----3--------------|--6--6--L----1--1--L----|


  PM PM    PM       PM PM       PM    PM              
  E  E  E  E  E  E  E  E     E  E  E  E  E  E  E  E   
--------------------------|--------------------------|
--------------------------|--------------------------|
--------------------------|--5-----------------------|
--------6-----5--3--------|--------6-----5--3-----3--|
--3--3-----3--------3--3--|-----3-----3--------6-----|
--3--3-----3--------3--3--|-----3-----3--------------|


  PM PM    PM                                         
  E  E  E  E  E  E  E  E     E  E  E  E  E  E  E  E   
--------------------------|--------------------------|
--------------------------|--------------------------|
--------------------------|--3-----------5--3--------|
--------6-----5--3-----3--|-----6--5--3--------6--5--|
--3--3-----3--------6-----|--------------------------|
--3--3-----3--------------|--------------------------|


  PM PM    PM       PM PM       PM    PM              
  E  E  E  E  E  E  E  E     E  E  E  E  E  E  E  E   
--------------------------|--------------------------|
--------------------------|--------------------------|
--------------------------|--5-----------------------|
--------6-----5--3--------|--------6-----5--3-----3--|
--3--3-----3--------3--3--|-----3-----3--------6-----|
--3--3-----3--------3--3--|-----3-----3--------------|


  PM PM    PM                                         
  E  E  E  E  E  E  E  E     E  E  E  E  E  E  E  E   
--------------------------|--------------------------|
--------------------------|--------------------------|
--------------------------|--3-----------------------|
--------6-----5--3-----3--|-----6--5--3--6--5--3-----|
--3--3-----3--------6-----|-----------------------6--|
--3--3-----3--------------|--------------------------|


  PM PM    PM       PM PM       PM    PM              
  E  E  E  E  E  E  E  E     E  E  E  E  E  E  E  E   
--------------------------|--------------------------|
--------------------------|--------------------------|
--------------------------|--5-----------------------|
--------6-----5--3--------|--------6-----5--3-----3--|
--3--3-----3--------3--3--|-----3-----3--------6-----|
--3--3-----3--------3--3--|-----3-----3--------------|


  PM PM    PM                                         
  E  E  E  E  E  E  E  E     E  E  E  E  E  E  E  E   
--------------------------|--------------------------|
--------------------------|--------------------------|
--------------------------|--3-----------5--3--------|
--------6-----5--3-----3--|-----6--5--3--------6--5--|
--3--3-----3--------6-----|--------------------------|
--3--3-----3--------------|--------------------------|


  PM PM    PM       PM PM       PM    PM              
  E  E  E  E  E  E  E  E     E  E  E  E  E  E  E  E   
--------------------------|--------------------------|
--------------------------|--------------------------|
--------------------------|--5-----------------------|
--------6-----5--3--------|--------6-----5--3-----3--|
--3--3-----3--------3--3--|-----3-----3--------6-----|
--3--3-----3--------3--3--|-----3-----3--------------|


  PM PM    PM                                         
  E  E  E  E  E  E  E  E     E  E  E  E  E  E  E  E   
--------------------------|--------------------------|
--------------------------|--------------------------|
--------------------------|--3-----------------------|
--------6-----5--3-----3--|-----6--5--3--6--5--3-----|
--3--3-----3--------6-----|-----------------------6--|
--3--3-----3--------------|--------------------------|


  PM PM    PM       PM PM       PM    PM              
  E  E  E  E  E  E  E  E     E  E  E  E  E  E  E  E   
--------------------------|--------------------------|
--------------------------|--------------------------|
--------------------------|--5-----------------------|
--------6-----5--3--------|--------6-----5--3-----3--|
--3--3-----3--------3--3--|-----3-----3--------6-----|
--3--3-----3--------3--3--|-----3-----3--------------|


  PM PM    PM                                         
  E  E  E  E  E  E  E  E     E  E  E  E  E  E  E  E   
--------------------------|--------------------------|
--------------------------|--------------------------|
--------------------------|--3-----------5--3--------|
--------6-----5--3-----3--|-----6--5--3--------6--5--|
--3--3-----3--------6-----|--------------------------|
--3--3-----3--------------|--------------------------|


  PM PM    PM       PM PM       PM    PM              
  E  E  E  E  E  E  E  E     E  E  E  E  E  E  E  E   
--------------------------|--------------------------|
--------------------------|--------------------------|
--------------------------|--5-----------------------|
--------6-----5--3--------|--------6-----5--3-----3--|
--3--3-----3--------3--3--|-----3-----3--------6-----|
--3--3-----3--------3--3--|-----3-----3--------------|


  PM PM    PM                                         
  E  E  E  E  E  E  E  E     E  E  E  E  E  E  E  E   
--------------------------|--------------------------|
--------------------------|--------------------------|
--------5-----3-----------|--------------3-----------|
-----------------6--5--3--|--5--3--5--6-----6--5-----|
--3--3-----3--------------|-----------------------6--|
--3--3-----3--------------|--------------------------|


  PM PM    PM       PM PM       PM    PM              
  E  E  E  E  E  E  E  E     E  E  E  E  E  E  E  E   
--------------------------|--------------------------|
--------------------------|--------------------------|
--------------------------|--5-----------------------|
--------6-----5--3--------|--------6-----5--3-----3--|
--3--3-----3--------3--3--|-----3-----3--------6-----|
--3--3-----3--------3--3--|-----3-----3--------------|


  PM PM    PM                                                             
  E  E  E  E  E  E  E  E     E  E  E  E  E  E  E  E     W                 
--------------------------|--------------------------|-------------------|
--------------------------|--------------------------|-------------------|
--------5-----3-----------|--------------3-----------|-------------------|
-----------------6--5--3--|--5--3--5--6-----6--5-----|--0----------------|
--3--3-----3--------------|-----------------------6--|--0----------------|
--3--3-----3--------------|--------------------------|--0----------------|


  W                   W                   W                 
-------------------|-------------------|-------------------|
-------------------|-------------------|-------------------|
-------------------|-------------------|-------------------|
--L----------------|--0----------------|--L----------------|
--L----------------|--0----------------|--L----------------|
--L----------------|--0----------------|--L----------------|


  PM PM PM PM PM PM PM PM PM PM PM PM                             
  S  S  E  S  S  E  S  S  E  S  S  E     E  E  E  E  E  E  E  E   
--------------------------------------|--------------------------|
--------------------------------------|--------------------------|
--------------------------------------|--------------------------|
--------------------------------------|--6--3--2--3--5--3--2--3--|
--0--0--0--0--0--0--0--0--0--0--0--0--|--6--3--2--3--5--3--2--3--|
--0--0--0--0--0--0--0--0--0--0--0--0--|--6--3--2--3--5--3--2--3--|


  PM PM PM PM PM PM PM PM PM PM PM PM                             
  S  S  E  S  S  E  S  S  E  S  S  E     E  E  E  E  E  E  E  E   
--------------------------------------|--------------------------|
--------------------------------------|--------------------------|
--------------------------------------|--------------------------|
--------------------------------------|--6--3--2--3--5--3--2--3--|
--0--0--0--0--0--0--0--0--0--0--0--0--|--6--3--2--3--5--3--2--3--|
--0--0--0--0--0--0--0--0--0--0--0--0--|--6--3--2--3--5--3--2--3--|


  PM PM PM PM PM PM PM PM PM PM PM PM                             
  S  S  E  S  S  E  S  S  E  S  S  E     E  E  E  E  E  E  E  E   
--------------------------------------|--------------------------|
--------------------------------------|--------------------------|
--------------------------------------|--------------------------|
--------------------------------------|--6--3--2--3--5--3--2--3--|
--0--0--0--0--0--0--0--0--0--0--0--0--|--6--3--2--3--5--3--2--3--|
--0--0--0--0--0--0--0--0--0--0--0--0--|--6--3--2--3--5--3--2--3--|


  PM PM PM PM PM PM PM PM PM PM PM PM                         
  S  S  E  S  S  E  S  S  E  S  S  E     E  E  H        Q     
--------------------------------------|----------------------|
--------------------------------------|----------------------|
--------------------------------------|----------------------|
--------------------------------------|--6-------------------|
--0--0--0--0--0--0--0--0--0--0--0--0--|--6-------------------|
--0--0--0--0--0--0--0--0--0--0--0--0--|--6-------------------|


  PM PM PM PM PM PM PM PM PM PM PM PM                             
  S  S  E  S  S  E  S  S  E  S  S  E     E  E  E  E  E  E  E  E   
--------------------------------------|--------------------------|
--------------------------------------|--------------------------|
--------------------------------------|--------------------------|
--------------------------------------|--6--3--2--3--5--3--2--3--|
--0--0--0--0--0--0--0--0--0--0--0--0--|--6--3--2--3--5--3--2--3--|
--0--0--0--0--0--0--0--0--0--0--0--0--|--6--3--2--3--5--3--2--3--|


  PM PM PM PM PM PM PM PM PM PM PM PM                             
  S  S  E  S  S  E  S  S  E  S  S  E     E  E  E  E  E  E  E  E   
--------------------------------------|--------------------------|
--------------------------------------|--------------------------|
--------------------------------------|--------------------------|
--------------------------------------|--6--3--2--3--5--3--2--3--|
--0--0--0--0--0--0--0--0--0--0--0--0--|--6--3--2--3--5--3--2--3--|
--0--0--0--0--0--0--0--0--0--0--0--0--|--6--3--2--3--5--3--2--3--|


  PM PM PM PM PM PM PM PM PM PM PM PM                             
  S  S  E  S  S  E  S  S  E  S  S  E     E  E  E  E  E  E  E  E   
--------------------------------------|--------------------------|
--------------------------------------|--------------------------|
--------------------------------------|--------------------------|
--------------------------------------|--6--3--2--3--5--3--2--3--|
--0--0--0--0--0--0--0--0--0--0--0--0--|--6--3--2--3--5--3--2--3--|
--0--0--0--0--0--0--0--0--0--0--0--0--|--6--3--2--3--5--3--2--3--|


  PM PM PM PM PM PM PM PM PM PM PM PM    PM PM PM PM PM PM PM PM  
  S  S  E  S  S  E  S  S  E  S  S  E     E  E  E  E  E  E  E  E   
--------------------------------------|--------------------------|
--------------------------------------|--------------------------|
--------------------------------------|--------------------------|
--------------------------------------|--6--3--2--3--5--3--2--3--|
--0--0--0--0--0--0--0--0--0--0--0--0--|--6--3--2--3--5--3--2--3--|
--0--0--0--0--0--0--0--0--0--0--0--0--|--6--3--2--3--5--3--2--3--|


  PM   PM   PM   PM      PM PM PM PM PM PM PM PM    PM   PM   PM   PM    
  Q    Q    Q    Q       E  E  E  E  E  E  E  E     Q    Q    Q    Q     
----------------------|--------------------------|----------------------|
----------------------|--------------------------|----------------------|
----------------------|--------------------------|----------------------|
----------------------|--6--3--2--3--5--3--2--3--|----------------------|
--0----0----0----0----|--6--3--2--3--5--3--2--3--|--0----0----0----0----|
--0----0----0----0----|--6--3--2--3--5--3--2--3--|--0----0----0----0----|


  PM PM PM PM PM PM PM PM    PM   PM   PM   PM      PM PM PM PM PM PM PM PM  
  E  E  E  E  E  E  E  E     Q    Q    Q    Q       E  E  E  E  E  E  E  E   
--------------------------|----------------------|--------------------------|
--------------------------|----------------------|--------------------------|
--------------------------|----------------------|--------------------------|
--6--3--2--3--5--3--2--3--|----------------------|--6--3--2--3--5--3--2--3--|
--6--3--2--3--5--3--2--3--|--0----0----0----0----|--6--3--2--3--5--3--2--3--|
--6--3--2--3--5--3--2--3--|--0----0----0----0----|--6--3--2--3--5--3--2--3--|


  PM   PM   PM   PM      PM PM PM PM PM PM PM PM    PM PM PM PM PM PM PM PM  
  Q    Q    Q    Q       E  E  E  E  E  E  E  E     E  E  E  E  E  E  E  E   
----------------------|--------------------------|--------------------------|
----------------------|--------------------------|--------------------------|
----------------------|--------------------------|--------------------------|
----------------------|--6--3--2--3--5--3--2--3--|--6--3--2--3--5--3--2--3--|
--0----0----0----0----|--6--3--2--3--5--3--2--3--|--6--3--2--3--5--3--2--3--|
--0----0----0----0----|--6--3--2--3--5--3--2--3--|--6--3--2--3--5--3--2--3--|


  W                   H         H           W                 
-------------------|---------------------|-------------------|
-------------------|---------------------|-------------------|
-------------------|-----------10--------|-------------------|
--0----------------|--L------------------|--0----------------|
--0----------------|--L---------8--------|--0----------------|
--0----------------|--L------------------|--0----------------|


  H         H           W                   H         H         
---------------------|-------------------|---------------------|
---------------------|-------------------|---------------------|
-----------10--------|-------------------|-----------10--------|
--L------------------|--0----------------|--L------------------|
--L---------8--------|--0----------------|--L---------8--------|
--L------------------|--0----------------|--L------------------|


  W                   H        E    E   E    E     W                 
-------------------|----------------------------|-------------------|
-------------------|----------------------------|-------------------|
-------------------|-----------9s--10--10s--12--|-------------------|
--0----------------|--L-------------------------|--0----------------|
--0----------------|--L--------7s---8---8s--10--|--0----------------|
--0----------------|--L-------------------------|--0----------------|


  H        E    E   E    E     W                   H        E    E   E    E   
----------------------------|-------------------|----------------------------|
----------------------------|-------------------|----------------------------|
-----------9s--10--10s--12--|-------------------|-----------9s--10--10s--12--|
--L-------------------------|--0----------------|--L-------------------------|
--L--------7s---8---8s--10--|--0----------------|--L--------7s---8---8s--10--|
--L-------------------------|--0----------------|--L-------------------------|


     PM PM    PM PM PM       PM    PM                      
  E  E  E  E  E  E  E  E     E  E  E  E  E    E   E    E   
--------------------------|-------------------------------|
--------------------------|-------------------------------|
--------------------------|--------------9s--10--10s--12--|
--------------------------|-------------------------------|
--0--0--0--0--0--0--0--0--|--0--0--0--0--7s---8---8s--10--|
--0--0--0--0--0--0--0--0--|--0--0--0--0-------------------|


     PM PM    PM PM PM       PM    PM                      
  E  E  E  E  E  E  E  E     E  E  E  E  E    E   E    E   
--------------------------|-------------------------------|
--------------------------|-------------------------------|
--------------------------|--------------9s--10--10s--12--|
--------------------------|-------------------------------|
--0--0--0--0--0--0--0--0--|--0--0--0--0--7s---8---8s--10--|
--0--0--0--0--0--0--0--0--|--0--0--0--0-------------------|


     PM PM PM    PM PM PM       PM PM PM                   
  E  E  E  E  E  E  E  E     E  E  E  E  E    E   E    E   
--------------------------|-------------------------------|
--------------------------|-------------------------------|
--------------------------|--------------9s--10--10s--12--|
--------------------------|-------------------------------|
-----0--0--0-----0--0--0--|-----0--0--0--7s---8---8s--10--|
-----0--0--0-----0--0--0--|-----0--0--0-------------------|


     PM PM PM    PM PM PM       PM PM PM                   
  E  E  E  E  E  E  E  E     E  E  E  E  E    E   E    E   
--------------------------|-------------------------------|
--------------------------|-------------------------------|
--------------------------|--------------9s--10--10s--12--|
--------------------------|-------------------------------|
-----0--0--0-----0--0--0--|-----0--0--0--7s---8---8s--10--|
-----0--0--0-----0--0--0--|-----0--0--0-------------------|


     PM PM PM    PM PM PM       PM PM PM                   
  E  E  E  E  E  E  E  E     E  E  E  E  E    E   E    E   
--------------------------|-------------------------------|
--------------------------|-------------------------------|
--------------------------|--------------9s--10--10s--12--|
--------------------------|-------------------------------|
-----0--0--0-----0--0--0--|-----0--0--0--7s---8---8s--10--|
-----0--0--0-----0--0--0--|-----0--0--0-------------------|


     PM PM PM    PM PM PM       PM PM PM                   
  E  E  E  E  E  E  E  E     E  E  E  E  E    E   E    E   
--------------------------|-------------------------------|
--------------------------|-------------------------------|
--------------------------|--------------9s--10--10s--12--|
--------------------------|-------------------------------|
-----0--0--0-----0--0--0--|-----0--0--0--7s---8---8s--10--|
-----0--0--0-----0--0--0--|-----0--0--0-------------------|


  PM PM                           PM PM  
  E  E  S   S  S   S S   S  S   S E  E   
----------------------------------------|
----------------------------------------|
----------------------------------------|
----------------------------------------|
--0--0--8h-12p-8h-12-7h-10p-7h-10-0--0--|
--0--0----------------------------0--0--|


  S   S  S   S S   S  S   S S  S  S  S S  S  S  S  
--------------------------------------------------|
--------------------------------------------------|
--------------------------------------------------|
--------------------------------------------------|
--8h-12p-8h-12-7h-10p-7h-10-5h-8p-5h-8-3h-7p-3h-7-|
--------------------------------------------------|


  PM PM                           PM PM  
  E  E  S   S  S   S S   S  S   S E  E   
----------------------------------------|
----------------------------------------|
----------------------------------------|
----------------------------------------|
--0--0--8h-12p-8h-12-7h-10p-7h-10-0--0--|
--0--0----------------------------0--0--|


  S   S  S   S S   S  S   S S  S  S  S S  S  S  S  
--------------------------------------------------|
--------------------------------------------------|
--------------------------------------------------|
--------------------------------------------------|
--8h-12p-8h-12-7h-10p-7h-10-5h-8p-5h-8-3h-7p-3h-7-|
--------------------------------------------------|


  PM PM                           PM PM  
  E  E  S   S  S   S S   S  S   S E  E   
----------------------------------------|
----------------------------------------|
----------------------------------------|
----------------------------------------|
--0--0--8h-12p-8h-12-7h-10p-7h-10-0--0--|
--0--0----------------------------0--0--|


  S   S  S   S S   S  S   S S  S  S  S S  S  S  S  
--------------------------------------------------|
--------------------------------------------------|
--------------------------------------------------|
--------------------------------------------------|
--8h-12p-8h-12-7h-10p-7h-10-5h-8p-5h-8-3h-7p-3h-7-|
--------------------------------------------------|


  PM PM                           PM PM  
  E  E  S   S  S   S S   S  S   S E  E   
----------------------------------------|
----------------------------------------|
----------------------------------------|
----------------------------------------|
--0--0--8h-12p-8h-12-7h-10p-7h-10-0--0--|
--0--0----------------------------0--0--|


                                                     PM PM          PM PM       
  S   S  S   S S   S  S   S S  S  S  S S  S  S  S    E  E  H        E  E        
--------------------------------------------------|-----------------------|----|
--------------------------------------------------|-----------------------|----|
--------------------------------------------------|-----------------------|----|
--------------------------------------------------|-----------------------|----|
--8h-12p-8h-12-7h-10p-7h-10-5h-8p-5h-8-3h-7p-3h-7-|--0--0-----------0--0--|----|
--------------------------------------------------|--0--0-----------0--0--|----|


  PM PM                         PM PM  
  E  E  S   S  S   S S  S  S  S E  E   
--------------------------------------|
--------------------------------------|
--------7h-10p-7h-10-5h-9p-5h-9-------|
--------------------------------------|
--0--0--------------------------0--0--|
--0--0--------------------------0--0--|


  S   S  S   S S  S  S  S  S   S   S   S S   S  S   S  
------------------------------------------------------|
------------------------------------------------------|
--7h-10p-7h-10-5h-9p-5h-9-10h-14p-10h-14-9h-12p-9h-12-|
------------------------------------------------------|
------------------------------------------------------|
------------------------------------------------------|


  PM PM                         PM PM  
  E  E  S   S  S   S S  S  S  S E  E   
--------------------------------------|
--------------------------------------|
--------7h-10p-7h-10-5h-9p-5h-9-------|
--------------------------------------|
--0--0--------------------------0--0--|
--0--0--------------------------0--0--|


  S   S  S   S S  S  S  S  S   S   S   S S   S  S   S  
------------------------------------------------------|
------------------------------------------------------|
--7h-10p-7h-10-5h-9p-5h-9-10h-14p-10h-14-9h-12p-9h-12-|
------------------------------------------------------|
------------------------------------------------------|
------------------------------------------------------|


  PM PM                         PM PM  
  E  E  S   S  S   S S  S  S  S E  E   
--------------------------------------|
--------------------------------------|
--------7h-10p-7h-10-5h-9p-5h-9-------|
--------------------------------------|
--0--0--------------------------0--0--|
--0--0--------------------------0--0--|


                                                         PM PM                
  S   S  S   S S  S  S  S  S   S   S   S S   S  S   S    E  E  H        Q     
------------------------------------------------------|----------------------|
------------------------------------------------------|----------------------|
--7h-10p-7h-10-5h-9p-5h-9-10h-14p-10h-14-9h-12p-9h-12-|----------------------|
------------------------------------------------------|----------------------|
------------------------------------------------------|--0--0----------------|
------------------------------------------------------|--0--0----------------|


----||
----||
----||
----||
----||
----||




Duration Legend
---------------
W - whole
H - half
Q - quarter
E - 8th
S - 16th
T - 32nd
X - 64th
. - note dotted
|-n-|  - n-tuplets


Tablature Legend
----------------
L - tied note
x - dead note
g - grace note
(n) - ghost note
> - accentuded note
NH - natural harmonic
AH - artificial harmonic
TH - tapped harmonic
SH - semi harmonic
PH - pitch harmonic
h - hammer on
p - pull off
b - bend
br - bendRelease
pb - preBend
pbr - preBendRelease
brb - bendReleaseBend
\n/ - tremolo bar dip
\n - tremolo bar dive
-/n - tremolo bar Release up
/n\ - tremolo bar inverted dip
/n - tremolo bar return
-\n - tremolo bar Release down
S - shift slide
s - legato slide
/ -  slide into from below or out of upwards
\ -  slide into from above or out of downwards
~ - vibrato
W - wide vibrato
tr - trill
TP - tremolo picking
T - tapping
S - slap
P - pop
< - fade in
^ - brush up
v - brush down
comments
We did not receive enough feedback on this tab! Please rate:
1 2 3 4 5
1 comment total.
0 reply
tinyhands2 wrote on January 21 2013, 02:28 pm

--------------------------|-------------------------------|
--------------------------|-------------------------------|
--------------------------|--------------7s---9---9s---10-|
--------------------------|-------------------------------|
-----0--0--0-----0--0--0--|-----0--0--0--5s---7---7s---8--|
-----0--0--0-----0--0--0--|-----0--0--0-------------------|

I want to post or [tab]
guest
You may want to rate the tab now too:
select rating
Please do not post tabs as comments. Select "correction" instead!