Oops, an error
Loading. Please wait.

Dead Mans Chest Tab

ver4
ver4

Whole song

Interactive

More versions @911Tabs.com
715 views 3 this week
no commentswrite comment
1 2 3 4 5
excellent!
x 3
Autoscroll
+/-
esc
set tempo
stop
Contributor
Tuning
A# F A# D# G C
Hey! There's an official Ultimate Guitar app which is ideal
for learning songs when you're away from computer. Get the app
WARNING: You are trying to view
                                    content from Ultimate-Guitar.com
                                    in an unauthorized application,
                                    which is prohibited.

                                    Please use an official Ultimate
                                    Guitar Tabs application for iPhone,
                                    iPad or Android to access legitimate
                                    chords, guitar, bass, and drum tabs
                                    from Ultimate-Guitar.com database.

                                    Type "ultimate guitar tabs" in Apple
                                    App Store's or Android Market's
                                    search to find the application.
PARKWAY DRIVE 

DEAD MAN'S CHEST

A#-F-A#-D#-G-C


TABBED BY andherembrace



0:05
                  
------------------------|
------------------------|
------------------------|
------------------------|
-0-1---4---3-1-3--------|
-0-1-0-4-0-3-1-3--------|
     *   *       


0:09   

-------------------------------------------|
-------------------------------------------|
-------------------------------------------|
-------------------------------------------|
-0-0-0-0--------------0-0-0-0--------------|
-0-0-0-0--00--00--00--0-0-0-0--00--00--00--|
 * * * *              * * * *

---------------------------------------|
---------------------------------------|
---------------------------------------|
---------------------------------------|
-0-0-0-0--------------0-1---4---3-1-3--|
-0-0-0-0--00--00--00--0-1-0-4-0-3-1-3--|
 * * * *                  *   *

-------------------------------------------|
-------------------------------------------|
-------------------------------------------|
-------------------------------------------|
-0-0-0-0--------------0-0-0-0--------------|
-0-0-0-0--00--00--00--0-0-0-0--00--00--00--|
 * * * *              * * * *

---------------------------------------|
---------------------------------------|
---------------------------------------|
---------------------------------------|
-0-0-0-0--------------0-1---4---3-1-3--|
-0-0-0-0--00--00--00--0-1-0-4-0-3-1-3--|
 * * * *                  *   *


0:25

---------------------------------------------------------|
---------------------------------------------------------|
---------------------------------------------------------|
---------------------------------------------11--11--11--|
-0-0-0-0-------0-0-0-0----------------0-0-0--33--33--33--|
-0-0-0-0-------0-0-0-0--00--00--00----0-0-0--------------|
 * * * *       * * * *            |   * * *

---------------------------------------|
---------------------------------------|
---------------------------------------|
---------------------------------------|
-0-0-0-0--------------0-1---4---3-1-3--|
-0-0-0-0--00--00--00--0-1-0-4-0-3-1-3--|
 * * * *                  *   *


---------------------------------------------------------|
---------------------------------------------------------|
---------------------------------------------------------|
---------------------------------------------11--11--11--|
-0-0-0-0-------0-0-0-0----------------0-0-0--33--33--33--|
-0-0-0-0-------0-0-0-0--00--00--00----0-0-0--------------|
 * * * *       * * * *            |   * * *

-----------------------------------------------------------|
-----------------------------------------------------------|
-----------------------------------------------------------|
--------------------------------------0-------0-----P------|
-0-0-0-0--------------0-1---4---3-1-3-0-------0------S--0--|
-0-0-0-0--00--00--00--0-1-0-4-0-3-1-3-0-------0-------\-0--|
 * * * *                  *   *                          |



0:47

L
-----------------------------------------------------------------------|
-----------------------------------------------------------------------|
----------------_----------------------------------_-------------------|
------/\-------/ \------/\-----/\--------/\-------/ \------/\-----/\---|
-0---5858-----710710---3737---5858--0---5858-----710710---3737---5858--|
-0--------0-0--------0------0-------0--------0-0--------0------0-------|
          * *        *      *                * *        *      *
R
-----------------------------------------------------------------------|
-----------------------------------------------------------------------|
----------------_----------------------------------_-------------------|
------/\-------/ \------/\-----/\--------/\-------/ \------/\-----/\---|
-0---5858-----710710---3737---5858--0---5858-----710710---3737---5858--|
-0--------0-0--------0------0-------0--------0-0--------0------0-------|
          * *        *      *                * *        *      *


L
----------------------------------------------------------------------|
----------------------------------------------------------------------|
--------------_-----------------------_----------_--------_-----------|
----/\-------/ \------/\-----/\------/ \--------/ \------/ \------/\--|
5--5858-----710710---3737---5858--8-812812-----710710---710710---5858-|
5-------0-0--------0------0-------8--------0-0--------0--------0------|
        * *        *      *                * *        *        *
R
---------------------------------------------------------------------|
---------------------------------------------------------------------|
----_------------------_---------------------------------------------|
---/ \--------/\------/ \------/\-------/\-------/\-----/\-----/\----|
5-812812-----3737----710710---5858--8--5858-----3737---3737---1515---|
5--------0-0-------0--------0-------8-------0-0------0------0--------|
         * *       *        *               * *      *      *


L
-----------------------------------------------------------------------|
-----------------------------------------------------------------------|
----------------_----------------------------------_-------------------|
------/\-------/ \------/\-----/\--------/\-------/ \------/\-----/\---|
-0---5858-----710710---3737---5858--0---5858-----710710---3737---5858--|
-0--------0-0--------0------0-------0--------0-0--------0------0-------|
          * *        *      *                * *        *      *
R
-----------------------------------------------------------------------|
-----------------------------------------------------------------------|
----------------_----------------------------------_-------------------|
------/\-------/ \------/\-----/\--------/\-------/ \------/\-----/\---|
-0---5858-----710710---3737---5858--0---5858-----710710---3737---5858--|
-0--------0-0--------0------0-------0--------0-0--------0------0-------|
          * *        *      *                * *        *      *

L
------------------------------------------------|
------------------------------------------------|
--------------_-----------------------_---------|
----/\-------/ \------/\-----/\------/ \--------|
5--5858-----710710---3737---5858--8-812812------|
5-------0-0--------0------0-------8--------0-0--|
        * *        *      *                * *     
R
------------------------------------------------|
------------------------------------------------|
----_------------------_------------------------|
---/ \--------/\------/ \------/\-------/\------|
5-812812-----3737----710710---5858--8--5858-----|
5--------0-0-------0--------0-------8-------0-0-|
         * *       *        *               * *




1;05

L
---------------------------------------------------------------------------|
---------------------------------------------------------------------------|
---------------------------------------------------------------------------|
-8-------------------------------------8-----------------------------------|
---10-------8----------------------------10------8-------------------------|
------8-7~----7-5~-0000-0000-0000-000-------8-7~----7-5~-0000-0000-0000-000|
                   **** **** **** ***                    **** **** **** ***
R
---------------------------------------------------------------------------|
---------------------------------------------------------------------------|
---------------------------------------------------------------------------|
---------------------------------------8-----------------------------------|
------------8----------------------------10------8-------------------------|
--------------7-5~-0000-0000-0000-000-------8-7~----7-5~-0000-0000-0000-000|
                   **** **** **** ***                    **** **** **** ***

B
--------------------------------------------------------------------------|
--------------------------------------------------------------------------|
--------------------------------------------------------------------------|
-8-------------------------------------8----------------------------------|
---10-------8----------------------------10------8----10--8-----5---------|
------8-7~----7-5~-0000-0000-0000-000-------8-7~---7--10----10--5-(0)/ \--|
                   **** **** **** ***                    


1:18

L
------------------------------------------------------------------|
------------------------------------------------------------------|
------------------------------------------------------------------|
/8---------------------------------/8-----------------------------|
---10-------8------0-0-0---0-0-0------10------8------0-0-0---0-0-0|
------8-7~----7-5~-0-0-0---0-0-0---------8-7~---7-5~-0-0-0---0-0-0|
                   * * *   * * *                     * * *   * * *     
R
------------------------------------------------------------------|
------------------------------------------------------------------|
------------------------------------------------------------------|
-5----------------------------------5-----------------------------|
---3--------3------0-0-0---0-0-0------3-------3------0-0-0---0-0-0|
-----5-3~-----3-5~-0-0-0---0-0-0--------5-3~----3-5~-0-0-0---0-0-0|
                   * * *   * * *                     * * *   * * *

L
--------------------------------------------------|
--------------------------------------------------|
--------------------------------------------------|
/8---------------------------------/8-------------|
---10-------8------0-0-0---0-0-0------10------8---|
------8-7~----7-5~-0-0-0---0-0-0---------8-7~---7-|
                   * * *   * * *                   
R
----------------------------------------------------|
----------------------------------------------------|
----------------------------------------------------|
-5----------------------------------5---------------|
---3--------3------0-0-0---0-0-0------3-------3-----|
-----5-3~-----3-5~-0-0-0---0-0-0--------5-3~----3---|
                   * * *   * * *                    


L
---------------------------------------------------------------|
---------------------------------------------------------------|
---------------------------------------------------------------|
-8---------------------7--------------------0------------------|
-8---------------------7--------------------0------------------|
-8---------------------7--------------------0------------------|

R
---------------------------------------------------------------|
---------------------------------------------------------------|
---------------------------------------------------------------|
-5---------------------3--------------------0------------------|
-5---------------------3--------------------0------------------|
-5---------------------3--------------------0------------------|



R
------------------------|
------------------------|
------------------------|
------------------------|
-0-0-0-0----------------|
-0-0-0-0--00--00--00----|
 * * * *             |


B
-------------------------------------------|
-------------------------------------------|
-------------------------------------------|
-------------------------------------------|
-0-0-0-0--------------0-0-0-0--------------|
-0-0-0-0--00--00--00--0-0-0-0--00--00--00--|
 * * * *              * * * *

---------------------------------------|
---------------------------------------|
---------------------------------------|
---------------------------------------|
-0-0-0-0--------------0-1---4---3-1-3--|
-0-0-0-0--00--00--00--0-1-0-4-0-3-1-3--|
 * * * *                  *   *


-------------------------------------------|
-------------------------------------------|
-------------------------------------------|
-------------------------------11--11--11--|
-0-0-0-0----------------0-0-0--33--33--33--|
-0-0-0-0--00--00--00----0-0-0--------------|
 * * * *                * * *

---------------------------------------|
---------------------------------------|
---------------------------------------|
---------------------------------------|
-0-0-0-0--------------0-1---4---3-1-3--|
-0-0-0-0--00--00--00--0-1-0-4-0-3-1-3--|
 * * * *                  *   *


1:59

--------------------------------------------------------------------|
--------------------------------------------------------------------|
--------------------------------------------------------------------|
---------------------------------------------------------------1----|
-0-0-0-0-----------00--00--00----------0000000-----------0-0-0-1----|
-0-0-0-0-----------00--00--00----------0000000-----------0-0-0-1----|
 * * * *           **  **  **          *******           * * *


L
--------------------------------------------------------------------|
--------------------------------------------------------------------|
--------------------------------------------------------------------|
---------------------------------------------------------------1----|
-0-0-0-0-----------00--00--00----------0000000-----------0-0-0-3----|
-0-0-0-0-----------00--00--00----------0000000-----------0-0-0------|
 * * * *           **  **  **          *******           * * *
R
--------------------------------------------------------------------|
--------------------------------------------------------------------|
---------------------------------------------------------------0----|
---------------------------------------------------------------1----|
-0-0-0-0-----------00--00--00----------0000000-----------0-0-0------|
-0-0-0-0-----------00--00--00----------0000000-----------0-0-0------|
 * * * *           **  **  **          *******           * * *


-----------------|
-----------------|
-----------------|
--1--------------|
--1--------------|
--1--------------|


---------------------------------------------------------------------------|
---------------------------------------------------------------------------|
---------------------------------------------------------------------------|
----------------------------1-1--1-1---------------------------------------|
-0-0-0-0-0-0-0-0-0-0-0-0-0--3-3--3-3--0-0-0-0-------------0-0-0-0--1-1--1-1|
-0-0-0-0-0-0-0-0-0-0-0-0-0------------0-0-0-0--0-0--0-0---0-0-0-0--1-1--1-1|
 * * * * * * * * * * * * *            * * * *             * * * * 

---------------------------------------------------------------------------|
---------------------------------------------------------------------------|
---------------------------------------------------------------------------|
----------------------------1-1--1-1---------------------------------------|
-0-0-0-0-0-0-0-0-0-0-0-0-0--3-3--3-3--0-0-0-0-------------0-0-0-0--1-1--1-1|
-0-0-0-0-0-0-0-0-0-0-0-0-0------------0-0-0-0--0-0--0-0---0-0-0-0--1-1--1-1|
 * * * * * * * * * * * * *            * * * *             * * * * 


REPEATS AND FADES

1
---------------------------------------------------------------------------|
---------------------------------------------------------------------------|
---------------------------------------------------------------------------|
----------------------------1-1--1-1---------------------------------------|
-0-0-0-0-0-0-0-0-0-0-0-0-0--3-3--3-3--0-0-0-0-------------0-0-0-0--1-1--1-1|
-0-0-0-0-0-0-0-0-0-0-0-0-0------------0-0-0-0--0-0--0-0---0-0-0-0--1-1--1-1|
 * * * * * * * * * * * * *            * * * *             * * * * 

2
--------------------------------------------------------------------------|
--------------------------------------------------------------------------|
--------------------------------------------------------------------------|
-12-----13-----12-----15-----13-----12-----15-----13-----12-----13-----12-|
--------------------------------------------------------------------------|
--------------------------------------------------------------------------|
comments
We did not receive enough feedback on this tab! Please rate:
print report bad tab
1 2 3 4 5
I want to post or [tab]
guest
You may want to rate the tab now too:
select rating
Please do not post tabs as comments. Select "correction" instead!