Oops, an error
Loading. Please wait.

Deadweight Tab

ver1
ver1

Whole song

More versions @911Tabs.com
13,132 views 21 this week
no commentswrite comment
1 2 3 4 5
excellent!
x 3
add to favorites launch autoscroll
font size
0
reset
Autoscroll
+/-
esc
set tempo
stop
Difficulty
Tuning
intermediate
A# F A# D# G C
WARNING: You are trying to view
                                    content from Ultimate-Guitar.com
                                    in an unauthorized application,
                                    which is prohibited.

                                    Please use an official Ultimate
                                    Guitar Tabs application for iPhone,
                                    iPad or Android to access legitimate
                                    chords, guitar, bass, and drum tabs
                                    from Ultimate-Guitar.com database.

                                    Type "ultimate guitar tabs" in Apple
                                    App Store's or Android Market's
                                    search to find the application.
PARKWAY DRIVE - DEADWEIGHT

NOTE: I HAVNT GOT GUITAR PRO SO DONT KNOW HOW SIMILAR THIS TAB IS TO OTHERS ON THE SITE.

TUNING: DROP A# (A#,F,A#,D#,G,C)

LEGEND:
PM. = Palm Mute
h   = Hammer on
p   = Pull off
t   = Tap note
x// = Pickscrape
//  = Slide from note
~   = Let ring
v   = Vibrato


BOOF,BOOF,BOOF,BOOF,
BOOF,BOOF,BOOF,BOOF

Intro - Guitar 1
 C|------------------------------------------------------------------------|
 G|------------------------------------------------------------------------|
D#|------------------------------------------------------------------------|
A#|------------------------------------------------------------------------|
 F|t12p5t12p5t12p5t12p5t12p5-----------------------------------------------|
A#|------------------------t12p5t12p5t12p5---------------------------------|

 C|------------------------------------------------------------------------|
 G|------------------------------------------------------------------------|
D#|------------------------------------------------------------------------|
A#|------------------------------------------------------------------------|
 F|t15p8t15p8t15p8t15p8t15p8-----------------------------------------------|
A#|-------------------------t15p8t15p8t15p8--------------------------------|

 C|------------------------------------------------------------------------|
 G|------------------------------------------------------------------------|
D#|------------------------------------------------------------------------|
A#|------------------------------------------------------------------------|
 F|t12p5t12p5t12p5t12p5t12p5-----------------------------------------------|
A#|-------------------------t12p5t12p5t12p5--------------------------------|

 C|------------------------------------------------------------------------|
 G|------------------------------------------------------------------------|
D#|------------------------------------------------------------------------|
A#|------------------------------------------------------------------------|
 F|t15p8t15p8t15p8t15p8t15p8-----------------------------------------------|
A#|------------------------------------------------------------------------|

C|------------------------------------------------------------------------|
 G|------------------------------------------------------------------------|
D#|------------------------------------------------------------------------|
A#|------------------------------------------------------------------------|
 F|t12p5t12p5t12p5t12p5t12p5-----------------------------------------------|
A#|------------------------t12p5t12p5t12p5---------------------------------|

 C|------------------------------------------------------------------------|
 G|------------------------------------------------------------------------|
D#|------------------------------------------------------------------------|
A#|------------------------------------------------------------------------|
 F|t15p8t15p8t15p8t15p8t15p8-----------------------------------------------|
A#|-------------------------t15p8t15p8t15p8--------------------------------|

 C|------------------------------------------------------------------------|
 G|------------------------------------------------------------------------|
D#|------------------------------------------------------------------------|
A#|------------------------------------------------------------------------|
 F|t12p5t12p5t12p5t12p5t12p5-----------------------------------------------|
A#|-------------------------t12p5t12p5t12p5--------------------------------|

 C|----------------------------------------------------------------------|
 G|----------------------------------------------------------------------|
D#|----------------------------------------------------------------------|
A#|----------------------------------------------------------------------|x3
 F|t15p8t15p8t15p8t15p8t15p8---------------------------------------------|
A#|-------------------------t15p8t15p8t15p8------------------------------|
   Guitar 2
 C|------------------------------------------------------------------------|
 G|------------------------------------------------------------------------|
D#|------------------------------------------------------------------------|
A#|0~--------------5~--------------8~--------------10~---------------------|
 F|0~--------------5~--------------8~--------------10~---------------------|
A#|0~--------------5~--------------8~--------------10~---------------------|
   Guitar 3
 C|------------------------------------------------------------------------|
 G|------------------------------------------------------------------------|
D#|------------------------------------------------------------------------|
A#|------------------------------------------------------------------------|
 F|-------------------------------------------------------------x//////////|
A#|-------------------------------------------------------------x//////////|
   Guitar 2
 C|------------------------------------------------------------------------|
 G|------------------------------------------------------------------------|
D#|------------------------------------------------------------------------|
A#|0~--------------5~--------------8~--------------10~---------------------|
 F|0~--------------5~--------------8~--------------10~---------------------|
A#|0~--------------5~--------------8~--------------10~---------------------|
   Guitar 3
 C|------------------------------------------------------------------------|
 G|------------------------------------------------------------------------|
D#|10/9-10~--------10/9-10~--------12/11-12~------10~------9~-----5~-------|
A#|-x-x--x----------x-x--x----------x--x--x--------x-------x------x--------|
 F|-8/7--8~---------8/7--8~--------10/-9-10~-------8~------7~-----3~-------|
A#|------------------------------------------------------------------------|
   Guitars 1 & 2
 C|------------------------------------------------------------------------|
 G|------------------------------------------------------------------------|
D#|------------------------------------------------------------------------|
A#|------------------------------------------------------------------------|
 F|5---------------7-------8~--7----7--------------------------------------|
A#|--8~--8~--8~--8---10~---------10----------------------------------------|
   Guitar 1 - Main riff
 C|--------------------------------------------------|---------------------|
 G|--------------------------------------------------|---Both Guitars------|
D#|--------------------------------------------------|---------------------|
A#|--------------------------------------------------|---------------------|
 F|128888810777778551077------------12888881077777588|-5-------------------|
A#|----------------------000-00-000------------------|---8~--8~--8~--8-----|
PM                       ... .. ...
   Guitars 1 & 2
 C|------------------------------------------------------------------------|
 G|------------------------------------------------------------------------|
D#|------------------------------------------------------------------------|
A#|------------------------------------------------------------------------|
 F|128888810777778551077------------5---------------7-------8~--7----7-----|
A#|----------------------000-00-000---8~--8~--8~--8---10~---------10-------|
PM                       ... .. ...
   Guitars 1 & 2
 C|------------------------------------------------------------------------|
 G|------------------------------------------------------------------------|
D#|------------------------------------------------------------------------|
A#|------------------------------------------------------------------------|
 F|128888810777778551077------------12888881077777885-5--------------------|
A#|----------------------000-00-000---------------------8~--8~--8~--8------|

 C|----------------------------------------------------------------------|
 G|----------------------------------------------------------------------|
D#|----------------------------------------------------------------------|
A#|----------------------------------------------------------------------|x2
 F|128888810777778551077------------5---------------7-------8~--7----7---|
A#|----------------------000-00-000---8~--8~--8~--8---10~---------10-----|
PM                       ... .. ...
   Both Guitars - Chorus
 C|----------------------------------------------------------------------|
 G|----------------------------------------------------------------------|
D#|----------------------------------------------------------------------|
A#|-----2----------3--------7-8v-7----7-10v-7------7---------------------|x4
 F|-----3----------5--------------------------10p7-----------------------|
A#|0-0----0---0--0---0--0--8-------10------------------------------------|
   Both Guitars
 C|------------------------------------------------------------------------|
 G|------------------------------------------------------------------------|
D#|------------------------------------------------------------------------|
A#|------------------------------------------------------------------------|
 F|128888810777778551077------------12888881077777855-5--------------------|
A#|----------------------000-00-000---------------------8~--8~--8~--8------|
PM                       ... .. ...
 C|------------------------------------------------------------------------|
 G|------------------------------------------------------------------------|
D#|------------------------------------------------------------------------|
A#|------------------------------------------------------------------------|
 F|128888810777778551077------------5---------------7-------8~--7----7-----|
A#|----------------------000-00-000---8~--8~--8~--8---10~---------10-------|
PM                       ... .. ...
   Breakdown 1 - Both Guitars
 C|------------------------------------------------------------------------|
 G|------------------------------------------------------------------------|
D#|------------------------------------------------------------------------|
A#|------------------------------------------------------------------------|
 F|0-0--0--0--0-0-0--0--0--0-0-0--0--0--0-5--------------------------------|
A#|0-0--0--0--0-0-0--0--0--0-0-0--0--0--0---8~--8~--8~--8------------------|
PM . .  .  .  . . .  .  .  . . .  .  .  .
 C|------------------------------------------------------------------------|
 G|------------------------------------------------------------------------|
D#|------------------------------------------------------------------------|
A#|------------------------------------------------------------------------|
 F|0-0--0--0--0-0-0--0--0--0-0-0--0--0--0-7-------8~--7----7---------------|
A#|0-0--0--0--0-0-0--0--0--0-0-0--0--0--0---10~---------10-----------------|
PM . .  .  .  . . .  .  .  . . .  .  .  .
   Interlude - Both Guitars
 C|------------------------------------------------------------------------|
 G|------------------------------------------------------------------------|
D#|------------------------------------------------------------------------|
A#|0~--------------------------------0~------------------------------------|
 F|0~--------------------------------0~----------------0-------------------|
A#|0~--------------------------------0~----------------0-------------------|
PM                                                     .
   Main Breakdown - Both Guitars
 C|------------------------------------------------------------------------|
 G|------------------------------------------------------------------------|
D#|------------------------------------------------------------------------|
A#|7/-------8/-------------7/-------8/-------------7/-------8/-------------|
 F|5/-000~--6/-000~--000~--5/-000~--6/-000~--000~--5/-000~--6/-000~--000~--|
A#|---000~-----000~--000~-----000~-----000~--000~-----000~-----000~--000~--|
PM    ...      ...   ...      ...      ...   ...      ...      ...   ...
 C|----------------------------------------|-----Guitar-1-------|-Guitar-2-|
 G|----------------------------------------|--------------------|----------|
D#|----------------------------------------|--------------------|----------|
A#|7/-------8/-----------------------------|--------------------|----------|
 F|5/-000~--6/-000~--000~--3~-333~-3~------|-333~---------------|333~-3~---|
A#|---000~-----000~--000~--3~-333~-3~------|-333~/8-------------|333~-3~---|
PM    ...      ...   ...   .  ...  .         ...                 ...  .
   Both Guitars
 C|------------------------------------------------------------------------|
 G|------------------------------------------------------------------------|
D#|------------------------------------------------------------------------|
A#|7/-------8/-------------7/-------8/-------------------------------------|
 F|5/-000~--6/-000~--000~--5/-000~--6/-000~--000~--------------------------|
A#|---000~-----000~--000~-----000~-----000~--000~--------------------------|
PM    ...      ...   ...      ...      ...   ...
 C|-----------|--Guitar-1---|-----Guitar-2---------------------------------|
 G|-----------|-------------|----------------------------------------------|
D#|-----------|-------------|----------------------------------------------|
A#|-----------|-------------|----------------------------------------------|
 F|3~-333~-3~-|-333~--------|-------333~-3~--------------------------------|
A#|3~-333~-3~-|-333~/8v-----|-------333~-3~--------------------------------|
PM .  ...  .    ...                 ...  .
 C|--------------|--------Guitar 1--------------|--------Guitar-1----------|
 G|--------------|------------------------------|--------------------------|
D#|--------------|------------------------------|--------------------------|
A#|--------------|---7-8v-7----7-10v-7------7---|--5~--0-------------------|
 F|-00-00--00-00-|---------------------10p7-----|--5~--0-(Mute-immediately)|
A#|-00-00--00-00-|--8-------10------------------|--5~--0-------------------|
PM  ..     ..
   Both Guitars
 C|----------------------------------------------------------------------|
 G|----------------------------------------------------------------------|
D#|----------------------------------------------------------------------|
A#|------2----------3--------7-8v-7----7-10v-7------7--------------------|x4
 F|------3----------5--------------------------10p7----------------------|
A#|-0-0----0---0-0----0--0--8-------10-----------------------------------|

 C|----------------------------------------------------------------------|
 G|----------------------------------------------------------------------|
D#|----------------------------------------------------------------------|
A#|--7-8v-7----7-10v-7------7--------------------------------------------|x3
 F|--------------------10p7----------------------------------------------|
A#|-8-------10-----------------------------------------------------------|

 C|-----Guitar-1---------|----------Guitar-2-------------------------------|
 G|-------------8v-------|-------------------------------------------------|
D#|--5-7v-5---7----7----7|-------------------------------------------------|
A#|------------------10--|---7-8v-7----7-10v-7------7----------------------|
 F|-7-------8------------|---------------------10p7------------------------|
A#|----------------------|--8-------10-------------------------------------|

 C|------------------------------------------------------------------------|
 G|------------------------------------------------------------------------|
D#|------------------------------------------------------------------------|
A#|-0~-----------------------------------0~--------------------------------|
 F|-0~-----------------------------------0~--------------------------------|
A#|-0~-----------------------------------0~--------------------------------|
   Guitar 1
 C|------------------------------------------------------------------------|
 G|------------------------------------------------------------------------|
D#|------------------------------------------------------------------------|
A#|-7/p0~------------------------------------------------------------------|
 F|-5/p0~------------------------------------------------------------------|
A#|-0~---------------------------------------------------------------------|
   Guitar 2
 C|------------------------------------------------------------------------|
 G|------------------------------------------------------------------------|
D#|------------------------------------------------------------------------|
A#|7/------8/-----------7/------8/-----------------------------------------|
 F|5/-000~-6/-000~-000~-5/-000~-6/-000~-000~-------------------------------|
A#|---000~----000~-000~----000~----000~-000~-------------------------------|
   Both Guitars
 C|------------------------------------------------------------------------|
 G|-----------------------------------------------''DRAGGING---------------|
D#|----------------------------------------------------ME------------------|
A#|7/------8/-----------7/------8/--------------------FROM-----------------|
 F|5/-000~-6/-000~-000~-5/-000~-6/-000~-00------------THIS...''------------|
A#|---000~----000~-000~----000~----000~-00---------------------------------|

 C|------------------------------------------------------------------------|
 G|---''WORLD''--------------------''RRRRRAAAAGGGGHHHH''-------------------|
D#|------------------------------------------------------------------------|
A#|7/-----8/---------7/-----8/---------------------------------------------|
 F|5/-000-6/-000-00--5/-000-6/-000-00--------------------------------------|
A#|---000----000-00-----000----000-00--------------------------------------|

 C|------------------------------------------------------------------------|
 G|------------------------''OOWWW''--''DEADWEIGHT''-----------------------|
D#|------------------------------------------------------------------------|
A#|7/-----8/--------7/-----8/----------------------------------------------|
 F|5/-000-6/-000-00-5/-000-6/-000-00---------------------------------------|
A#|---000----000-00----000----000-00---------------------------------------|


comments
We did not receive enough feedback on this tab! Please rate:
print report bad tab
1 2 3 4 5
I want to post or [tab]
guest
You may want to rate the tab now too:
select rating
Please do not post tabs as comments. Select "correction" instead!