Oops, an error
Loading. Please wait.

Deep Blue Tab

2,980 views 6 this week
no commentswrite comment
1 2 3 4 5
excellent!
x 2
Autoscroll
+/-
esc
set tempo
stop
Contributor
Hey! There's an official Ultimate Guitar app which is ideal
for learning songs when you're away from computer. Get the app
WARNING: You are trying to view
                                    content from Ultimate-Guitar.com
                                    in an unauthorized application,
                                    which is prohibited.

                                    Please use an official Ultimate
                                    Guitar Tabs application for iPhone,
                                    iPad or Android to access legitimate
                                    chords, guitar, bass, and drum tabs
                                    from Ultimate-Guitar.com database.

                                    Type "ultimate guitar tabs" in Apple
                                    App Store's or Android Market's
                                    search to find the application.
PARKWAY DRIVE 

DEEP BLUE

ALL SONGS TABBED BY andherembrace



SAMSARA 

A-E-A-D-F#-B


0:24


CLEAN                                                __
----------------------------------------------------/  \----------|
---------------6-------------------------6--------10-11-10--------|
-----------------------------------------------------------10-12--|
--------8-7-8------8----7---------8-7-8------8--------------------|
------------------------------------------------------------------|
-5---------------------------5------------------------------------|

L DIST GTR HARMONY FADES IN                          __
----------------------------------------------------/  \----------|
--------------------------------------------------13-15-13--------|
-----------------------------------------------------------14-15--|
------------------------------------------------------------------|
------------------------------------------------------------------|
------------------------------------------------------------------|

R DIST GTR  FADES IN
---------------------------------------------------------------|
---------------------------------------------------------------|
---------------------------------------------------------------|
---------------------------------------------------------------|
---------------------------------------------------------------|
-5-------------------------------------------------------------|
                  

CLEAN                                                __
----------------------------------------------------/  \----------|
---------------6-------------------------6--------10-11-10--------|
-----------------------------------------------------------10-12--|
--------8-7-8------8----7---------8-7-8------8--------------------|
------------------------------------------------------------------|
-5---------------------------5------------------------------------|

L DIST GTR HARMONY                                   __
----------------------------------------------------/  \----------|
--------------------------------------------------13-15-13--------|
-----------------------------------------------------------14-15--|
------------------------------------------------------------------|
------------------------------------------------------------------|
------------------------------------------------------------------|

R DIST GTR  
---------------------------------------------------------------|
---------------------------------------------------------------|
---------------------------------------------------------------|
---------------------------------------------------------------|
---------------------------------------------------------------|
-5-------------------------------------------------------------|
                  
CLEAN                                                __
----------------------------------------------------/  \----------|
---------------6-------------------------6--------10-11-10--------|
-----------------------------------------------------------10-12--|
--------8-7-8------8----7---------8-7-8------8--------------------|
------------------------------------------------------------------|
-5---------------------------5------------------------------------|

L DIST GTR HARMONY                                   __
----------------------------------------------------/  \----------|
--------------------------------------------------13-15-13--------|
-----------------------------------------------------------14-15--|
------------------------------------------------------------------|
------------------------------------------------------------------|
------------------------------------------------------------------|

R DIST GTR  
---------------------------------------------------------------|
---------------------------------------------------------------|
---------------------------------------------------------------|
---------------------------------------------------------------|
---------------------------------------------------------------|
-5-------------------------------------------------------------|
                  
CLEAN                                                __
----------------------------------------------------/  \----------|
---------------6-------------------------6--------10-11-10--------|
-----------------------------------------------------------10-12--|
--------8-7-8------8----7---------8-7-8------8--------------------|
------------------------------------------------------------------|
-5---------------------------5------------------------------------|

L DIST GTR HARMONY                                   __
----------------------------------------------------/  \----------|
--------------------------------------------------13-15-13--------|
-----------------------------------------------------------14-15--|
------------------------------------------------------------------|
------------------------------------------------------------------|
------------------------------------------------------------------|

R DIST GTR  
---------------------------------------------------------------|
---------------------------------------------------------------|
---------------------------------------------------------------|
---------------------------------------------------------------|
---------------------------------------------------------------|
-5-------------------------------------------------------------|
                  
CLEAN                                                __
----------------------------------------------------/  \----------|
---------------6-------------------------6--------10-11-10--------|
-----------------------------------------------------------10-12--|
--------8-7-8------8----7---------8-7-8------8--------------------|
------------------------------------------------------------------|
-5---------------------------5------------------------------------|

L DIST GTR HARMONY                                   __
----------------------------------------------------/  \----------|
--------------------------------------------------13-15-13--------|
-----------------------------------------------------------14-15--|
------------------------------------------------------------------|
------------------------------------------------------------------|
------------------------------------------------------------------|

R DIST GTR 
---------------------------------------------------------------|
---------------------------------------------------------------|
---------------------------------------------------------------|
---------------------------------------------------------------|
---------------------------------------------------------------|
-5-------------------------------------------------------------|
                  
CLEAN                                                
---------------------------------------------------------|
---------------6-------------------------6---------------|
---------------------------------------------------------|
--------8-7-8------8----7---------8-7-8------8-----------|
---------------------------------------------------------|
-5---------------------------5---------------------------|

L DIST GTR HARMONY                         
---------------------------------------------------------|
---------------------------------------------------------|
---------------------------------------------------------|
---------------------------------------------------------|
---------------------------------------------------------|
---------------------------------------------------------|

R DIST GTR 
---------------------------------------------------------|
---------------------------------------------------------|
---------------------------------------------------------|
---------------------------------------------------------|
---------------------------------------------------------|
-5-------------------------------------------------------|
                  



1:12

---------------------------------------------------------------|
---------------------------------------------------------------|
---------------------------------------------------------------|
--0--0---0---0--0----------------0--0---0---0--0---------------|
--0--0---0---0--0----------------0--0---0---0--0---------------|
--0--0---0---0--0----------------0--0---0---0--0---------------|
  *  *   *   *  *                *  *   *   *  *
                S                              S

--------------------------------------|
--------------------------------------|
--------------------------------------|
--0--0---0---0--0---2--2---3---3--2---|
--1--1---1---1--1---3--3---3---3--3---|
--1--1---1---1--1---3--3---3---3--3---|
  *  *   *   *  *   *  *   *   *  *

---------------------------------------------------------------|
---------------------------------------------------------------|
---------------------------------------------------------------|
--0--0---0---0--0----------------0--0---0---0--0---------------|
--0--0---0---0--0----------------0--0---0---0--0---------------|
--0--0---0---0--0----------------0--0---0---0--0---------------|
  *  *   *   *  *                *  *   *   *  *
                S                              S

--------------------------------------|
--------------------------------------|
--------------------------------------|
--0--0---0---0--0---2--2---3---3--2---|
--1--1---1---1--1---3--3---3---3--3---|
--1--1---1---1--1---3--3---3---3--3---|
  *  *   *   *  *   *  *   *   *  *

---------------------------------------------------------------|
---------------------------------------------------------------|
---------------------------------------------------------------|
--0--0---0---0--0----------------0--0---0---0--0---------------|
--0--0---0---0--0----------------0--0---0---0--0---------------|
--0--0---0---0--0----------------0--0---0---0--0---------------|
  *  *   *   *  *                *  *   *   *  *
                S                              S

-----------------------------------------------------|
-----------------------------------------------------|
-----------------------------------------------------|
--0--0---0---0--0---2--2---3---3--2---0--0---0---0--0|
--1--1---1---1--1---3--3---3---3--3---0--0---0---0--0|
--1--1---1---1--1---3--3---3---3--3---0--0---0---0--0|
  *  *   *   *  *   *  *   *   *  *   *  *   *   *  *





|||||||||||||||||||||||||||||||||||||||||||||||||||||||||
|||||||||||||||||||||||||||||||||||||||||||||||||||||||||
|||||||||||||||||||||||||||||||||||||||||||||||||||||||||
|||||||||||||||||||||||||||||||||||||||||||||||||||||||||






UNREST

A-E-A-D-F#-B


--------------------------------------|
--------------------------------------|
-------------------R-------L----------|
-0------------------P-------P---------|
-0-------------------S-------S--------|
-0--------------------\-------\-------|

L
------------------------------------------------------------------|
------------------------------------------------------------------|
------------------------------------------------------------------|
--------------------------------^-----/\-----/\-----/\-----^---^--|
-------------------------------585---7107---8128---7107---585-373-|
-----------------------------------0------0------0------0---------|
                                   *      *      *      *
R
------------------------------------------------------------------|
------------------------------------------------------------------|
------------------------------------------------------------------|
--^-----------------------------^-----/\-----/\-----/\-----^---^--|
-585---------------------------585---7107---8128---7107---585-373-|
-----00000--00000--00000--0000-----0------0------0------0---------|
     *****  *****  *****  ****     *      *      *      *


B
-----------------------------------------------------------------|
-----------------------------------------------------------------|
-----------------------------------------------------------------|
--^-----------------------------^-----^-----^-----^-----^---^----|
-585---------------------------585---585---585---585---373-373---|
-----00000--00000--00000--0000-----0-----0-----0-----0-----------|
     *****  *****  *****  ****     *     *     *     *
------------------------------------------------------------------|
------------------------------------------------------------------|
------------------------------------------------------------------|
--^-----------------------------^-----/\-----/\-----/\-----^---^--|
-585---------------------------585---7107---8128---7107---585-373-|
-----00000--00000--00000--0000-----0------0------0------0---------|
     *****  *****  *****  ****     *      *      *      *

-----------------------------------------------------------|
-----------------------------------------------------------|
-----------------------------------------------------------|
--^--------------------------------------------------------|
-585-------------------------------------------------------|
-----00000--00000--00000--00000--00000--00000--00000--0000-|
     *****  *****  *****  *****  *****  *****  *****  ****  


0:21

L
--------------------------------------------------------|
--------------------------------------------------------|
--------------------------------------------------------|
--^-----------------------------^--------^--------^-----|
-585---------------------------585---8--585---7--585-3--|
-----00000--00000--00000--0000-----0-7------0-10--------|
     *****  *****  *****  ****     *        *
R
--------------------------------------------------------|
--------------------------------------------------------|
--------------------------------------------------------|
--^-----------------------------^--------^--------^-----|
-585---------------------------585---12-585---7--585-3--|
-----00000--00000--00000--0000-----0-8------0-5---------|
     *****  *****  *****  ****     *        *

B
------------------------------------------------------------|
------------------------------------------------------------|
------------------------------------------------------------|
--^---------------------------------------------------------|
-585-0-0-0-0-0-0---0-0-0-0-0-0---0-0-0-0-0-0---0-0-0-0-0-0--|
-----0-0-0-0-0-0---0-0-0-0-0-0---0-0-0-0-0-0---0-0-0-0-0-0--|
     * * * * * *   * * * * * *   * * * * * *   * * * * * *

L
------------------------------------------------------------------|
------------------------------------------------------------------|
------------------------------------------------------------------|
--^-----------------------------^-----/\-----/\-----/\-----^---^--|
-585---------------------------585---7107---8128---7107---585-373-|
-----00000--00000--00000--0000-----0------0------0------0---------|
     *****  *****  *****  ****     *      *      *      *
R
-------------------------------------------------------------------|
-------------------------------------------------------------------|
-------------------------------------------------------------------|
--^-----------------------------^-----/\-----/\-----/\-----/\---/\-|
-585---------------------------585---7107---8128---7107---8128-7107|
-----00000--00000--00000--0000-----0------0------0------0----------|
     *****  *****  *****  ****     *      *      *      *

B
------------------------------------------------------------|
------------------------------------------------------------|
------------------------------------------------------------|
--^---------------------------------------------------------|
-585-0-0-0-0-0-0---0-0-0-0-0-0---0-0-0-0-0-0---0-0-0-0-0-0--|
-----0-0-0-0-0-0---0-0-0-0-0-0---0-0-0-0-0-0---0-0-0-0-0-0--|
     * * * * * *   * * * * * *   * * * * * *   * * * * * *



0:40

L
-----------------------------------------------------------------|
-----------------------------------------------------------------|
-----------------------------------------------------------------|
-----------------------------------------------------------------|
-0------------8-10-------5---00-00---00-00-00--00-00---00-00-00--|
-0------------8-10-------5---00-00---00-00-00--00-00---00-00-00--|
  |               |       |  ** **   ** ** **  ** **   ** ** **
R
-----------------------------------------------------------------|
-----------------------------------------------------------------|
---________-------____-------------------------------------------|
--/        \-----/    \------------------------------------------|
-585858585858---37373737-5---00-00---00-00-00--00-00---00-00-00--|
--------------8----------5---00-00---00-00-00--00-00---00-00-00--|
                          |  ** **   ** ** **  ** **   ** ** **


L
-----------------------------------------------|
-----------------------------------------------|
---_______________--------_____________--------|
--/               \------/             \-------|
-812812812812812812-----710710710710710710-----|
---------------------8---------------------5---|
R
-----------------------------------|
-----------------------------------|
---________--------________--------|
--/        \------/        \-------|
-585858585858----373737373737------|
--------------8---------------5----|


L
-------------------------------------------|
-------------------------------------------|
-------------------------------------------|
-------------------------------------------|
-------------------------------------------|
-12-10-0-0-0-0-0-0-10-12-10-0-0-0-0-0-0-10-|
       *   *   *            *   *   *      
R
----------------------------------------|
----------------------------------------|
----------------------------------------|
----------------------------------------|
----------------------------------------|
-7-5-0-0-0-0-0-0-5-7-5-0-0-0-0-0-0-5----|
     *   *   *         *   *   *  

L
-----------------------------------------------|
-----------------------------------------------|
---_______________--------_____________--------|
--/               \------/             \-------|
-812812812812812812-----710710710710710710-----|
---------------------8---------------------5---|
R
-----------------------------------|
-----------------------------------|
---________--------________--------|
--/        \------/        \-------|
-585858585858----373737373737------|
--------------8---------------5----|

B
-------------------------------------|
-------------------------------------|
-------------------------------------|
-------------------------------------|
-00-00---00-00-00--00-00---00-00-00--|
-00-00---00-00-00--00-00---00-00-00--|
 ** **   ** ** **  ** **   ** ** **


L
-----------------------------------------------|
-----------------------------------------------|
---_______________--------_____________--------|
--/               \------/             \-------|
-812812812812812812-----710710710710710710-----|
---------------------8---------------------5---|
R
-----------------------------------|
-----------------------------------|
---________--------________--------|
--/        \------/        \-------|
-585858585858----373737373737------|
--------------8---------------5----|


1:04
L
--------------------------------------------------------------------------|
--------------------------------------------------------------------------|
--------------------------------------------------------------------------|
--------------------------------------------------------------------------|
------------------------------------------------------------------------77|
12-10-0-0-0-0-0-0-10-12-10-0-0-0-0-0-0-12-10-0-0-0-0-0-0-10-12-10-0-0-0---|
      *   *   *            *   *   *         *   *   *            *   *
R
------------------------------------------------------------------|
------------------------------------------------------------------|
------------------------------------------------------------------|
------------------------------------------------------------------|
--------------------------------------------------------------3-3-|
7-5-0-0-0-0-0-0-5-7-5-0-0-0-0-0-0-7-5-0-0-0-0-0-0-5-7-5-0-0-0-----|
    *   *   *         *   *   *       *   *   *         *   *

L
---------------------------------------------------------------------------|
---------------------------------------------------------------------------|
---------------------------------------------------------------------------|
---------------------------------------------------------------------------|
-------------------------------------------------------------------------77|
0101210-0-0-0-0-0-0-10-12-10-0-0-0-0-0-0-12-10-0-0-0-0-0-0-10-12-10-0-0-0--|
        *   *   *            *   *   *         *   *   *            *   *
R
---------------------------------------------------------------------|
---------------------------------------------------------------------|
---------------------------------------------------------------------|
---------------------------------------------------------------------|
------------------------------------------------------------------3-3|
0-5-7-5-0-0-0-0-0-0-5-7-5-0-0-0-0-0-0-7-5-0-0-0-0-0-0-5-7-5-0-0-0----|
        *   *   *         *   *   *       *   *   *         *   *

B
---------------------------|
---------------------------|
---------------------------|
-0-----------------P-------|
-0-----------------S-------|
-0-----------------\-------|


1:22

------------------------------------------------------------------|
------------------------------------------------------------------|
------------------------------------------------------------------|
--^-----------------------------^-----/\-----/\-----/\-----^---^--|
-585---------------------------585---7107---8128---7107---585-373-|
-----00000--00000--00000--0000-----0------0------0------0---------|
     *****  *****  *****  ****     *      *      *      *

------------------------------------------------------------|
------------------------------------------------------------|
------------------------------------------------------------|
--^---------------------------------------------------------|
-585-0-0-0-0-0-0---0-0-0-0-0-0---0-0-0-0-0-0---0-0-0-0-0-0--|
-----0-0-0-0-0-0---0-0-0-0-0-0---0-0-0-0-0-0---0-0-0-0-0-0--|
     * * * * * *   * * * * * *   * * * * * *   * * * * * *

--------------------------------------------------------|
--------------------------------------------------------|
--------------------------------------------------------|
--^-----------------------------^--------^--------^-----|
-585---------------------------585---8--585---7--585-3--|
-----00000--00000--00000--0000-----0-7------0-10--------|
     *****  *****  *****  ****     *        *

-----------------------------------------------------------|
-----------------------------------------------------------|
-----------------------------------------------------------|
--^--------------------------------------------------------|
-585-0-0-0-0-0-0---0-0-0-0-0-0---0-0-0-0-0-0---0-0-000-0-0-|
-----0-0-0-0-0-0---0-0-0-0-0-0---0-0-0-0-0-0---0-0-000-0-0-|
     * * * * * *   * * * * * *   * * * * * *   * * *** * *


-------------------------------------------------|
-------------------------------------------------|
-------------------------------------------------|
-0------------------0----------------------------|
-0------------------0-----------------0----------|
-0------------------0-----------------0----------|
                                      *

L
---------------------------------------------------------------|
---------------------------------------------------------------|
---------------------------------------------------------------|
---------------------------------------------------------------|
-0--0--0---0---0-----0----0----0--0--0---0---0-----------------|
-0--0--0---0---0-----0----0----0--0--0---0---0--5-8~--7-10~----|
 *  *  *   *   *     *    *    *  *  *   *   *
R
---------------------------------------------------------------|
---------------------------------------------------------------|
---------------------------------------------------------------|
---------------------------------------------------------------|
-0--0--0---0---0-----0----0----0--0--0---0---0----5~------7~---|
-0--0--0---0---0-----0----0----0--0--0---0---0--8------10------|
 *  *  *   *   *     *    *    *  *  *   *   *

L
---------------------------------------------------------------|
---------------------------------------------------------------|
---------------------------------------------------------------|
---------------------------------------------------------------|
-0--0--0---0---0-----0----0----0--0--0---0---0-----------------|
-0--0--0---0---0-----0----0----0--0--0---0---0--5-8~--7-10~----|
 *  *  *   *   *     *    *    *  *  *   *   *
R
---------------------------------------------------------------|
---------------------------------------------------------------|
---------------------------------------------------------------|
---------------------------------------------------------------|
-0--0--0---0---0-----0----0----0--0--0---0---0----5~------7~---|
-0--0--0---0---0-----0----0----0--0--0---0---0--8------10------|
 *  *  *   *   *     *    *    *  *  *   *   *

L
---------------------------------------------------------------|
---------------------------------------------------------------|
---------------------------------------------------------------|
---------------------------------------------------------------|
-0--0--0---0---0-----0----0----0--0--0---0---0-----------------|
-0--0--0---0---0-----0----0----0--0--0---0---0--5-8~--7-10~----|
 *  *  *   *   *     *    *    *  *  *   *   *
R
---------------------------------------------------------------|
---------------------------------------------------------------|
---------------------------------------------------------------|
---------------------------------------------------------------|
-0--0--0---0---0-----0----0----0--0--0---0---0----5~------7~---|
-0--0--0---0---0-----0----0----0--0--0---0---0--8------10------|
 *  *  *   *   *     *    *    *  *  *   *   *


-------------------|
-------------------|
-------------------|
-------------------|
-0--0--0---0-------|
-0--0--0---0-------|
 *  *  *   *




|||||||||||||||||||||||||||||||||||||||||||||||||||||||||
|||||||||||||||||||||||||||||||||||||||||||||||||||||||||
|||||||||||||||||||||||||||||||||||||||||||||||||||||||||
|||||||||||||||||||||||||||||||||||||||||||||||||||||||||









SLEEPWALKER

A#-F-A#-D#-G-C


0:11

B
-------------------------------------------------------------------------|
-------------------------------------------------------------------------|
-------------------------------------------------------------------------|
-------------------------------------------------------------------------|
------------------------------7--7-8-------------------------------7--7-8|
0-0--0-8-12-0--0-8-12-0--7-10--10----0-0--0-8-12-0--0-8-12-0--7-10--10---|
   |         |         |                |         |         |
-------------------------------------------------------------------------|
-------------------------------------------------------------------------|
-------------------------------------------------------------------------|
-------------------------------------------------------------------------|
------------------------------7--7-8-------------------------------7--7-8|
0-0--0-8-12-0--0-8-12-0--7-10--10----0-0--0-8-12-0--0-8-12-0--7-10--10---|
   |         |         |                |         |         |


0:22

B
----------------------------------------------------------------------|
----------------------------------------------------------------------|
----------------------------------------------------------------------|
----------------------------------------------------------------------|
------------101010-------------121212-----888-888-777-888-777-555-333-|
000-000-000--------000-000-000--------000-----------------------------|
*** *** ***  * * * *** *** ***  * * * *** *** *** *** *** *** *** ***
----------------------------------------------------------------------|
----------------------------------------------------------------------|
----------------------------------------------------------------------|
----------------------------------------------------------------------|
------------101010-------------121212-----888-888-777-888-777-555-333-|
000-000-000--------000-000-000----------------------------------------|
*** *** ***  * * * *** *** ***  * * *     *** *** *** *** *** *** ***

----------------------------------------------------------------------|
----------------------------------------------------------------------|
----------------------------------------------------------------------|
----------------------------------------------------------------------|
------------101010-------------121212-----888-888-777-888-777-555-333-|
000-000-000--------000-000-000--------000-----------------------------|
*** *** ***  * * * *** *** ***  * * * *** *** *** *** *** *** *** ***
----------------------------------------------------------------------|
----------------------------------------------------------------------|
----------------------------------------------------------------------|
----------------------------------------------------------------------|
------------101010-------------121212-----888-888-777-888-777-555-333-|
000-000-000--------000-000-000----------------------------------------|
*** *** ***  * * * *** *** ***  * * *     *** *** *** *** *** *** ***


0:45

B
-------------------------------------------------------------------------|
-------------------------------------------------------------------------|
-------------------------------------------------------------------------|
-------------------------------------------------------------------------|
------------------------------7--7-8-------------------------------7--7-8|
0-0--0-8-12-0--0-8-12-0--7-10--10----0-0--0-8-12-0--0-8-12-0--7-10--10---|
   |         |         |                |         |         |
-------------------------------------------------------------------------|
-------------------------------------------------------------------------|
-------------------------------------------------------------------------|
-------------------------------------------------------------------------|
------------------------------7--7-8-------------------------------7--7-8|
0-0--0-8-12-0--0-8-12-0--7-10--10----0-0--0-8-12-0--0-8-12-0--7-10--10---|
   |         |         |                |         |         |


0:56
B
----------------------------------------------------------|
----------------------------------------------------------|
----------------------------------------------------------|
----------------------------------------------------------|
-12--0-0--0-0--0-0--0-0--0-0-12---0-0--0-0-55778--778810--|
-12\-0-0--0-0--0-0--0-0--0-0-12\--0-0--0-0----------------|
     * *  * *  * *  * *  * *      * *  * *

1:01

B
-------------------------------------------------------------|
-------------------------------------------------------------|
-------------------------------------------------------------|
-------------------------------------------------------------|
------------555-------------777-55778--778810-88101012--33557|
000-000-000-----000-000-000----------------------------------|
*** *** *** *** *** *** *** *** *****  **** * ** * * *  *****

-------------------------------------------------------------|
-------------------------------------------------------------|
-------------------------------------------------------------|
-------------------------------------------------------------|
------------777-------------888-55778--778810-88101012--33557|
000-000-000-----000-000-000----------------------------------|
*** *** *** *** *** *** *** *** *****  **** * ** * * *  *****




L
-------------------------------------------------------------|
-------------------------------------------------------------|
-------------------------------------------------------------|
-------------------------------------------------------------|
------------555-------------777-55778--778810-88101012--33557|
000-000-000-----000-000-000----------------------------------|
*** *** *** *** *** *** *** *** *****  **** * ** * * *  *****
R
---------------------------------------------------------------|
---------------------------------------------------------------|
---------------------------------------------------------------|
---------------------------------------------------------------|
------------888------------101010-55778--778810-88101012--33557|
000-000-000-----000-000-000------------------------------------|
*** *** *** *** *** *** *** ***   *****  **** * ** * * *  *****

L
-------------------------------------------------------------------------|
-------------------------------------------------------------------------|
-------------------------------------------------------------------------|
-------------------------------------------------------------------------|
-----------777------------888--121212-121212-101010-121212-101010-888-777|
000-000-000---000-000-000------------------------------------------------|
*** *** ********* *** *** ***   * * *  * * *  * * *  * * *  * * * *** ***
R
--------------------------------------------------------------------|
--------------------------------------------------------------------|
--------------------------------------------------------------------|
--------------------------------------------------------------------|
------------101010-------------121212----888-888-777-888-777-555-333|
000-000-000--------000-000-000--------------------------------------|
*** *** ***  * * * *** *** ***  * * *    *** *** *** *** *** *** ***



1:20


B
----------------------------------------------------------------------|
----------------------------------------------------------------------|
----------------------------------------------------------------------|
----------------------------------------------------------------------|
------------101010-------------121212-----888-888-777-888-777-555-333-|
000-000-000--------000-000-000--------000-----------------------------|
*** *** ***  * * * *** *** ***  * * * *** *** *** *** *** *** *** ***

L
-------------------------------------------------------------------------|
-------------------------------------------------------------------------|
-------------------------------------------------------------------------|
-------------------------------------------------------------------------|
-----------777------------888|-121212-121212-101010-121212-101010-888-777|
000-000-000---000-000-000------------------------------------------------|
*** *** ********* *** *** ***   * * *  * * *  * * *  * * *  * * * *** ***
R
--------------------------------------------------------------------|
--------------------------------------------------------------------|
--------------------------------------------------------------------|
--------------------------------------------------------------------|
------------101010-------------121212|---888-888-777-888-777-555-333|
000-000-000--------000-000-000--------------------------------------|
*** *** ***  * * * *** *** ***  * * *    *** *** *** *** *** *** ***


B
----------------------------------------------------------------------|
----------------------------------------------------------------------|
----------------------------------------------------------------------|
----------------------------------------------------------------------|
------------101010-------------121212-----888-888-777-888-777-555-333-|
000-000-000--------000-000-000--------000-----------------------------|
*** *** ***  * * * *** *** ***  * * * *** *** *** *** *** *** *** ***

L
-------------------------------------------------------------------------|
-------------------------------------------------------------------------|
-------------------------------------------------------------------------|
-------------------------------------------------------------------------|
-----------777------------888|-121212-121212-101010-121212-101010-888-777|
000-000-000---000-000-000------------------------------------------------|
*** *** ********* *** *** ***   * * *  * * *  * * *  * * *  * * * *** ***
R
--------------------------------------------------------------------|
--------------------------------------------------------------------|
--------------------------------------------------------------------|
--------------------------------------------------------------------|
------------101010-------------121212|---888-888-777-888-777-555-333|
000-000-000--------000-000-000--------------------------------------|
*** *** ***  * * * *** *** ***  * * *    *** *** *** *** *** *** ***


1:43

R          L           B
--------------------------------------------------|
--------------------------------------------------|
--------------------------------------------------|
--------------------------------------------------|
8--0-0-----7--0-0------8--0-0-0--7--0-0-0---0-0-0-|
7\-0-0----10\-0-0------7\-0-0-0-10\-0-0-0---0-0-0-|
   * *        * *         * * *     * * *   * * *
     S          S

B
---------------------------------------------------------------|
---------------------------------------------------------------|
---------------------------------------------------------------|
---------------------------------------------------------------|
8--0-0-0--7--0-0-0---0-0-0---0-0-0-8--0-0-0--7--0-0-0---0-0-0--|
7\-0-0-0-10\-0-0-0---0-0-0---0-0-0-7\-0-0-0-10\-0-0-0---0-0-0--|
   * * *     * * *   * * *   * * *    * * *     * * *   * * *


---------------------------------------------------------------|
---------------------------------------------------------------|
---------------------------------------------------------------|
---------------------------------------------------------------|
8--0-0-0--7--0-0-0---0-0-0---0-0-0-8--0-0-0--7--0-0-0---0-0-0--|
7\-0-0-0-10\-0-0-0---0-0-0---0-0-0-7\-0-0-0-10\-0-0-0---0-0-0--|
   * * *     * * *   * * *   * * *    * * *     * * *   * * *



2:16

L
-------------------------------------------------------------------------|
-------------------------------------------------------------------------|
-------------------------------------------------------------------------|
-------------------------------------------------------------------------|
------------------------------7--7-8-------------------------------7--7-8|
0-0--0-8-12-0--0-8-12-0--7-10--10----0-0--0-8-12-0--0-8-12-0--7-10--10---|
   |         |         |                |         |         |
R
---------------------------------------------------------------|
---------------------------------------------------------------|
---------------------------------------------------------------|
0--------------------------------------------------------------|
0--------------------------------------------------------------|
0--------------------------------------------------------------|


B
----------------------------------------------------------|
----------------------------------------------------------|
----------------------------------------------------------|
----------------------------------------------------------|
------------------------------7--7-8----------------------|
0-0--0-8-12-0--0-8-12-0--7-10--10----0-0--0-8-12-0--0-0-0-|
   |         |         |                |         |        

-------------------------------------------------------------------------|
-------------------------------------------------------------------------|
-------------------------------------------------------------------------|
-------------------------------------------------------------------------|
------------------------------7--7-8-------------------------------7--7-8|
0-0--0-8-12-0--0-8-12-0--7-10--10----0-0--0-8-12-0--0-8-12-0--7-10--10---|
   |         |         |                |         |         |
-------------------------------------------------------------------------|
-------------------------------------------------------------------------|
-------------------------------------------------------------------------|
-------------------------------------------------------------------------|
------------------------------7--7-8-------------------------------7--7-8|
0-0--0-8-12-0--0-8-12-0--7-10--10----0-0--0-8-12-0--0-8-12-0--7-10--10---|
   |         |         |                |         |         |

2:38

L
-------------------------------------------------------------------------|
-------------------------------------------------------------------------|
-------------------------------------------------------------------------|
-------------------------------------------------------------------------|
------------------------------7--7-8-------------------------------7--7-8|
0-0--0-8-12-0--0-8-12-0--7-10--10----0-0--0-8-12-0--0-8-12-0--7-10--10---|
   |         |         |                |         |         |
R
--------------------------------------------------------------------------|
--------------------------------------------------------------------------|
--------------------------------------------------------------------------|
--------------------------------------------------------------------------|
-----------------------------10--1012-----------------------------10--1012|
0-0-0-12-15-0-0-12-15-0-10-14--14----0-0-0-12-15-0-0-12-15-0-10-14--14----|
   |         |         |                |         |         |

L
----------------------------------------------------------|
----------------------------------------------------------|
----------------------------------------------------------|
----------------------------------------------------------|
------------------------------7--7-8----------------------|
0-0--0-8-12-0--0-8-12-0--7-10--10----0-0--0-8-12-0--0-0-0-|
   |         |         |                |         |      
R
----------------------------------------------------------|
----------------------------------------------------------|
----------------------------------------------------------|
----------------------------------------------------------|
-----------------------------10--1012---------------------|
0-0-0-12-15-0-0-12-15-0-10-14--14----0-0-0-12-15-0--0-0-0-|
   |         |         |                |         |  


2:48

L
----------------------------------------------------|
----------------------------------------------------|
-14--12-10--14---12-10----------14-15--12-14-10-7---|
--X---X--X---X----X--X-----------X--X---X--X--X-X---|
-12--10--8--12---10--8----------12/13--10/12--8\5---|
----------------------------------------------------|
R
----------------------------------------------------|
----------------------------------------------------|
10---9---7--10----9---7---------10-12--9-10-5-7-----|
-X---X---X---X----X---X----------X--X--X-X--X-X-----|
-8---7---5---8----7---5----------8/10--7/8--3/5-----|
----------------------------------------------------|

L
---------------------_____--------------------------|
--------------------/     \-------------------------|
-14---12-10-------14-15-14-12-14-12-10-7------------|
--X----X--X--------X--X--X--X--X--X--X-X------------|
-12---10--8-------12/13\12\10-12\10--8\5------------|
----------------------------------------------------|
R
--------------------____----------------------|
-------------------/    \---------------------|
10----9---7------10-1210-9-10-9-5-7-----------|
-X----X---X-------X--X-X-X--X-X-X-X-----------|
-8----7---5-------8/10\8\7--8\7-3/5-----------|
----------------------------------------------|




SOLO: +PREVIOUS RIFF CONTINUES  ON R 

L 
-----------------------------------|
-----------------------------------|
-14--12--10----------14--12--------|
-12--10--8-----------12--10--0-----|
-12--10--8-----------12--10--0-----|
-12--10--8-----------12--10--0-----|



             
 3:03                                        *MUTE AFTER EACH STRING
                                             BY UNPRESSING SLEIGHTLY 
                                             
----17-17----15----15-18----17----------17-----13--13------13--13------|
-15-------15----15-------15----15-18-20----20~---17--17------17--17----|
-------------------------------------------------------17----------14-\|
-----------------------------------------------------------------------|
-----------------------------------------------------------------------|
-----------------------------------------------------------------------|

              
3:10
                                               _____
--------------------------------------_____----)----(|
---------^---------------------------/     \--8------|
/14\12-14-12-|-/12|-10|-9|-/10-7~~--7\5/7\5/7--------|
-----------------------------------------------------|
-----------------------------------------------------|
-----------------------------------------------------|


3:16

                               __      )(         )(
----------------------__------/  \---17---15\13-15---|
-------------__------/  \---15-17-18-----------------|
----__------/  \---14-15-17--------------------------|
---/  \---14-15-17-----------------------------------|
-12-13-15--------------------------------------------|
-----------------------------------------------------|
                         

3:20
                                 __            __
  ^      ^      ^      ^        /  \          /  \
17-13--18-13--17-13--15-13----13-17-13------13-17-13------13-|
-----15-----15-----15-----15----------15--15--------15--15---|
----------------------------------------14------------14-----|
-------------------------------------------------------------|
-------------------------------------------------------------|
-------------------------------------------------------------|


      
3:23                                         
                              /\      /\      /\      /\
-17---17------17---17-------151715--131513--121312--101210---12-|
---15---15------15---15-----------17------15------13------13-13-|
----------14~----------14~--------------------------------------|
----------------------------------------------------------------|
----------------------------------------------------------------|
----------------------------------------------------------------|


3:30

L LET RING
-12-----12---------10-12-----------12-------|
---13-----13-------------13---10-----13-----|
-----10-----10--------------10--10----------|
--------------------------------------------|
--------------------------------------------|
--------------------------------------------|
R LET RING
-5------5-----------7-8----------8----------|
---5------5-------------10---8-----10-------|
-----7------7--------------9---9------------|
--------------------------------------------|
--------------------------------------------|
--------------------------------------------|

REPEATS/FADES






|||||||||||||||||||||||||||||||||||||||||||||||||||||||||
|||||||||||||||||||||||||||||||||||||||||||||||||||||||||
|||||||||||||||||||||||||||||||||||||||||||||||||||||||||
|||||||||||||||||||||||||||||||||||||||||||||||||||||||||








WRECKAGE

B-F#-B-E-G#-C#


L GT MUTE EACH STRING AFTER NOTES (4TH+5TH)(NO RING)
R GT LET RING

L
------------------------------------------------|
------------------------------------------------|
------------------------------------------------|
---------8-----------------------8--------------|
------12---12-----------------12---12-----------|
-0------------8----10----0------------8----10---|
R
------------------------------------------------|
------------------------------------------------|
---------10----------------------10-------------|
-------8----8------------------8----8-----------|
------------------------------------------------|
-0------------8----10----0------------8----10---|


L
------------------------------------------------|
------------------------------------------------|
------------------------------------------------|
---------8-----------------------8--------------|
------12---12-----------------12---12-----------|
-0------------8----10----0------------8----10---|
R
------------------------------------------------|
------------------------------------------------|
---------10----------------------10-------------|
-------8----8------------------8----8-----------|
------------------------------------------------|
-0------------8----10----0------------8----10---|


0:13

L
-----------------------------------------------------------------------|
-----------------------------------------------------------------------|
-----------------------------------------------------------------------|
---------8-----------8---------8------------8-----------8---------8----|
------12---12-----12---12--------12------12---12-----12---12--------12-|
-0------------8-----------10--------0------------8-----------10--------|

R
-----------------------------------------------------------------------|
-----------------------------------------------------------------------|
---------10----------10-------10-10---------10----------10-------10-10-|
-------8----8------8----8-----------------8----8------8----8-----------|
-----------------------------------------------------------------------|
-0-------------0-----------10-------0------------8-----------10--------|


L
-----------------------------------------------------------------------|
-----------------------------------------------------------------------|
-----------------------------------------------------------------------|
---------8-----------8---------8------------8-----------8---------8----|
------12---12-----12---12--------12------12---12-----12---12--------12-|
-0------------8-----------10--------0------------8-----------10--------|

R
-----------------------------------------------------------------------|
-----------------------------------------------------------------------|
---------10----------10-------10-10---------10----------10-------10-10-|
-------8----8------8----8-----------------8----8------8----8-----------|
-----------------------------------------------------------------------|
-0-------------0-----------10-------0------------8-----------10--------|



0:28

----------------------------------------------------------------------|
----------------------------------------------------------------------|
----------------------------------------------------------------------|
---------3------------3--------3------------3------------3--------3---|
-0-----7---7--3-----7---7--5-----7--0-----7---7--3-----7---7--5-----7-|
-0------------3------------5--------0------------3------------5-------|

---------------------------------------------------------------|
---------------------------------------------------------------|
---------------------------------------------------------------|
---------3------------3--------3------------3------------3-----|
-0-----7---7--3-----7---7--5-----7--0-----7---7--3-----7---7---|
-0------------3------------5--------0------------3-------------|



0:41

--------------------------------------------------------------|
--------------------------------------------------------------|
--------------------------------------------------------------|
--------------------------------------------------------------|
---------5---------3---5-----------------5---------5---3------|
-0-5-8-7-7-0-0-0-0-5-0-7-0-0-0-0-0-5-8-7-7-0-0-0-0-7-0-5------|
           * * * *   *   * * * *           * * * *   *

----------------------------------------------------------------|
----------------------------------------------------------------|
----------------------------------------------------------------|
----------------------------------------------------------------|
---------5---------3---3---5-5-----------5---------5---3---3-7--|
-0-5-8-7-7-0-0-0-0-5-0-5-0-7-7-0-0-5-8-7-7-0-0-0-0-7-0-5---5-9--|
           * * * *   *   *     *           * * * *   *

-----------------------------------------------------|
-----------------------------------------------------|
-----------------------------------------------------|
-----------------------------------------------------|
--5---------3---5-----------------5---------5---3----|
--7-0-0-0-0-5-0-7-0-0-0-0-0-5-8-7-7-0-0-0-0-7-0-5----|
    * * * *   *   * * * *           * * * *   *

----------------------------------------------------------------|
----------------------------------------------------------------|
----------------------------------------------------------------|
----------------------------------------------------------------|
---------5---------3---3---5-5-----------5---------5---3--------|
-0-5-8-7-7-0-0-0-0-5-0-5-0-7-7-0-0-5-8-7-7-0-0-0-0-7-0-5---15\--|
           * * * *   *   *     *           * * * *   *


1:09

----------------------------------------------------------------------|
----------------------------------------------------------------------|
----------------------------------------------------------------------|
---------3------------3--------3------------3------------3--------3---|
-0-----7---7--3-----7---7--5-----7--0-----7---7--3-----7---7--5-----7-|
-0------------3------------5--------0------------3------------5-------|

----------------------------------------------------------------------|
----------------------------------------------------------------------|
----------------------------------------------------------------------|
---------3------------3--------3------------3------------3--------3---|
-0-----7---7--3-----7---7--5-----7--0-----7---7--3-----7---7--5-----7-|
-0------------3------------5--------0------------3------------5-------|



1:23
L
------------------------------------------------------------|
------------------------------------------------------------|
------------------------------------------------------------|
---------8------------------------------8-------------------|
------12---12------------------------12---12----------------|
0-0-0----------8---0-0-0-10~---0-0-0----------8---0-0-0-10~-|
* * *              * * *       * * *              * * *
R
------------------------------------------------------------|
------------------------------------------------------------|
---------10-----------------------------10------------------|
-------8----8-------------------------8----8----------------|
------------------------------------------------------------|
0-0-0----------8---0-0-0-10~---0-0-0----------8---0-0-0-10~-|
* * *              * * *       * * *              * * *

L
------------------------------------------------------------|
------------------------------------------------------------|
------------------------------------------------------------|
---------8------------------------------8-------------------|
------12---12------------------------12---12----------------|
0-0-0----------8---0-0-0-10~---0-0-0----------8---0-0-0-10~\|
* * *              * * *       * * *              * * *
R
------------------------------------------------------------|
------------------------------------------------------------|
---------10-----------------------------10------------------|
-------8----8-------------------------8----8----------------|
------------------------------------------------------------|
0-0-0----------8---0-0-0-10~---0-0-0----------8---0-0-0-10~\|
* * *              * * *       * * *              * * *


1;36

----------------------------------------------------------------|
----------------------------------------------------------------|
----------------------------------------------------------------|
----------------------------------------------------------------|
----------------------------------------------------------------|
2-2-2-2-2-2-2-2-2-2-2-2-2-2-2-2-2-2-2-2-2-2-2-2-2-2-2-2-2-2-2-2-|


----------------------------------------------------------------|
----------------------------------------------------------------|
----------------------------------------------------------------|
----------------------------------------------------------------|
3-3-3-3-3-3-3-3-3-3-3-3-3-3-3-3-5-5-5-5-5-5-5-5-5-5-5-5-5-5-5-5-|
----------------------------------------------------------------|


----------------------------------------------------------------|
----------------------------------------------------------------|
----------------------------------------------------------------|
----------------------------------------------------------------|
----------------------------------------------------------------|
2-2-2-2-2-2-2-2-2-2-2-2-2-2-2-2-2-2-2-2-2-2-2-2-2-2-2-2-2-2-2-2-|


-------------------------------------------------------------|
-------------------------------------------------------------|
-------------------------------------------------------------|
-------------------------------------------------------------|
3-3-3-3-3-3-3-3-3-3-3-3-3-3-3-3-5-5-5-5---5-5-5-5---5\-------|
-------------------------------------------------------0-----|
                                * * * *   * * * *      *


1:50

MELODY
  ___________________________________________________________
-/                                                           \--|
7-0-5-0-5-0-7-0-5-0-5-0-7-0-5-0-8-0-5-0-5-0-8-0-5-0-5-0-8-0-5-0-|
----------------------------------------------------------------|
----------------------------------------------------------------|
----------------------------------------------------------------|
----------------------------------------------------------------|
CONT
   __________________________________
--/                                  \--|
12-8-12-8-12-8-12-8-12-8-12-8-12-8-12-8-|
-T----T----T----T----T----T----T----T---|
----------------------------------------|
----------------------------------------|
----------------------------------------|
CONT
   __________________________________
--/                                  \--|
10-8-10-8-10-8-10-8-10-8-10-8-10-8-10-8-|
-T----T----T----T----T----T----T----T---|
----------------------------------------|
----------------------------------------|
----------------------------------------|

RYTHM        
-------------------------------------------|
-------------------------------------------|
-------------------------------------------|
-------------5-5-5------------------7-7-7--|
-3-3-3-3-3-3-3-3-3------5-5-5-5-5-5-5-5-5--|
-------------------------------------------|
 * * * * * *            * * * * * *


1:56

+PREVIOUS MELODY 7\5
MELODY
  _________________________________________________________________
-/                                                                 \--|
10-0-8-0-8-0-10-0-8-0-8-0-10-0-8-0-12-0-8-0-8-0-12-0-8-0-8-0-12-0-8-0-|
----------------------------------------------------------------------|
----------------------------------------------------------------------|
----------------------------------------------------------------------|
----------------------------------------------------------------------|
CONT
   __________________________________
--/                                  \--|
12-8-12-8-12-8-12-8-12-8-12-8-12-8-12-8-|
-T----T----T----T----T----T----T----T---|
----------------------------------------|
----------------------------------------|
----------------------------------------|
CONT
   __________________________________
--/                                  \--|
10-8-10-8-10-8-10-8-10-8-10-8-10-8-10-8-|
-T----T----T----T----T----T----T----T---|
----------------------------------------|
----------------------------------------|
----------------------------------------|
RYTHM
R--------------------------L--------------------|
------------------------------------------------|
------------------------------------------------|
------------------------------------------------|
------------------------------------------------|
-2-2-2-2---2-2-2-2---------2-2-2-2---2-2-2-2----|
 * * * *   * * * *         * * * *   * * * * 
CONT.
-------------------------------------------|
-------------------------------------------|
-------------------------------------------|
-------------5-5-5------------------7-7-7--|
-3-3-3-3-3-3-3-3-3------5-5-5-5-5-5-5-5-5--|
-------------------------------------------|
 * * * * * *            * * * * * *


+PREVIOUS MELODY 7\5
MELODY
  _________________________________________________________________
-/                                                                 \--|
10-0-8-0-8-0-10-0-8-0-8-0-10-0-8-0-12-0-8-0-8-0-12-0-8-0-8-0-12-0-8-0-|
----------------------------------------------------------------------|
----------------------------------------------------------------------|
----------------------------------------------------------------------|
----------------------------------------------------------------------|
CONT
   __________________________________
--/                                  \--|
12-8-12-8-12-8-12-8-12-8-12-8-12-8-12-8-|
-T----T----T----T----T----T----T----T---|
----------------------------------------|
----------------------------------------|
----------------------------------------|
CONT
   __________________________________
--/                                  \--|
10-8-10-8-10-8-10-8-10-8-10-8-10-8-10-8-|
-T----T----T----T----T----T----T----T---|
----------------------------------------|
----------------------------------------|
----------------------------------------|
RYTHM
-----------------------------------------------------------|
-----------------------------------------------------------|
-----------------------------------------------------------|
-----------------------------------------------------------|
-----------------------------------------------------------|
-2-2-2-2---2-2-2-2---2-2-2-2--2-2-2-2---2-2-2-2---2-2-2-2--|
 * * * *   * * * *   * * * *  * * * *   * * * *   * * * *
CONT.
----------------------------------------------------------------|
----------------------------------------------------------------|
----------------------------------------------------------------|
----------------------------------------------------------------|
3-3-3-3-3-3-3-3-3-3-3-3-3-3-3-3-5-5-5-5-5-5-5-5-5-5-5-5-5-5-5-5-|
----------------------------------------------------------------|
* * * * * * * * * * * * * * * * * * * * * * * * * * * * * * * * 



+PREVIOUS MELODY 7\5
MELODY
  _________________________________________________________________
-/                                                                 \--|
10-0-8-0-8-0-10-0-8-0-8-0-10-0-8-0-12-0-8-0-8-0-12-0-8-0-8-0-12-0-8-0-|
----------------------------------------------------------------------|
----------------------------------------------------------------------|
----------------------------------------------------------------------|
----------------------------------------------------------------------|
CONT__      ___      __
   )  \     )  \    /  \        ) (   )
-18-17----18-17---17-19-17----18----18---|
------20-------20---------20-------------|
-----------------------------------------|
-----------------------------------------|
-----------------------------------------|
-----------------------------------------|
  
RYTHM
-----------------------------------------------------------|
-----------------------------------------------------------|
-----------------------------------------------------------|
-----------------------------------------------------------|
-----------------------------------------------------------|
-2-2-2-2---2-2-2-2---2-2-2-2--2-2-2-2---2-2-2-2---2-2-2-2--|
 * * * *   * * * *   * * * *  * * * *   * * * *   * * * *
CONT.
-----------------------------------------------------------|
-----------------------------------------------------------|
-----------------------------------------------------------|
-----------------------------------------------------------|
3-3-3-3-3-3-3-3-3-3-3-3-3-3-3-3-5-5-5-5---5-5-5-5----------|
---------------------------------------------------15\-----|
                                * * * *   * * * *     


2:16

----------------------------------------------------------------------|
----------------------------------------------------------------------|
----------------------------------------------------------------------|
---------3------------3--------3------------3------------3--------3---|
-0-----7---7--3-----7---7--5-----7--0-----7---7--3-----7---7--5-----7-|
-0------------3------------5--------0------------3------------5-------|

----------------------------------------------------------------------|
----------------------------------------------------------------------|
----------------------------------------------------------------------|
---------3------------3--------3------------3------------3--------3---|
-0-----7---7--3-----7---7--5-----7--0-----7---7--3-----7---7--5-----7-|
-0------------3------------5--------0------------3------------5-------|


--------------------------------------------------------------------|
--------------------------------------------------------------------|
--------------------------------------------------------------------|
-0------------------------------------------------------------------|
-0--------------------------0---------------------------0-0-0--0-0--|
-0--------------------------0---------------------------0-0-0--0-0--|
                                                        * * *  * *

2:43

R
1  _____
--/     \------_________________------------------|
17-10-13-12---/                 \------_____------|
-T----------16-12-14-12-14-16-14-12---/     \-----|
-------------T--------------T-------17-14-10-12---|
-------------------------------------T------------|
--------------------------------------------------|
CONT
1  _____
--/     \------_________________------------------|
17-10-13-12---/                 \------_____------|
-T----------16-12-14-12-14-16-14-12---/     \-----|
-------------T--------------T-------17-14-10-12---|
-------------------------------------T------------|
--------------------------------------------------|
2
----------------------------------------------------------------------|
----------------------------------------------------------------------|
----------------------------------------------------------------------|
---------3------------3--------3------------3------------3--------3---|
-0-----7---7--3-----7---7--5-----7--0-----7---7--3-----7---7--5-----7-|
-0------------3------------5--------0------------3------------5-------|

R
1  _____
--/     \------_________________------------------|
17-10-13-12---/                 \------_____------|
-T----------16-12-14-12-14-16-14-12---/     \-----|
-------------T--------------T-------17-14-10-12---|
-------------------------------------T------------|
--------------------------------------------------|
CONT
1  _____
--/     \------_________________------------------|
17-10-13-12---/                 \------_____------|
-T----------16-12-14-12-14-16-14-12---/     \-----|
-------------T--------------T-------17-14-10-12---|
-------------------------------------T------------|
--------------------------------------------------|
2
----------------------------------------------------------------------|
----------------------------------------------------------------------|
----------------------------------------------------------------------|
---------3------------3--------3------------3------------3--------3---|
-0-----7---7--3-----7---7--5-----7--0-----7---7--3-----7---7--5-----7-|
-0------------3------------5--------0------------3------------5-------|

R
1  _____
--/     \------_________________------------------|
17-10-13-12---/                 \------_____------|
-T----------16-12-14-12-14-16-14-12---/     \-----|
-------------T--------------T-------17-14-10-12---|
-------------------------------------T------------|
--------------------------------------------------|
CONT
1  _____
--/     \------_________________------------------|
17-10-13-12---/                 \------_____------|
-T----------16-12-14-12-14-16-14-12---/     \-----|
-------------T--------------T-------17-14-10-12---|
-------------------------------------T------------|
--------------------------------------------------|
2
----------------------------------------------------------------------|
----------------------------------------------------------------------|
----------------------------------------------------------------------|
---------3------------3--------3------------3------------3--------3---|
-0-----7---7--3-----7---7--5-----7--0-----7---7--3-----7---7--5-----7-|
-0------------3------------5--------0------------3------------5-------|

R
1  _____
--/     \------_________________------------------|
17-10-13-12---/                 \------_____------|
-T----------16-12-14-12-14-16-14-12---/     \-----|
-------------T--------------T-------17-14-10-12---|
-------------------------------------T------------|
--------------------------------------------------|
CONT
1  _____
--/     \------_________________------------------|
17-10-13-12---/                 \------_____------|
-T----------16-12-14-12-14-16-14-12---/     \-----|
-------------T--------------T-------17-14-10-12---|
-------------------------------------T------------|
--------------------------------------------------|
2
----------------------------------------------------------------------|
----------------------------------------------------------------------|
----------------------------------------------------------------------|
---------3------------3--------3------------3------------3--------3---|
-0-----7---7--3-----7---7--5-----7--0-----7---7--3-----7---7--5-----7-|
-0------------3------------5--------0------------3------------5-------|


1  _____
--/     \------_________________------------------|
17-10-13-12---/                 \------_____------|
-T----------16-12-14-12-14-16-14-12---/     \-----|
-------------T--------------T-------17-14-10-12---|
-------------------------------------T------------|
--------------------------------------------------|
2
---------------------------------------------------------------|
---------------------------------------------------------------|
---------------------------------------------------------------|
-0-------------------------------------------------------------|
-0-------------------------------------------------------------|
-0-------------------------------------------------------------|



CONT
1  _____
--/     \------_________________------------------|
17-10-13-12---/                 \------_____------|
-T----------16-12-14-12-14-16-14-12---/     \-----|
-------------T--------------T-------17-14-10-12---|
-------------------------------------T------------|
--------------------------------------------------|
   _____
--/     \------_________________------------------|
17-10-13-12---/                 \------_____------|
-T----------16-12-14-12-14-16-14-12---/     \-----|
-------------T--------------T-------17-14-10-12---|
-------------------------------------T------------|
--------------------------------------------------|

   _____
--/     \------________---------------------|
17-10-13-12---/        \--------------------|
-T----------16-12-14-12-14------------------|
-------------T------------------------------|
--------------------------------------------|
--------------------------------------------|







|||||||||||||||||||||||||||||||||||||||||||||||||||||||||
|||||||||||||||||||||||||||||||||||||||||||||||||||||||||
|||||||||||||||||||||||||||||||||||||||||||||||||||||||||
|||||||||||||||||||||||||||||||||||||||||||||||||||||||||








DEADWEIGHT 

A#-F-A#-D#-G-C

-------------------------------------------------|
-------------------------------------------------|
-------------------------------------------------|
---^-----^-----^-----^-----^---------------------|
-12-5--12-5--12-5--12-5--12-5----^-----^-----^---|
-------------------------------12-5--12-5--12-5--|
  T     T     T     T     T     T     T     T 

---------------------------------------------------|
---------------------------------------------------|
---------------------------------------------------|
---^-----^-----^-----^-----^-----------------------|
-15-8--15-8--15-8--15-8--15-8----^-----^-----^-----|
-------------------------------15-8--15-8--15-8----|
  T     T     T     T     T     T     T     T 



-------------------------------------------------|
-------------------------------------------------|
-------------------------------------------------|
---^-----^-----^-----^-----^---------------------|
-12-5--12-5--12-5--12-5--12-5----^-----^-----^---|
-------------------------------12-5--12-5--12-5--|
  T     T     T     T     T     T     T     T 

---------------------------------------------------|
---------------------------------------------------|
---------------------------------------------------|
---^-----^-----^-----^-----^-----------------------|
-15-8--15-8--15-8--15-8--15-8----^-----^-----^-----|
-------------------------------15-8--15-8--15-8----|
  T     T     T     T     T     T     T     T 



1
-------------------------------------------------|
-------------------------------------------------|
-------------------------------------------------|
---^-----^-----^-----^-----^---------------------|
-12-5--12-5--12-5--12-5--12-5----^-----^-----^---|
-------------------------------12-5--12-5--12-5--|
  T     T     T     T     T     T     T     T 
2
-------------------------------------------------|
-------------------------------------------------|
-------------------------------------------------|
-0-----------------------------------------------|
-0-----------------------------------------------|
-0-----------------------------------------------|

1
---------------------------------------------------|
---------------------------------------------------|
---------------------------------------------------|
---^-----^-----^-----^-----^-----------------------|
-15-8--15-8--15-8--15-8--15-8----^-----^-----^-----|
-------------------------------15-8--15-8--15-8----|
  T     T     T     T     T     T     T     T 
2
---------------------------------------------------|
---------------------------------------------------|
---------------------------------------------------|
(0)------------------------------------------------|
(0)------------------------------------------------|
(0)------------------------------------------------|

1
-------------------------------------------------|
-------------------------------------------------|
-------------------------------------------------|
---^-----^-----^-----^-----^---------------------|
-12-5--12-5--12-5--12-5--12-5----^-----^-----^---|
-------------------------------12-5--12-5--12-5--|
  T     T     T     T     T     T     T     T 
2
---------------------------------------------------|
---------------------------------------------------|
---------------------------------------------------|
(0)------------------------------------------------|
(0)------------------------------------------------|
(0)------------------------------------------------|

1
----------------------------------|
----------------------------------|
----------------------------------|
---^-----^-----^-----^-----^------|
-15-8--15-8--15-8--15-8--15-8-----|
----------------------------------|
  T     T     T     T     T     
2
---------------------------------|
---------------------------------|
---------------------------------|
(0)-----------------------0------|
(0)-----------------------0------|
(0)-----------------------0------|
                            | 


1
-------------------------------------------------|
-------------------------------------------------|
-------------------------------------------------|
---^-----^-----^-----^-----^---------------------|
-12-5--12-5--12-5--12-5--12-5----^-----^-----^---|
-------------------------------12-5--12-5--12-5--|
  T     T     T     T     T     T     T     T 
2
-------------------------------------------------|
-------------------------------------------------|
-------------------------------------------------|
-0-----------------------------------------------|
-0-----------------------------------------------|
-0-----------------------------------------------|

1
---------------------------------------------------|
---------------------------------------------------|
---------------------------------------------------|
---^-----^-----^-----^-----^-----------------------|
-15-8--15-8--15-8--15-8--15-8----^-----^-----^-----|
-------------------------------15-8--15-8--15-8----|
  T     T     T     T     T     T     T     T 
2
-------------------------------------------------|
-------------------------------------------------|
-------------------------------------------------|
-8-----------------------------------------------|
-8-----------------------------------------------|
-8-----------------------------------------------|


1
-------------------------------------------------|
-------------------------------------------------|
-------------------------------------------------|
---^-----^-----^-----^-----^---------------------|
-12-5--12-5--12-5--12-5--12-5----^-----^-----^---|
-------------------------------12-5--12-5--12-5--|
  T     T     T     T     T     T     T     T 
2
-------------------------------------------------|
-------------------------------------------------|
-------------------------------------------------|
-10----------------------------------------------|
-10----------------------------------------------|
-10----------------------------------------------|

1
---------------------------------------------------|
---------------------------------------------------|
---------------------------------------------------|
---^-----^-----^-----^-----^-----------------------|
-15-8--15-8--15-8--15-8--15-8----^-----^-----^-----|
-------------------------------15-8--15-8--15-8----|
  T     T     T     T     T     T     T     T 
2
-------------------------------------------------|
-------------------------------------------------|
-------------------------------------------------|
-3-----------------------------------------------|
-3-----------------------------------------------|
-3-----------------------------------------------|




1
-------------------------------------------------|
-------------------------------------------------|
-------------------------------------------------|
---^-----^-----^-----^-----^---------------------|
-12-5--12-5--12-5--12-5--12-5----^-----^-----^---|
-------------------------------12-5--12-5--12-5--|
  T     T     T     T     T     T     T     T 
2
-------------------------------------------------|
-------------------------------------------------|
-------------------------------------------------|
-0-----------------------------------------------|
-0-----------------------------------------------|
-0-----------------------------------------------|
3
-------------------------------------------------|
-------------------------------------------------|
--------10-9-10----------------------------------|
-P-------X-X--X----------------------------------|
--S------8-7--8----------------------------------|
---\---------------------------------------------|




1
---------------------------------------------------|
---------------------------------------------------|
---------------------------------------------------|
---^-----^-----^-----^-----^-----------------------|
-15-8--15-8--15-8--15-8--15-8----^-----^-----^-----|
-------------------------------15-8--15-8--15-8----|
  T     T     T     T     T     T     T     T 
2
-------------------------------------------------|
-------------------------------------------------|
-------------------------------------------------|
-8-8-8-8-----------------------------------------|
-8-8-8-8-----------------------------------------|
-8-8-8-8-----------------------------------------|
3
-------------------------------------------------|
-------------------------------------------------|
-10-------10-9-10--------------------------------|
--X-------X-X--X---------------------------------|
--8-------8-7--8---------------------------------|
-------------------------------------------------|


1
-------------------------------------------------|
-------------------------------------------------|
-------------------------------------------------|
---^-----^-----^-----^-----^---------------------|
-12-5--12-5--12-5--12-5--12-5----^-----^-----^---|
-------------------------------12-5--12-5--12-5--|
  T     T     T     T     T     T     T     T 
2
-------------------------------------------------|
-------------------------------------------------|
-------------------------------------------------|
-10-10-10-10-------------------------------------|
-10-10-10-10-------------------------------------|
-10-10-10-10-------------------------------------|
3
-------------------------------------------------|
-------------------------------------------------|
----10-10--12-10--12-----------------------------|
-----X--X---X--X---X-----------------------------|
-----8--8--10--8--10-----------------------------|
-------------------------------------------------|


1
---------------------------------------------------|
---------------------------------------------------|
---------------------------------------------------|
---^-----^-----^-----^-----^-----------------------|
-15-8--15-8--15-8--15-8--15-8----^-----^-----^-----|
-------------------------------15-8--15-8--15-8----|
  T     T     T     T     T     T     T     T 
2
-------------------------------------------------|
-------------------------------------------------|
-------------------------------------------------|
-3-----------------------------------------------|
-3-----------------------------------------------|
-3-----------------------------------------------|
3
-------------------------------------------------|
-------------------------------------------------|
-----10--10--9--5--------------------------------|
------X---X--X--X--------------------------------|
------8---8--7--3--------------------------------|
-------------------------------------------------|




B
--------------------------------|
--------------------------------|
--------------------------------|
--------------------------------|
-5------------7-----8-7----7----|
---8--8--8--8---10------10------|



0:35

R
--------------------------------------------|
--------------------------------------------|
---------------------------__---------------|
--------------------------/  \--------------|
-12--8888-10--7777-8--55-7-10-7-------------|
--------------------------------00000-0-000-|
     ****     ****    **        ***** * ***


L
----------------------------------------|
----------------------------------------|
----------------------------------------|
----------------------------------------|
-------------------------5--------------|
---------------------------8--8--8--8---|

R
----------------------------------------|
----------------------------------------|
----------------------------------------|
----------------------------------------|
12--8888-10--7777-8--55--5--------------|
---------------------------8--8--8--8---|
    ****     ****    **        


L
---------------------------------------------------------------------|
---------------------------------------------------------------------|
--------------------------__-----------------------------------------|
-------------------------/  \----------------------------------------|
12--8888-10--7777-8--55-7-10-7-------------8-----------10---12-10--10|
-------------------------------00000-0-000--12-12-12-12--14------14--|
    ****     ****    **        ***** * ***
R
--------------------------------------------------------------------|
--------------------------------------------------------------------|
--------------------------__----------------------------------------|
-------------------------/  \---------------------------------------|
12--8888-10--7777-8--55-7-10-7--------------5-----------7----8-7---7|
-------------------------------00000-0-000---8--8--8--8--10-----10--|
    ****     ****    **        ***** * ***



0:46

B
--------------------------------------------|
--------------------------------------------|
---------------------------__---------------|
--------------------------/  \--------------|
-12--8888-10--7777-8--55-7-10-7-------------|
--------------------------------00000-0-000-|
     ****     ****    **        ***** * ***

----------------------------------------|
----------------------------------------|
----------------------------------------|
----------------------------------------|
12--8888-10--7777-8--55--5--------------|
---------------------------8--8--8--8---|
    ****     ****    **        

--------------------------------------------------------------------|
--------------------------------------------------------------------|
--------------------------__----------------------------------------|
-------------------------/  \---------------------------------------|
12--8888-10--7777-8--55-7-10-7--------------5-----------7----8-7---7|
-------------------------------00000-0-000---8--8--8--8--10-----10--|
    ****     ****    **        ***** * ***

--------------------------------------------|
--------------------------------------------|
---------------------------__---------------|
--------------------------/  \--------------|
-12--8888-10--7777-8--55-7-10-7-------------|
--------------------------------00000-0-000-|
     ****     ****    **        ***** * ***

----------------------------------------|
----------------------------------------|
----------------------------------------|
----------------------------------------|
12--8888-10--7777-8--55--5--------------|
---------------------------8--8--8--8---|
    ****     ****    **        


L
---------------------------------------------------------------------|
---------------------------------------------------------------------|
--------------------------__-----------------------------------------|
-------------------------/  \----------------------------------------|
12--8888-10--7777-8--55-7-10-7-------------8-----------10---12-10--10|
-------------------------------00000-0-000--12-12-12-12--14------14--|
    ****     ****    **        ***** * ***
R
--------------------------------------------------------------------|
--------------------------------------------------------------------|
--------------------------__----------------------------------------|
-------------------------/  \---------------------------------------|
12--8888-10--7777-8--55-7-10-7--------------5-----------7----8-7---7|
-------------------------------00000-0-000---8--8--8--8--10-----10--|
    ****     ****    **        ***** * ***



1;05

---------------------------------------------------------------------|
---------------------------------------------------------------------|
-------5------------------7-------------------------------------/\---|
-------X------------------X--------------7--8--7-----7--10--7--5757--|
-------3------------------5------------------------------------------|
-0--0------0--0--0---0--0----0--0--0--8-----------10-----------------|
 *            *         *       *

---------------------------------------------------------------------|
---------------------------------------------------------------------|
-------5------------------7-------------------------------------/\---|
-------X------------------X--------------7--8--7-----7--10--7--5757--|
-------3------------------5------------------------------------------|
-0--0------0--0--0---0--0----0--0--0--8-----------10-----------------|
 *            *         *       *

---------------------------------------------------------------------|
---------------------------------------------------------------------|
-------5------------------7-------------------------------------/\---|
-------X------------------X--------------7--8--7-----7--10--7--5757--|
-------3------------------5------------------------------------------|
-0--0------0--0--0---0--0----0--0--0--8-----------10-----------------|
 *            *         *       *

---------------------------------------------------------------------|
---------------------------------------------------------------------|
-------5------------------7-------------------------------------/\---|
-------X------------------X--------------7--8--7-----7--10--7--5757--|
-------3------------------5------------------------------------------|
-0--0------0--0--0---0--0----0--0--0--8-----------10-----------------|
 *            *         *       *



--------------------------------------------|
--------------------------------------------|
---------------------------__---------------|
--------------------------/  \--------------|
-12--8888-10--7777-8--55-7-10-7-------------|
--------------------------------00000-0-000-|
     ****     ****    **        ***** * ***

----------------------------------------|
----------------------------------------|
----------------------------------------|
----------------------------------------|
12--8888-10--7777-8--55--5--------------|
---------------------------8--8--8--8---|
    ****     ****    **        


L
---------------------------------------------------------------------|
---------------------------------------------------------------------|
--------------------------__-----------------------------------------|
-------------------------/  \----------------------------------------|
12--8888-10--7777-8--55-7-10-7-------------8-----------10---12-10--10|
-------------------------------00000-0-000--12-12-12-12--14------14--|
    ****     ****    **        ***** * ***
R
--------------------------------------------------------------------|
--------------------------------------------------------------------|
--------------------------__----------------------------------------|
-------------------------/  \---------------------------------------|
12--8888-10--7777-8--55-7-10-7--------------5-----------7----8-7---7|
-------------------------------00000-0-000---8--8--8--8--10-----10--|
    ****     ****    **        ***** * ***


1;37

B
-------------------------------------------------------|
-------------------------------------------------------|
-------------------------------------------------------|
-0-0--0--0--0-0-0--0--0--0-0-0--0--0--0----------------|
-0-0--0--0--0-0-0--0--0--0-0-0--0--0--0--5-------------|
-0-0--0--0--0-0-0--0--0--0-0-0--0--0--0----8--8--8--8--|
 * *  *  *  * * *  *  *  * * *  *  *  * 

-------------------------------------------------------|
-------------------------------------------------------|
-------------------------------------------------------|
-0-0--0--0--0-0-0--0--0--0-0-0--0--0--0----------------|
-0-0--0--0--0-0-0--0--0--0-0-0--0--0--0--7----8-7----7-|
-0-0--0--0--0-0-0--0--0--0-0-0--0--0--0----10-----10---|
 * *  *  *  * * *  *  *  * * *  *  *  * 


-------------------------------------------------------|
-------------------------------------------------------|
-------------------------------------------------------|
-0-------------------------0-------------------------0-|
-0-------------------------0-------------------------0-|
-0-------------------------0-------------------------0-|
                                                     *|


1:57

-----------------------------------------------------------|
-----------------------------------------------------------|
-----------------------------------------------------------|
-7---0-0-0--8---1-1-1--1-1-1--7---0-0-0--8---1-1-1--1-1-1--|
-5\--0-0-0--6\--0-0-0--0-0-0--5\--0-0-0--6\--0-0-0--0-0-0--|
-----0-0-0------1-1-1--1-1-1------0-0-0------1-1-1--1-1-1--|
     * * *      * * *  * * *      * * *      * * *  * * *  

-----------------------------------------------------------|
-----------------------------------------------------------|
-----------------------------------------------------------|
-7---0-0-0--8---1-1-1--1-1-1--7---0-0-0--8---1-1-1--1-1-1--|
-5\--0-0-0--6\--0-0-0--0-0-0--5\--0-0-0--6\--0-0-0--0-0-0--|
-----0-0-0------1-1-1--1-1-1------0-0-0------1-1-1--1-1-1--|
     * * *      * * *  * * *      * * *      * * *  * * *  

----------------------------|
----------------------------|
----------------------------|
----------------------------|
-0--0-0-0--0----000-0-------|
-3--3-3-3--3----333-3-3~~---|
 *  * * *  *    *** *

-----------------------------------------------------------|
-----------------------------------------------------------|
-----------------------------------------------------------|
-7---0-0-0--8---1-1-1--1-1-1--7---0-0-0--8---1-1-1--1-1-1--|
-5\--0-0-0--6\--0-0-0--0-0-0--5\--0-0-0--6\--0-0-0--0-0-0--|
-----0-0-0------1-1-1--1-1-1------0-0-0------1-1-1--1-1-1--|
     * * *      * * *  * * *      * * *      * * *  * * *  

                                              R, L PLAYS 8,10 PWR CHRDS
-----------------------------------------------------------------------|
-----------------------------------------------------------------------|
-------------------------------------------------------------------/\--|
--------------------------0-0--0--0--0-0--0--0----7-8-7----7-10-7-5757-|
-0--0-0-0--0----000-0-----0-0--0--0--0-0--0--0-------------------------|
-3--3-3-3--3----333-3-3~~-0-0--0--0--0-0--0--0--8-------10-------------|
 *  * * *  *    *** *     * *  *  *  * *  *  *    


              L PLAYS   8X10 THOUGHOUT
                          |
---------------------------------------------------------------------|
---------------------------------------------------------------------|
-------5------------------7-------------------------------------/\---|
-------X------------------X--------------7--8--7-----7--10--7--5757--|
-------3------------------5------------------------------------------|
-0--0------0--0--0---0--0----0--0--0--8-----------10-----------------|
 *            *         *       *

---------------------------------------------------------------------|
---------------------------------------------------------------------|
-------5------------------7-------------------------------------/\---|
-------X------------------X--------------7--8--7-----7--10--7--5757--|
-------3------------------5------------------------------------------|
-0--0------0--0--0---0--0----0--0--0--8-----------10-----------------|
 *            *         *       *

---------------------------------------------------------------------|
---------------------------------------------------------------------|
-------5------------------7-------------------------------------/\---|
-------X------------------X--------------7--8--7-----7--10--7--5757--|
-------3------------------5------------------------------------------|
-0--0------0--0--0---0--0----0--0--0--8-----------10-----------------|
 *            *         *       *


------------------------------------------------------------------------|
------------------------------------------------------------------------|
--------------------/\----------------------/\-----------------------/\-|
---7-8-7----7-10-7-5757----7-8-7----7-10-7-5757-----7-8-7----7-10-7-5757|
------------------------------------------------------------------------|
-8-------10--------------8-------10--------------8--------10------------|


L
--------------------------------------------------------------|
--------------------------------------------------------------|
--------------------------------------------------------------|
----7-8-7----7-10-7--5-7-----0--------------------------------|
-----------------------------0--------------------------------|
-8--------10-----------------0--------------------------------|

--------------------------------------------------------------|
--------------------------------------------------------------|
--------------------------------------------------------------|
--10-12-10---10-14-10-9-10---0--------------------------------|
-----------------------------0--------------------------------|
12---------14----------------0--------------------------------|



--------------------------------------------------------------|
--------------------------------------------------------------|
--------------------------------------------------------------|
--0-----------------------------------------------------------|
--0-----------------------------------------------------------|
--0-----------------------------------------------------------|



L
-----------------------------------------------------------|
-----------------------------------------------------------|
-----------------------------------------------------------|
-7---0-0-0--8---1-1-1--1-1-1--7---0-0-0--8---1-1-1--1-1-1--|
-5\--0-0-0--6\--0-0-0--0-0-0--5\--0-0-0--6\--0-0-0--0-0-0--|
-----0-0-0------1-1-1--1-1-1------0-0-0------1-1-1--1-1-1--|
     * * *      * * *  * * *      * * *      * * *  * * *  

R
-------------------------------------------------------------|
-------------------------------------------------------------|
-------------------------------------------------------------|
-7--0-0-0----------------------------------------------------|
-5\-0-0-0----------------------------------------------------|
----0-0-0----------------------------------------------------|
    * * 

B
---------------------------------------------------------|
---------------------------------------------------------|
---------------------------------------------------------|
-7---0-0-0--8---1-1-1--1-1-1--7---0-0-0--8---0-0-0--0-0--|
-5\--0-0-0--6\--0-0-0--0-0-0--5\--0-0-0--6\--0-0-0--0-0--|
-----0-0-0------1-1-1--1-1-1------0-0-0------0-0-0--0-0--|
     * * *      * * *  * * *      * * *      * * *  * *   


---------------------------------------------------------|
---------------------------------------------------------|
---------------------------------------------------------|
-7---0-0-0--8---0-0-0--0-0----7---0-0-0--8---0-0-0--0-0--|
-5\--0-0-0--6\--0-0-0--0-0----5\--0-0-0--6\--0-0-0--0-0--|
-----0-0-0------0-0-0--0-0--------0-0-0------0-0-0--0-0--|
     * * *      * * *  * *        * * *      * * *  * * 

---------------------------------------------------------|
---------------------------------------------------------|
---------------------------------------------------------|
-7---0-0-0--8---0-0-0--0-0----7---0-0-0--8---0-0-0--0-0--|
-5\--0-0-0--6\--0-0-0--0-0----5\--0-0-0--6\--0-0-0--0-0--|
-----0-0-0------0-0-0--0-0--------0-0-0------0-0-0--0-0--|
     * * *      * * *  * *        * * *      * * *  * * 





|||||||||||||||||||||||||||||||||||||||||||||||||||||||||
|||||||||||||||||||||||||||||||||||||||||||||||||||||||||
|||||||||||||||||||||||||||||||||||||||||||||||||||||||||
|||||||||||||||||||||||||||||||||||||||||||||||||||||||||








ALONE

B-F#-B-E-G#-C#


                              _
----------0------------------/ \---------------7-----------------------|
-----6------6---6-------5---5-6-5---5------5-----8---8-----------5-----|
-7-7---7------7-----5-5---5-------7----5-5---5-----5---------7-----7---|
---------------------------------------------------------7-7---7-----7-|
-----------------------------------------------------------------------|
-----------------------------------------------------------------------|
                              _
----------0------------------/ \---------------7-----------------------|
-----6------6---6-------5---5-6-5---5------5-----8---8-----------5-----|
-7-7---7------7-----5-5---5-------7----5-5---5-----5---------7-----7---|
---------------------------------------------------------7-7---7-----7-|
-----------------------------------------------------------------------|
-----------------------------------------------------------------------|
                              _
----------0------------------/ \---------------7-----------------------|
-----6------6---6-------5---5-6-5---5------5-----8---8-----------5-----|
-7-7---7------7-----5-5---5-------7----5-5---5-----5---------7-----7---|
---------------------------------------------------------7-7---7-----7-|
-----------------------------------------------------------------------|
-----------------------------------------------------------------------|

                              _
----------0------------------/ \---------------7---------|
-----6------6---6-------5---5-6-5---5------5-----8---8---|
-7-7---7------7-----5-5---5-------7----5-5---5-----5-----|
---------------------------------------------------------|
---------------------------------------------------------|
---------------------------------------------------------|




0:29

--------------------------------------------------------------------|
--------------------------------------------------------------------|
------------------------5~----------------------------9--------9----|
-7--5-------------5--------8-7-8--7--5------------------10-------10-|
---------------------8----------------------------------------------|
-------0---000-0------------------------0---000-00--8-------10------|
           *** *                            *** **

----------------------------------------------------------------------|
----------------------------------------------------------------------|
------------------------5~--------------------------------------------|
-7--5-------------5--------8-7-8--7--5------------------7-------------|
---------------------8-------------------------------------------10---|
-------0---000-0------------------------0---000-00-8888---8888-10--10-|
           *** *                            *** ** ****   ****  


0:43

---------------------------------------------------------------------|
---------------------------------------------------------------------|
-----------------------9--------9------------12--10--9-------9--5-7--|
-------------------------10-------10----------X---X--X-------X--X-X--|
--------------------------------------------/10---8--7-------7--3-5--|
-7-0000-0-00-0-00-0-8-------10-------7-00-0------------00000---------|
   ****   **   **                      **              *****

---------------------------------------------------------------|
---------------------------------------------------------------|
-------------------------14------------------------------------|
--------------------------X------------------------------------|
--------------------8---/12-\-7------0--0--0---0-0-0--0--0-----|
-7-0000-0-00-0-00-0-8---------7-0000-0--0--0---0-0-0--0--0-----|
   ****   **   **               **** *  *  *   * * *  *  *   


0:56

---------------------------------------------------------------------|
---------------------------------------------------------------------|
-----------------------9--------9------------12--10--9-------9--5-7--|
-------------------------10-------10----------X---X--X-------X--X-X--|
--------------------------------------------/10---8--7-------7--3-5--|
-7-0000-0-00-0-00-0-8-------10-------7-0000------------00000---------|
   ****   **   **                      ****            *****

---------------------------------------------------------------|
---------------------------------------------------------------|
-------------------------14------------------------------------|
--------------------------X------------------------------------|
--------------------8---/12-\-7------0--0--0---0-0-0--0--0-----|
-7-0000-0-00-0-00-0-8---------7-0000-0--0--0---0-0-0--0--0-----|
   ****   **   **               **** *  *  *   * * *  *  *     



CLEAN SECTION +DELAY
1
--5------------------------5---_----------------------|
----6--^---DR--------------6--/ \--------DR-----------|
------7-5--------------------5-7-5--------------------|
------------------------------------------------------|
------------------------------------------------------|
------------------------------------------------------|
2
--8---------DR---------------------------------------------|
--10-------------------------------------------------------|
-----------------------------------------------------------|
-----------------------------------------------------------|
-----------------------------------------------------------|
-----------------------------------------------------------|


1
--5-------------------------5---_----------------------|
----6---^----DR-------------6--/ \--------DR-----------|
-------7-5--------------------5-7-5--------------------|
-------------------------------------------------------|
-------------------------------------------------------|
-------------------------------------------------------|



1:24

L
                              _
----------0------------------/ \---------------7------------------------|
-----6------6---6-------5---5-6-5---5------5-----8---8----------5-------|
-7-7---7------7-----5-5---5-------7----5-5---5-----5--------7-----7---7-|
--------------------------------------------------------7-7---7-----7---|
------------------------------------------------------------------------|
------------------------------------------------------------------------|
 * *   *            * *   *            * *   *          * *   *

R
-----------------------------/\----------------7------------------------|
--------10--------------8---8108---8-------8-----8---8-----------8------|
----10----10--10----9-9---9------9-----5-5---5-----5--------10----10--10|
8-8---8-----8-------------------------------------------7-7----7-----7--|
------------------------------------------------------------------------|
------------------------------------------------------------------------|
* *   *     *       * *   *            * *   *          * *    *


L                             _
----------0------------------/ \---------------7------------------------|
-----6------6---6-------5---5-6-5---5------5-----8---8----------5-------|
-7-7---7------7-----5-5---5-------7----5-5---5-----5--------7-----7---7-|
--------------------------------------------------------7-7---7-----7---|
------------------------------------------------------------------------|
------------------------------------------------------------------------|
 * *   *            * *   *            * *   *          * *   *
R
-----------------------------/\----------------7------------------------|
--------10--------------8---8108---8-------8-----8---8-----------8------|
----10----10--10----9-9---9------9-----5-5---5-----5--------10----10--10|
8-8---8-----8-------------------------------------------7-7----7-----7--|
------------------------------------------------------------------------|
------------------------------------------------------------------------|
* *   *     *       * *   *            * *   *          * *    *



1:37

L
---------------------------------------------------|
---------------------------------------------------|
-----5-7-9-10---1210-9-10--10-9-7--9---1210-9-10---|
-----X-X-X--X----X-X-X--X---X-X-X--X----X-X-X--X---|
-0---3-5-7--8---10-8-7--8---8-7-5--7---10-8-7--8---|
-0-------------------------------------------------|
                                                |
R
---------------------------------------------------|
---------------------------------------------------|
----------------1210-9-----------------1210-9-10---|
-----------------X-X-X------------------X-X-X--X---|
-0----------8---10-8-7--3----------5---10-8-7--8---|
-0----------8-----------3----------5---------------|
                                                |

L
-----------------------------------------------|
-----------------------------------------------|
-----5-7-9-10---1210-9-10--10-9-7--9---1210-9--|
-----X-X-X--X----X-X-X--X---X-X-X--X----X-X-X--|
-0---3-5-7--8---10-8-7--8---8-7-5--7---10-8-7--|
-0---------------------------------------------|
                                             |
R
-----------------------------------------------|
-----------------------------------------------|
----------------1210-9-----------------1210-9--|
-----------------X-X-X------------------X-X-X--|
-0----------8---10-8-7--3----------5---10-8-7--|
-0----------8-----------3----------5-----------|
                                             | 


1:51

--------------------------------------------------------------------|
--------------------------------------------------------------------|
------------------------5~----------------------------9--------9----|
-7--5-------------5--------8-7-8--7--5------------------10-------10-|
---------------------8----------------------------------------------|
-------0---000-0------------------------0---000-0--8-------10-------|
           *** *                            *** *

-----------------------------------------------------------------------|
-----------------------------------------------------------------------|
--------------------5~-------------------------------------------------|
7--5------------5------8-7-8--7--5-------------------------------------|
------------------8--------------------------10101010101010101010888877|
-----0---000-0---------------------0---000-0---------------------------|
         *** *                         *** *  * * * * * * * * * *****



2:05
L
                              _
----------0------------------/ \---------------7------------------------|
-----6------6---6-------5---5-6-5---5------5-----8---8----------5-------|
-7-7---7------7-----5-5---5-------7----5-5---5-----5--------7-----7---7-|
--------------------------------------------------------7-7---7-----7---|
------------------------------------------------------------------------|
------------------------------------------------------------------------|
 * *   *            * *   *            * *   *          * *   *
R
----------------------------------------------------------------|
----------------------------------------------------------------|
----------------------------------------------------------------|
----------------------------------------------------------------|
-0--------------------------------------------------------------|
-0--------------------------------------------------------------|


L
                              _
----------0------------------/ \---------------7------------------------|
-----6------6---6-------5---5-6-5---5------5-----8---8----------5-------|
-7-7---7------7-----5-5---5-------7----5-5---5-----5--------7-----7---7-|
--------------------------------------------------------7-7---7-----7---|
------------------------------------------------------------------------|
------------------------------------------------------------------------|
 * *   *            * *   *            * *   *          * *   *

---------------------------------------------------------------|
---------------------------------------------------------------|
---------------------------------------------------------------|
---------------------------------------------------------------|
-8------------------10------------------0----------------------|
-8------------------10------------------0----------------------|



2:18

L
                              _
----------0------------------/ \---------------7------------------------|
-----6------6---6-------5---5-6-5---5------5-----8---8----------5-------|
-7-7---7------7-----5-5---5-------7----5-5---5-----5--------7-----7---7-|
--------------------------------------------------------7-7---7-----7---|
------------------------------------------------------------------------|
------------------------------------------------------------------------|
 * *   *            * *   *            * *   *          * *   *

R
-----------------------------/\----------------7------------------------|
--------10--------------8---8108---8-------8-----8---8-----------8------|
----10----10--10----9-9---9------9-----5-5---5-----5--------10----10--10|
8-8---8-----8-------------------------------------------7-7----7-----7--|
------------------------------------------------------------------------|
------------------------------------------------------------------------|
* *   *     *       * *   *            * *   *          * *    *


L
                              _
----------0------------------/ \---------------7------------------------|
-----6------6---6-------5---5-6-5---5------5-----8---8----------5-------|
-7-7---7------7-----5-5---5-------7----5-5---5-----5--------7-----7---7-|
--------------------------------------------------------7-7---7-----7---|
------------------------------------------------------------------------|
------------------------------------------------------------------------|
 * *   *            * *   *            * *   *          * *   *
R
-----------------------------/\----------------7------------------------|
--------10--------------8---8108---8-------8-----8---8-----------8------|
----10----10--10----9-9---9------9-----5-5---5-----5--------10----10--10|
8-8---8-----8-------------------------------------------7-7----7-----7--|
------------------------------------------------------------------------|
------------------------------------------------------------------------|
* *   *     *       * *   *            * *   *          * *    *



---------------------------------------------------------|
---------------------------------------------------------|
---------------------------------------------------------|
-------------------------------------------7-------------|
-0--------------------------------------------------10---|
-0------------------------------------8888---8888-10--10-|
                                      ****   **** 


2:39


---------------------------------------------------------------------|
---------------------------------------------------------------------|
-----------------------9--------9------------12--10--9-------9--5-7--|
-------------------------10-------10----------X---X--X-------X--X-X--|
--------------------------------------------/10---8--7-------7--3-5--|
-7-0000-0-00-0-00-0-8-------10-------7-00-0------------00000---------|
   ****   **   **                      **              *****

---------------------------------------------------------------|
---------------------------------------------------------------|
-------------------------14------------------------------------|
--------------------------X------------------------------------|
--------------------8---/12-\-7------0--0--0---0-0-0--0--0-----|
-7-0000-0-00-0-00-0-8---------7-0000-0--0--0---0-0-0--0--0-----|
   ****   **   **               **** *  *  *   * * *  *  *   


---------------------------------------------------------------------|
---------------------------------------------------------------------|
-----------------------9--------9------------12--10--9-------9--5-7--|
-------------------------10-------10----------X---X--X-------X--X-X--|
--------------------------------------------/10---8--7-------7--3-5--|
-7-0000-0-00-0-00-0-8-------10-------7-0000------------00000---------|
   ****   **   **                      ****            *****

---------------------------------------------------------------|
---------------------------------------------------------------|
-------------------------14------------------------------------|
--------------------------X------------------------------------|
--------------------8---/12-\-7------0--0--0---0-0-0--0--0-----|
-7-0000-0-00-0-00-0-8---------7-0000-0--0--0---0-0-0--0--0-----|
   ****   **   **               **** *  *  *   * * *  *  *     



                              _
----------0------------------/ \---------------7----------|
-----6------6---6-------5---5-6-5---5------5-----8---8----|
-7-7---7------7-----5-5---5-------7----5-5---5-----5------|
----------------------------------------------------------|
----------------------------------------------------------|
----------------------------------------------------------|



3:13

--------------------------------------------------------------------|
--------------------------------------------------------------------|
------------------------5~----------------------------9--------9----|
-7--5-------------5--------8-7-8--7--5------------------10-------10-|
---------------------8----------------------------------------------|
-------0---000-0------------------------0---000-00--8-------10------|
           *** *                            *** **
------------------------------------------------------------------------|
------------------------------------------------------------------------|
--------------------5~--------------------------------------------------|
7--5------------5-------8-7-8--7--5-------------------------------------|
------------------8---------------------------10101010101010101010888877|
-----0---000-0----------------------0---000-0---------------------------|
         *** *                          *** *  * * * * * * * * * *******

--------------------------------------------------------------------|
--------------------------------------------------------------------|
------------------------5~----------------------------9--------9----|
-7--5-------------5--------8-7-8--7--5------------------10-------10-|
---------------------8----------------------------------------------|
-------0---000-0------------------------0---000-00--8-------10------|
           *** *                            *** **
------------------------------------------------------------------------|
------------------------------------------------------------------------|
--------------------5~--------------------------------------------------|
7--5------------5-------8-7-8--7--5-------------------------------------|
------------------8---------------------------10101010101010101010888877|
-----0---000-0----------------------0---000-0---------------------------|
         *** *                          *** *  * * * * * * * * * *******



3:41

1
----------17---------15----------13----------12---------|
--------15---------15----------15----------15---15------|
------14---------14----------14----------14--------14---|
----15---------15----------15----------15---------------|
--17---------17----------17----------17-----------------|
--------------------------------------------------------|
2
--------------------------------------------------------|
--------------------------------------------------------|
--------------------------------------------------------|
--------------------------------------------------------|
-0------------------------------------------------------|
-0------------------------------------------------------|

1
----------17---------15----------13----------12---------|
--------15---------15----------15----------15---15------|
------14---------14----------14----------14--------14---|
----15---------15----------15----------15---------------|
--17---------17----------17----------17-----------------|
--------------------------------------------------------|
2
--------------------------------------------------------|
--------------------------------------------------------|
--------------------------------------------------------|
--------------------------------------------------------|
-10-----------------------------------------------------|
-10-----------------------------------------------------|


1
----------17---------15----------13----------12---------|
--------15---------15----------15----------15---15------|
------14---------14----------14----------14--------14---|
----15---------15----------15----------15---------------|
--17---------17----------17----------17-----------------|
--------------------------------------------------------|
2
--------------------------------------------------------|
--------------------------------------------------------|
--------------------------------------------------------|
--------------------------------------------------------|
-8------------------------------------------------------|
-8------------------------------------------------------|


1
----------17---------15----------13----------12---------|
--------15---------15----------15----------15---15------|
------14---------14----------14----------14--------14---|
----15---------15----------15----------15---------------|
--17---------17----------17----------17-----------------|
--------------------------------------------------------|
2
--------------------------------------------------------|
--------------------------------------------------------|
--------------------------------------------------------|
--------------------------------------------------------|
-3-------------------------------7-------5--------------|
-3-------------------------------7-------5--------------|


1
----------17---------15----------13----------12---------|
--------15---------15----------15----------15---15------|
------14---------14----------14----------14--------14---|
----15---------15----------15----------15---------------|
--17---------17----------17----------17-----------------|
--------------------------------------------------------|
2
--------------------------------------------------------|
--------------------------------------------------------|
--------------------------------------------------------|
--------------------------------------------------------|
-3-5---------------------------------------------7------|
-3-5---------------------------------------------7------|



1
----------17---------15----------13----------12---------|
--------15---------15----------15----------15---15------|
------14---------14----------14----------14--------14---|
----15---------15----------15----------15---------------|
--17---------17----------17----------17-----------------|
--------------------------------------------------------|
2
--------------------------------------------------------|
--------------------------------------------------------|
--------------------------------------------------------|
--------------------------------------------------------|
-8---------------------------------------------10-------|
-8---------------------------------------------10-------|


1
----------17---------15----------13----------12---------|
--------15---------15----------15----------15---15------|
------14---------14----------14----------14--------14---|
----15---------15----------15----------15---------------|
--17---------17----------17----------17-----------------|
--------------------------------------------------------|
2
--------------------------------------------------------|
--------------------------------------------------------|
--------------------------------------------------------|
--------------------------------------------------------|
-12---------------------------------------------12------|
-12---------------------------------------------12------|



1
----------17---------15----------13----------12---------|
--------15---------15----------15----------15---15------|
------14---------14----------14----------14--------14---|
----15---------15----------15----------15---------------|
--17---------17----------17----------17-----------------|
--------------------------------------------------------|
2
--------------------------------------------------------|
--------------------------------------------------------|
--------------------------------------------------------|
--------------------------------------------------------|
-10-----------------------------------------------------|
-10-----------------------------------------------------|


1
-12-----------------------------------------------------|
----15--------------------------------------------------|
-------14-----------------------------------------------|
--------------------------------------------------------|
--------------------------------------------------------|
--------------------------------------------------------|

--------------------------------------------------------|
--------------------------------------------------------|
--------------------------------------------------------|
--------------------------------------------------------|
-0------------------------------------------------------|
-0------------------------------------------------------|





|||||||||||||||||||||||||||||||||||||||||||||||||||||||||
|||||||||||||||||||||||||||||||||||||||||||||||||||||||||
|||||||||||||||||||||||||||||||||||||||||||||||||||||||||
|||||||||||||||||||||||||||||||||||||||||||||||||||||||||








PRESSURES

A#-F-A#-D#-G-C


L
-------------------------------------------|
-------------------------------------------|
-------------------------------------------|
-------------------------------------------|
-----8-8-8-8-----7-7-7-7-----7-7--0--------|
-5-5---------8-8---------3-3------0--------|
                                   |
R
-----------------------------------------------|
-----------------------------------------------|
-----------------------------------------------|
-----------------------------------------------|
----12-12-12-12------10-10-10-10-----8-8-0-----|
8-8------------12-12-------------7-7-----0-----|
                                          |


0:11

L
-------------------------------------------|
-------------------------------------------|
-------------------------------------------|
-------------------------------------------|
-----8-8-8-8-----7-7-7-7----7-7-0----------|
-5-5---------8-8--------3-3-----0----------|
                                  
R
----------------------------------------------|
----------------------------------------------|
----------------------------------------------|
----------------------------------------------|
----12-12-12-12-----10-10-10-10-----8-8-0-----|
8-8------------12-12------------7-7-----0-----|
                                          

0:17
L
-----------------------------------------------------|
-----------------------------------------------------|
---------10-9-10-9--7-9----------------10-5-10-9-10--|
-P--------X-X--X-X--X-X--0--------------X-X--X-X--X--|
--S-------8-7--8-7--5-7--0--------------8-3--8-7--8--|
---\---------------------0---------------------------|
R
-----------------------------------------------------|
-----------------------------------------------------|
-------14-12-14-1210-12--------------14-10-14-12--14-|
--------X--X--X--X-X--X--0------------X-X---X--X---X-|
-------12-10-12-10-8-10--0-----------12-8--12-10--12-|
-------------------------0---------------------------|



0:28

B
------------------------------------------------------|
------------------------------------------------------|
------------------------------------------------------|
-0-0-0-0-0-0-0-00-0-0-0-0-0-0-0-00-0-0-0-0-0-0-0-00---|
-0-0-0-0-0-0-0-00-0-0-0-0-0-0-0-00-0-0-0-0-0-0-0-00---|
-0-0-0-0-0-0-0-00-0-0-0-0-0-0-0-00-0-0-0-0-0-0-0-00---|
 * * * * * * * ** * * * * * * * ** * * * * * * * **

L
-------------------------------------|
-------------------------------------|
-------------------------------------|
-------------------------------------|
-----8-8-8-8-----7-7-7-7-----7-7-----|
-5-5---------8-8---------3-3---------|
 * * * * * * * * * * * * * * * *  
R
------------------------------------------|
------------------------------------------|
------------------------------------------|
------------------------------------------|
----12-12-12-12------10-10-10-10------8-8-|
8-8------------12-12--------------7-7-----|
* *  *  *  *  * *  *  *  *  *  *  * * * *  


B
------------------------------------------------------|
------------------------------------------------------|
------------------------------------------------------|
-0-0-0-0-0-0-0-00-0-0-0-0-0-0-0-00-0-0-0-0-0-0-0-00---|
-0-0-0-0-0-0-0-00-0-0-0-0-0-0-0-00-0-0-0-0-0-0-0-00---|
-0-0-0-0-0-0-0-00-0-0-0-0-0-0-0-00-0-0-0-0-0-0-0-00---|
 * * * * * * * ** * * * * * * * ** * * * * * * * **

L
-------------------------------------|
-------------------------------------|
-------------------------------------|
-------------------------------------|
-----8-8-8-8-----7-7-7-7-----7-7-----|
-5-5---------8-8---------3-3---------|
 * * * * * * * * * * * * * * * *  
R
------------------------------------------|
------------------------------------------|
------------------------------------------|
------------------------------------------|
----12-12-12-12------10-10-10-10------8-8-|
8-8------------12-12--------------7-7-----|
* *  *  *  *  * *  *  *  *  *  *  * * * *  


0:42

L
---------------------------------------------------------------|
---------------------------------------------------------------|
---------------------------------------------------------------|
-0-------------------------------------------------------------|
-0------------------------------0------------------------------|
-0-------------------------0000-0------------------------------|
                           ****  |
R
----------------------------------------------------------------|
----------------------------------------------------------------|
----2222222200223333223355553355---222222220022-33-2-0----------|
-------------------------------------------------------3-5-3-2-0|
----------------------------------------------------------------|
-0-------------------------------0------------------------------|
  |                               |             ** * * * * * * *


L
---------------------------------------------------------------|
---------------------------------------------------------------|
----------------------------------------------2-3-2---3-5-3----|
-0------------------------------0------------------------------|
-0------------------------------0------------------------------|
-0-------------------------0000-0------------------------------|
                           ****  |                  |        |
R
----------------------------------------------------------------|
----------------------------------------------------------------|
----2222222200223333223355553355---2222222200-2-3-2---3-5-3-----|
----------------------------------------------------------------|
----------------------------------------------------------------|
-0-------------------------------0------------------------------|
  |                               |                 |        |


0:51

B
---------------------------------------------------------------|
---------------------------------------------------------------|
----2222222200223333223355553355---222222220022-3-2-0----------|
------------------------------------------------------3-5-3-2-0|
---------------------------------------------------------------|
-0-------------------------------0-----------------------------|
  |                               |             * * * * * * * *

---------------------------------------------------------------|
---------------------------------------------------------------|
----2222222200223333223355553355---222222220022-3-2-0----------|
------------------------------------------------------3-5-3-2-0|
---------------------------------------------------------------|
-0-------------------------------0-----------------------------|
  |                               |             * * * * * * * *


1:01

L
---------------------------------------------------------------|
---------------------------------------------------------------|
---------------------------------------------------------------|
---------------------------------------------------------------|
---------------------------------------------------------------|
-000-000-------000-000-000-------000-000-----000-000-000-------|
 *** ***       *** *** ***       *** ***     *** *** ***
R
---------------------------------------------------------------|
---------------------------------------------------------------|
----2222222200223333223355553355---222222220022-3-2-0----------|
------------------------------------------------------3-5-3-2-0|
---------------------------------------------------------------|
-0-------------------------------0-----------------------------|
  |                               |             * * * * * * * *


L
---------------------------------------------------------------|
---------------------------------------------------------------|
----------------------------------------------2-3-2---3-5-3----|
---------------------------------------------------------------|
---------------------------------------------------------------|
-000-000-------000-000-000-------000-000-----------------------|
 *** ***       *** *** ***       *** ***      * * *   * * *

R
----------------------------------------------------------------|
----------------------------------------------------------------|
----2222222200223333223355553355---2222222200-2-3-2---3-5-3-----|
----------------------------------------------------------------|
----------------------------------------------------------------|
-0-------------------------------0------------------------------|
  |                               |           * * *   * * *


1:10


1L
---------------------------------------------------|
---------------------------------------------------|
--------------1010101077775555---------------------|
-----7777---------------------7777-8~~~~~/10--7~---|
---------8888--------------------------------------|
5555-----------------------------------------------|
2R
---------------------------------------------------|
---------------------------------------------------|
----------------7777-------------------------------|
------7777----------88887777-------5~~~~~/7--3~----|
-----------8888--------------8888------------------|
-5555----------------------------------------------|
3
---------------------------------------------------|
---------------------------------------------------|
---------------------------------------------------|
---------------------------------------------------|
-5-------------------8-------------3---------------|
-5-------------------8-------------3---------------|


1:15

1L
----------------------------------------------------------17-20-20----|
-----------------------------------------18-17-18-18~--18----------18~|
757-979-10910-121012-141214-151415-17~--------------------------------|
----------------------------------/-----------------------------------|
----------------------------------------------------------------------|
----------------------------------------------------------------------|
2R
---------------------------------------------------------15-17-17-----|
-----------------------------------------15-13-15-15~-15----------15~-|
323--535--757--979--10910--121012-14~---------------------------------|
---------------------------------/------------------------------------|
----------------------------------------------------------------------|
----------------------------------------------------------------------|
3
---------------------------------------------------------------------|
---------------------------------------------------------------------|
---------------------------------------------------------------------|
---------------------------------------------------------------------|
-5--------------8------------------------3---------------------------|
-5--------------8------------------------3---------------------------|



1:20

L
-----------------------------------------------------------------|
-----------------------------------------------------------------|
-----------------------------------------------------------------|
-----------------------------------------------------------------|
---8---8---8---8---7---7---7---7---7---7---7---7---5---5---5---5-|
-5---5---5---5---8---8---8---8---3---3---3---3---3---3---3---3---|
 *   *   *   *   *   *   *   *   *   *   *   *   *   *   *   *
R
-------------------------------------------------------------------|
-------------------------------------------------------------------|
-------------------------------------------------------------------|
-------------------------------------------------------------------|
---12--12--12--12---10--10--10--10---10--10--10--10--8---8---8---8-|
-8---8---8---8----12--12--12--12---7---7---7---7---10--10--10--10--|
 *   *   *   *     *   *   *   *   *   *   *   *    *   *   *   *


L
-----------------------------------------------------------------|
-----------------------------------------------------------------|
-----------------------------------------------------------------|
-----------------------------------------------------------------|
---8---8---8---8---7---7---7---7---7---7---7---7---5---5---5---5-|
-5---5---5---5---8---8---8---8---3---3---3---3---3---3---3---3---|
 *   *   *   *   *   *   *   *   *   *   *   *   *   *   *   *
R
-------------------------------------------------------------------|
-------------------------------------------------------------------|
-------------------------------------------------------------------|
-------------------------------------------------------------------|
---12--12--12--12---10--10--10--10---10--10--10--10--8---8---8---8-|
-8---8---8---8----12--12--12--12---7---7---7---7---10--10--10--10--|
 *   *   *   *     *   *   *   *   *   *   *   *    *   *   *   *


1:30

B
---------------------------------------------------------------|
---------------------------------------------------------------|
---------------------------------------------------------------|
---------------------------------------------------------------|
---------------------------------------------------------------|
-000-000-000-----000-000-000-----000-000-000-----000-000-000---|
 *** *** ***     *** *** ***     *** *** ***     *** *** ***

---------------------------------------------------------------|
---------------------------------------------------------------|
---------------------------------------------------------------|
---------------------------------------------------------------|
---------------------------------------------------------------|
-000-000-000-----000-000-000-----000-000-000-----000-000-000---|
 *** *** ***     *** *** ***     *** *** ***     *** *** ***


---------------------------------------------------------------|
---------------------------------------------------------------|
---------------------------------------------------------------|
---------------------------------------------------------------|
---------------------------------------------------------------|
-000-000-000-----000-000-000-----000-000-000-----000-000-000---|
 *** *** ***     *** *** ***     *** *** ***     *** *** ***

---------------------------------------------------------------|
---------------------------------------------------------------|
---------------------------------------------------------------|
---------------------------------------------------------------|
---------------------------------------------------------------|
-000-000-000-----000-000-000-----000-000-000-----000-000-000---|
 *** *** ***     *** *** ***     *** *** ***     *** *** ***



1:50

L
-----------------------------------------------------------------|
-----------------------------------------------------------------|
-----------------------------------------------------------------|
-----------------------------------------------------------------|
---8---8---8---8---7---7---7---7---7---7---7---7---5---5---5---5-|
-5---5---5---5---8---8---8---8---3---3---3---3---3---3---3---3---|
 *   *   *   *   *   *   *   *   *   *   *   *   *   *   *   *
R
-------------------------------------------------------------------|
-------------------------------------------------------------------|
-------------------------------------------------------------------|
-------------------------------------------------------------------|
---12--12--12--12---10--10--10--10---10--10--10--10--8---8---8---8-|
-8---8---8---8----12--12--12--12---7---7---7---7---10--10--10--10--|
 *   *   *   *     *   *   *   *   *   *   *   *    *   *   *   *

L
-----------------------------------------------------------------|
-----------------------------------------------------------------|
-----------------------------------------------------------------|
-----------------------------------------------------------------|
---8---8---8---8---7---7---7---7---7---7---7---7---5---5---5---5-|
-5---5---5---5---8---8---8---8---3---3---3---3---3---3---3---3---|
 *   *   *   *   *   *   *   *   *   *   *   *   *   *   *   *
R
-------------------------------------------------------------------|
-------------------------------------------------------------------|
-------------------------------------------------------------------|
-------------------------------------------------------------------|
---12--12--12--12---10--10--10--10---10--10--10--10--8---8---8---8-|
-8---8---8---8----12--12--12--12---7---7---7---7---10--10--10--10--|
 *   *   *   *     *   *   *   *   *   *   *   *    *   *   *   *


2;00

+SAME RYTHM GTR AS 1ST SOLO
L
-----17-17-15--------------------------------------------------------|
-15~----------15~-15-13-15-------------------------------------------|
---------------------------14~-14141210-1212109-101097-9975-7753-5532|
---------------------------------------------------------------------|
---------------------------------------------------------------------|
---------------------------------------------------------------------|
R
---2020-17-------------------------------------------------------------|
18~-------18~18-17-18--------------------------------------------------|
---------------------17~-17171514-15151412-14141210-1212109-101097-9975|
-----------------------------------------------------------------------|
-----------------------------------------------------------------------|
-----------------------------------------------------------------------|

2:05

L
-------------------------------------------------------|
-------------------------------------------------------|
------------------------------7777----10101010---------|
-3~---7---5~~-5555----77778888----8888--------12121212-|
------------------8888---------------------------------|
-------------------------------------------------------|
R
---------------------------------------------------------------------|
---------------------------------------------------------------------|
---------------------------------777710101010--------14141414--------|
-7~---10---8~~--8888777710101010-------------12121212--------12121212|
---------------------------------------------------------------------|
---------------------------------------------------------------------|


2:10

L
---------------------------------------------------------------|
---------------------------------------------------------------|
---------------------------------------------------------------|
---------------------------------------------------------------|
---------------------------------------------------------------|
-000-000-------000-000-000-------000-000-----000-000-000-------|
 *** ***       *** *** ***       *** ***     *** *** ***
R
---------------------------------------------------------------|
---------------------------------------------------------------|
----2222222200223333223355553355---222222220022-3-2-0----------|
------------------------------------------------------3-5-3-2-0|
---------------------------------------------------------------|
-0-------------------------------0-----------------------------|
  |                               |             * * * * * * * *

L
----------------------------------------------------------------|
----------------------------------------------------------------|
-------------------------------------------------3-2-0----------|
-------------------------------------------------------3-5-3-2-0|
----------------------------------------------------------------|
-000-000-------000-000-000-------000-000-----000----------------|
 *** ***       *** *** ***       *** ***     *** * * * * * * * *
R
---------------------------------------------------------------|
---------------------------------------------------------------|
----2222222200223333223355553355---222222220022-3-2-0----------|
------------------------------------------------------3-5-3-2-0|
---------------------------------------------------------------|
-0-------------------------------0-----------------------------|
  |                               |             * * * * * * * *


2:20

B
---------------------------------------------------------------|
---------------------------------------------------------------|
----2222222200223333223355553355---222222220022-3-2-0----------|
------------------------------------------------------3-5-3-2-0|
---------------------------------------------------------------|
-0-------------------------------0-----------------------------|
  |                               |             * * * * * * * *

----------------------------------------------------------------|
----------------------------------------------------------------|
----2222222200223333223355553355---2222222200-2-3-2---3-5-3-----|
----------------------------------------------------------------|
----------------------------------------------------------------|
-0-------------------------------0------------------------------|
  |                               |            



2:29

L
---------------------------------------------------------------|
---------------------------------------------------------------|
---------------------------------------------------------------|
-0----------------------------0--------------------------------|
-0----------------------------0--------------------------------|
-0-----------------------0000-0--------------------------------|
                         ****  |
R
---------------------------------------------------------------|
---------------------------------------------------------------|
---222-222-0-2-333-2-3-555-3-5----222-222-0-2-332-0------------|
----------------------------------------------------3-553-2-0--|
---------------------------------------------------------------|
-0-----------------------------0-------------------------------|
  |*** *** * * *** * * *** * *  | *** *** * * *** * * *** * *

L
---------------------------------------------------------------|
---------------------------------------------------------------|
--------------------------------------------2-3-2--3-5-3-------|
-0----------------------------0--------------------------------|
-0----------------------------0--------------------------------|
-0-----------------------0000-0--------------------------------|
                         ****  |                  |      |
R
---------------------------------------------------------------|
---------------------------------------------------------------|
---222-222-0-2-333-2-3-555-3-5----222-222-0-2-3-2--3-5-3-------|
---------------------------------------------------------------|
---------------------------------------------------------------|
-0-----------------------------0-------------------------------|
  |*** *** * * *** * * *** * *  | *** *** *       |      |



2:39

B
------------------------------------------------------|
------------------------------------------------------|
------------------------------------------------------|
-0-0-0-0-0-0-0-00-0-0-0-0-0-0-0-00-0-0-0-0-0-0-0-00---|
-0-0-0-0-0-0-0-00-0-0-0-0-0-0-0-00-0-0-0-0-0-0-0-00---|
-0-0-0-0-0-0-0-00-0-0-0-0-0-0-0-00-0-0-0-0-0-0-0-00---|
 * * * * * * * ** * * * * * * * ** * * * * * * * **

L
-------------------------------------|
-------------------------------------|
-------------------------------------|
-------------------------------------|
-----8-8-8-8-----7-7-7-7-----7-7-----|
-5-5---------8-8---------3-3---------|
 * * * * * * * * * * * * * * * *  
R
------------------------------------------|
------------------------------------------|
------------------------------------------|
------------------------------------------|
----12-12-12-12------10-10-10-10------8-8-|
8-8------------12-12--------------7-7-----|
* *  *  *  *  * *  *  *  *  *  *  * * * *  


B
------------------------------------------------------|
------------------------------------------------------|
------------------------------------------------------|
-0-0-0-0-0-0-0-00-0-0-0-0-0-0-0-00-0-0-0-0-0-0-0-00---|
-0-0-0-0-0-0-0-00-0-0-0-0-0-0-0-00-0-0-0-0-0-0-0-00---|
-0-0-0-0-0-0-0-00-0-0-0-0-0-0-0-00-0-0-0-0-0-0-0-00---|
 * * * * * * * ** * * * * * * * ** * * * * * * * **

L
-------------------------------------|
-------------------------------------|
-------------------------------------|
-------------------------------------|
-----8-8-8-8-----7-7-7-7-----7-7-----|
-5-5---------8-8---------3-3---------|
 * * * * * * * * * * * * * * * *  
R
------------------------------------------|
------------------------------------------|
------------------------------------------|
------------------------------------------|
----12-12-12-12------10-10-10-10------8-8-|
8-8------------12-12--------------7-7-----|
* *  *  *  *  * *  *  *  *  *  *  * * * *  


L
-----------------------------------------------------|
-----------------------------------------------------|
--------10-9-10-9--7-9-----------------10-5-10-9-10--|
-0-------X-X--X-X--X-X---0--------------X-X--X-X--X--|
-0-------8-7--8-7--5-7---0--------------8-3--8-7--8--|
-0-----------------------0---------------------------|
R
------------------------------------------------------|
------------------------------------------------------|
--------14-12-14-1210-12--------------14-10-14-12--14-|
-0-------X--X--X--X-X--X--0------------X-X---X--X---X-|
-0------12-10-12-10-8-10--0-----------12-8--12-10--12-|
-0------------------------0---------------------------|


L
-------------------------------------------|
-------------------------------------------|
-------------------------------------------|
-------------------------------------------|
-----8-8-8-8-----7-7-7-7-----7-7--0--------|
-5-5---------8-8---------3-3------0--------|
                                   |
R
-----------------------------------------------|
-----------------------------------------------|
-----------------------------------------------|
-----------------------------------------------|
----12-12-12-12------10-10-10-10-----8-8-0-----|
8-8------------12-12-------------7-7-----0-----|
                                          |

L
-------------------------------------------|
-------------------------------------------|
-------------------------------------------|
-------------------------------------------|
-----8-8-8-8-----7-7-7-7----7-7-0----------|
-5-5---------8-8--------3-3-----0----------|
                                  |
R
----------------------------------------------|
----------------------------------------------|
----------------------------------------------|
----------------------------------------------|
----12-12-12-12-----10-10-10-10-----8-8-0-----|
8-8------------12-12------------7-7-----0-----|
                                          |




|||||||||||||||||||||||||||||||||||||||||||||||||||||||||
|||||||||||||||||||||||||||||||||||||||||||||||||||||||||
|||||||||||||||||||||||||||||||||||||||||||||||||||||||||
|||||||||||||||||||||||||||||||||||||||||||||||||||||||||










DELIVER ME

A#-F-A#-D#-G-C


B
----------------------------------------------------------------|
----------------------------------------------------------------|
----------------------------------------------------------------|
----------------------------------------------------------------|
000-000-000-000-111-111-333-333-000-000-000-000-111-111-333-333-|
000-000-000-000-333-333-555-555-000-000-000-000-333-333-555-555-|
*** *** *** *** *** *** *** *** *** *** *** *** *** *** *** ***

----------------------------------------------------------------|
----------------------------------------------------------------|
----------------------------------------------------------------|
----------------------------------------------------------------|
000-000-000-000-111-111-333-333-000-000-000-000-111-111-333-333-|
000-000-000-000-333-333-555-555-000-000-000-000-333-333-555-555-|
*** *** *** *** *** *** *** *** *** *** *** *** *** *** *** ***



0:16

-----------------------------------------------------------------|
-----------------------------------------------------------------|
-----------------------------------------------------------------|
-----------------------------------------------------------------|
-88--88--88--88--55--55--77--77--88--88--88--88--55--55--77--77--|
---0---0---0---0---3---3---5---5---0---0---0---0---3---3---5---5-|
 *** *** *** *** *** *** *** *** *** *** *** *** *** *** *** ***

-----------------------------------------------------------------|
-----------------------------------------------------------------|
-----------------------------------------------------------------|
-----------------------------------------------------------------|
-88--88--88--88--55--55--77--77--88--88--88--88--55--55--77--77--|
---0---0---0---0---3---3---5---5---0---0---0---0---3---3---5---5-|
 *** *** *** *** *** *** *** *** *** *** *** *** *** *** *** ***



0:30

-----------------------------------------------------|
-----------------------------------------------------|
-----------------------------------------------------|
-777777---777777-------------------------------------|
-------------------101010101010----101010101010------|
--------8--------8--------------10--------------7----|

-------------------------------------|
-------------------------------------|
-------------------------------------|
-------------------------------------|
-------------------------------------|
-0000000|---00000|---00000|---00000|-|
 *******    *****    *****    *****


-----------------------------------------------------------|
-----------------RPH---------------------------------------|
-----------------------------------------------------------|
-777777---777777-------------------------------------------|
-----------------------------------------------------------|
--------8--------8\----0000000---00000--00000--00000--00000|
                       *******   *****  *****  *****  *****

L
---------------------------------------|
---------------------------------------|
---------------------------------------|
---------------------------------------|
-888888---888888---777777---777777-----|
--------5--------5--------7--------3---|

R
-----------------------------------------------------|
-----------------------------------------------------|
-----------------------------------------------------|
-777777---777777-------------------------------------|
-------------------101010101010----101010101010------|
--------8--------8--------------10--------------7----|

B
-------------------------------------|
-------------------------------------|
-------------------------------------|
-------------------------------------|
-------------------------------------|
-0000000|---00000|---00000|---00000|-|
 *******    *****    *****    *****

L
---------------------|
---------------------|
---------------------|
---------------------|
-888888---888888-----|
--------5--------5---|

R
---------------------|
---------------------|
---------------------|
-777777---777777-----|
---------------------|
--------8--------8---|

B
---------------------------------------------|
---------------------------------------------|
---------------------------------------------|
---------------------------------------0-----|
---------------------------------------0-----|
-0000000---00000--00000--00000--00000--0-----|
 *******   *****  *****  *****  *****


1:01

L
--------------------------|
--------------------------|
---------5-----7-----9----|
-0-------X-----X-----X----|
-0-------3-----5-----7----|
-0------------------------|

R
--------------------------|
--------------------------|
---------9----10-----12---|
-0-------X-----X------X---|
-0-------7-----8-----10---|
-0------------------------|

B
----------------------------------------------------------------------|
----------------------------------------------------------------------|
----------------------------------------------------------------------|
----------------------------------------------------------------------|
-8-55555-8-55555-8-555-8-55555-8-55555-8-555-10-77777-10-77777-10-777-|
----------------------------------------------------------------------|

-------------------------------------------------------------------|
-------------------------------------------------------------------|
-------------------------------------------------------------------|
-------------------------------------------------------------------|
-7-33333-7-33333-7-333-8-55555-8-55555-8-555-8-55555-8-55555-8-555-|
-------------------------------------------------------------------|

L
------------------|
------------------|
--------7----5----|
-3------X----X----|
-3------5----3----|
-3----------------|

R
------------------|
------------------|
-------10----9----|
-3------X----X----|
-3------8----7----|
-3----------------|


1:15

B
----------------------------------------------------------------------|
----------------------------------------------------------------------|
----------------------------------------------------------------------|
----------------------------------------------------------------------|
-8-55555-8-55555-8-555-8-55555-8-55555-8-555-10-77777-10-77777-10-777-|
----------------------------------------------------------------------|

-------------------------------------------------------------------|
-------------------------------------------------------------------|
-------------------------------------------------------------------|
-------------------------------------------------------------------|
-7-33333-7-33333-7-333-8-55555-8-55555-8-555-8-55555-8-55555-8-555-|
-------------------------------------------------------------------|

L
---------------------|
---------------------|
----5-----7-----9----|
----X-----X-----X----|
----3-----5-----7----|
---------------------|

R
--------------------|
--------------------|
---9----10-----12---|
---X-----X------X---|
---7-----8-----10---|
--------------------|



1:25

1
----0-----0----0------------8------8-------------|
------6-----6--6--------------6------6-----------|
--7-----7------7----------------9------9---------|
-------------------------------------------------|
-------------------------------------------------|
-------------------------------------------------|

2
--------------------------------------------------|
--------------------------------------------------|
--------------------------------------------------|
-8------10------0-----------8------10------0------|
-8------10------0-----------8------10------0------|
-8------10------0-----------8------10------0------|


1
----0-----0----0------------8------8-------------|
------6-----6--6--------------6------6-----------|
--7-----7------7----------------9------9---------|
-------------------------------------------------|
-------------------------------------------------|
-------------------------------------------------|

2
----------------------------------------------|
----------------------------------------------|
----------------------------------------------|
-8------10------0-----------8------10---------|
-8------10------0-----------8------10---------|
-8------10------0-----------8------10---------|



1:44

1
-8--------------------------------------------------------------------|
--6-------------------------------------------------------------------|
---9------------------------------------------------------------------|
----------------------------------------------------------------------|
----------------------------------------------------------1-1-1-3-3-3-|
----------------------------------------------------------3-3-3-5-5-5-|
                                                          * * * * * * 
2
-----------------------------------------------------------------------|
-----------------------------------------------------------------------|
-----------------------------------------------------------------------|
-----------------------------------------------------------------------|
-880----880----880----880---7--7--7---880----880----880----1-1-1-3-3-3-|
-770----770----770----770--10-10-10---770----770----770----3-3-3-5-5-5-|
 ***    ***    ***    ***   *  *  *   ***    ***    ***    * * * * * *



1:52

1
----------------------------------------------------------------------|
----------------------------------------------------------------------|
----------------------------------------------------------------------|
-0--------------------------------------------------------------------|
-0------------------------121212-----880----880----880----1-1-1-3-3-3-|
-0-------------------------8-8-8-----770----770----770----3-3-3-5-5-5-|
                           * * *     ***    ***    ***    * * * * * * 
2
----------------------------------------------------------------------|
----------------------------------------------------------------------|
----------------------------------------------------------------------|
----------------------------------------------------------------------|
-880----880----880----880---7--7--7--880----880----880----1-1-1-3-3-3-|
-770----770----770----770--10-10-10--770----770----770----3-3-3-5-5-5-|
 ***    ***    ***    ***   *  *  *  ***    ***    ***    * * * * * *




----------------------------------------------------------------------|
----------------------------------------------------------------------|
----------------------------------------------------------------------|
----------------------------------------------------------------------|
-880----880----880----880---7--7--7--880----880----880----1-1-1-3-3-3-|
-770----770----770----770--10-10-10--770----770----770----3-3-3-5-5-5-|
 ***    ***    ***    ***   *  *  *  ***    ***    ***    * * * * * *

----------------------------------------------------------------------|
----------------------------------------------------------------------|
----------------------------------------------------------------------|
----------------------------------------------------------------------|
-880----880----880----880---7--7--7--880----880----880----1-1-1-3-3-3-|
-770----770----770----770--10-10-10--770----770----770----3-3-3-5-5-5-|
 ***    ***    ***    ***   *  *  *  ***    ***    ***    * * * * * *

---------------------------------------------------------------|
---------------------------------------------------------------|
---------------------------------------------------------------|
-0-------------------------------------------------------------|
-0-------------------------------------------------------------|
-0-------------------------------------------------------------|



2:24

                   _
-----0------------/ \------------------0--------8---------------------|
-------6-------5-5-6-5-------------------6---------------8------------|
---7-------------------5-5/7---------7---------------------10-9~--7-5-|
-----------------------------7~---------------------------------------|
----------------------------------------------------------------------|
0----------8----------------------0---------8--------10---------------|
                                                       HOLD
                   _
-----0------------/ \------------------0--------8---------------------|
-------6-------5-5-6-5-------------------6---------------8------------|
---7-------------------5-5/7---------7---------------------10-9~--7-5-|
-----------------------------7~---------------------------------------|
----------------------------------------------------------------------|
0----------8----------------------0---------8--------10---------------|


2:45    

1                  
----------------------------------------------|
----------------------------------------------|
----------------------------------------------|
-0-----------------0-0------------------------|
-0-----------------0-0------------------------|
-0-----------------0-0------------------------|
                   * *
2
------0---------0---------0----------^--------|
--------6---------6---------6----5--6-5--^----|
----7---------7---------7---------------7-5---|
----------------------------------------------|
----------------------------------------------|
-0---------8---------10-----------------------|

1                  
----------------------------------------------|
----------------------------------------------|
----------------------------------------------|
-0-------------------0-0----------------------|
-0-------------------0-0----------------------|
-0-------------------0-0----------------------|
                     * *
2
------0---------0-----------------------|
--------6---------6-----6---5~----------|
----7---------7-----------------7-5-----|
----------------------------------------|
----------------------------------------|
-0---------8--------3-----3-------------|


1                  
----------------------------------------------|
----------------------------------------------|
----------------------------------------------|
-0-----------------0-0------------------------|
-0-----------------0-0------------------------|
-0-----------------0-0------------------------|
                   * *
2
------0---------0---------0----------^--------|
--------6---------6---------6----5--6-5--^----|
----7---------7---------7---------------7-5---|
----------------------------------------------|
----------------------------------------------|
-0---------8---------10-----------------------|

1                  
----------------------------------------------|
----------------------------------------------|
----------------------------------------------|
-0-------------------0-0----------------------|
-0-------------------0-0----------------------|
-0-------------------0-0----------------------|
                     * *
2
------0---------0-----------------------|
--------6---------6-----6---5~----------|
----7---------7-----------------7-5-----|
----------------------------------------|
----------------------------------------|
-0---------8--------3-----3-------------|




3:06

1
-------------------------------------^---------|
---------------------------------8-10-8---^----|
----------------------------------------10-9---|
-0---------8---------10------------------------|
-0---------8---------10------------------------|
-0---------8---------10------------------------|

2
------0---------0---------0----------^--------|
--------6---------6---------6----5--6-5--^----|
----7---------7---------7---------------7-5---|
----------------------------------------------|
----------------------------------------------|
-0---------8---------10-----------------------|

1
--------------------------------------|
------------------------/10-8---------|
------------------------------10-9----|
-0---------8--------3-----------------|
-0---------8--------3-----------------|
-0---------8--------3-----------------|

2
------0---------0-----------------------|
--------6---------6-----6---5~----------|
----7---------7-----------------7-5-----|
----------------------------------------|
----------------------------------------|
-0---------8--------3-----3-------------|


1
-------------------------------------^---------|
---------------------------------8-10-8---^----|
----------------------------------------10-9---|
-0---------8---------10------------------------|
-0---------8---------10------------------------|
-0---------8---------10------------------------|

2
------0---------0---------0----------^--------|
--------6---------6---------6----5--6-5--^----|
----7---------7---------7---------------7-5---|
----------------------------------------------|
----------------------------------------------|
-0---------8---------10-----------------------|

1
--------------------------------------|
------------------------/10-8---------|
------------------------------10-9----|
-0---------8--------3-----------------|
-0---------8--------3-----------------|
-0---------8--------3-----------------|

2
------0---------0-----------------------|
--------6---------6-----6---5~----------|
----7---------7-----------------7-5-----|
----------------------------------------|
----------------------------------------|
-0---------8--------3-----3-------------|





3:27

L
----------------------------------------------------------------|
----------------------------------------------------------------|
----------------------------------------------------------------|
----------------------------------------------------------------|
000-000-000-000-111-111-333-333-000-000-000-000-111-111-333-333-|
000-000-000-000-333-333-555-555-000-000-000-000-333-333-555-555-|
*** *** *** *** *** *** *** *** *** *** *** *** *** *** *** ***
R
---------------------------------------------------------------|
---------------------------------------------------------------|
---------------------------------------------------------------|
---------------------------------------------------------------|
-0-------------------------------------------------------------|
-0-------------------------------------------------------------|




B
-----------------------------------------------------------|
-----------------------------------------------------------|
-----------------------------------------------------------|
-----------------------------------------------------------|
000-000-000-000-111-111-333-333-000-000-000-000-111-111-3--|
000-000-000-000-333-333-555-555-000-000-000-000-333-333-5--|
*** *** *** *** *** *** *** *** *** *** *** *** *** *** *

----------------------------------------------------------------|
----------------------------------------------------------------|
----------------------------------------------------------------|
----------------------------------------------------------------|
000-000-000-000-111-111-333-333-000-000-000-000-111-111-333-333-|
000-000-000-000-333-333-555-555-000-000-000-000-333-333-555-555-|
*** *** *** *** *** *** *** *** *** *** *** *** *** *** *** ***

-----------------------------------------------------------|
-----------------------------------------------------------|
-----------------------------------------------------------|
-----------------------------------------------------------|
000-000-000-000-111-111-333-333-000-000-000-000-111-111-3--|
000-000-000-000-333-333-555-555-000-000-000-000-333-333-5--|
*** *** *** *** *** *** *** *** *** *** *** *** *** *** *


3:57

-----------------------------------------------------------------|
-----------------------------------------------------------------|
-----------------------------------------------------------------|
-----------------------------------------------------------------|
-88--88--88--88--55--55--77--77--88--88--88--88--55--55--77--77--|
---0---0---0---0---3---3---5---5---0---0---0---0---3---3---5---5-|
 *** *** *** *** *** *** *** *** *** *** *** *** *** *** *** ***


4:04

L
-------------------------------------------------|
-------------------------------------------------|
-------------------------------------------------|
-------------------------------------------------|
-88--88--88--88--55--55--77--77--88--88--88--88--|
---0---0---0---0---3---3---5---5---0---0---0---0-|
 *** *** *** *** *** *** *** *** *** *** *** *** 

R
----------------------------------------------------------------------|
----------------------------------------------------------------------|
----------------------------------------------------------------------|
----------------------------------------------------------------------|
1212--1212--1212--1212--88--88--1010---1010---1212--1212--1212--1212--|
----0-----0-----0-----0---8---8-----10-----10-----0-----0-----0-----0-|
 * **  * **  * **  * ** *** ***  * * *  * * *  * **  * **  * **  * **


--------------|
--------------|
--------------|
--------------|
-8----0-------|
-8-|--0-|-----|






|||||||||||||||||||||||||||||||||||||||||||||||||||||||||
|||||||||||||||||||||||||||||||||||||||||||||||||||||||||
|||||||||||||||||||||||||||||||||||||||||||||||||||||||||
|||||||||||||||||||||||||||||||||||||||||||||||||||||||||














KARMA


A#-F-A#-D#-G-C



TABBED BY andherembrace





L
-----------------------------------------------------------------|
-----------------------------------------------------------------|
-----------------------------------------------------------------|
-----------------------------------------------------------------|
-5-8---7-------------------------5-8---7-----3-7---5-------------|
-----0---8-0-0-0-0-0-0-0-0-0-0-0-----0---8-0-----0---7-0-5-7-5-3-|
     *     * *   *   * * *   *       *     *     *     * * * * *
R
---------------------------------------------------------------|
---------------------------------------------------------------|
---------------------------------------------------------------|
---------------------------------------------------------------|
-5-8---7-------------------------5-8---7-----3-7---5-----------|
-----0---8---------------------------0---8-0-----0---7---------|
     *                               *     *     *


L
-----------------------------------------------------------|
-----------------------------------------------------------|
-----------------------------------------------------------|
-----------------------------------------------------------|
-5-8---7-------------------------5-8---7-----7-10---10-----|
-----0---8-0-0-0-0-0-0-0-0-0-0-0-----0---8-0------0----8---|
     *     * *   *   * * *   *       *     *      *    
R
-----------------------------------------------------------|
-----------------------------------------------------------|
-----------------------------------------------------------|
-----------------------------------------------------------|
-5-8---7-------------------------5-8---7-----7-10---10-----|
-----0---8---------------------------0---8-0------0----8---|
     *                               *     *      *


0:14

B
-----------------------------------------------------------------|
-----------------------------------------------------------------|
-----------------------------------------------------------------|
-----------------------------------------------------------------|
-5-8---7-------------------------5-8---7-----3-7---5-------------|
-----0---8-0-0-0-0-0-0-0-0-0-0-0-----0---8-0-----0---7-0-5-7-5-3-|
     *     * *   *   * * *   *       *     *     *     * * * * *

-------------------------------------------------------------------|
-------------------------------------------------------------------|
-------------------------------------------------------------------|
-------------------------------------------------------------------|
-5-8---7-------------------------5-8---7-----7-10---10-------------|
-----0---8-0-0-0-0-0-0-0-0-0-0-0-----0---8-0------0----8-0-8-7-5-3-|
     *     * *   *   * * *   *       *     *      *      * * * * *

-----------------------------------------------------------------|
-----------------------------------------------------------------|
-----------------------------------------------------------------|
-----------------------------------------------------------------|
-5-8---7-------------------------5-8---7-----3-7---5-------------|
-----0---8-0-0-0-0-0-0-0-0-0-0-0-----0---8-0-----0---7-0-5-7-5-3-|
     *     * *   *   * * *   *       *     *     *     * * * * *

------------------------------------------------------|
------------------------------------------------------|
------------------------------------------------------|
------------------------------------------------------|
-5-8---7-------------------------5-8---7--------------|
-----0---8-0-0-0-0-0-0-0-0-0-0-0-----0---8---3---14~--|
     *     * *   *   * * *   *       *     \   /                


0:33

L
--------------------------------------------------|
--------------------------------------------------|
--------------------------------------------------|
--------------------------------------------------|
-0------------------------------------------------|
-0------------------------------------------------|

R
--------------------------------------------------|
--------------------------------------------------|
----_____------------_____------------_____-------|
---/     \----------/     \----------/     \------|
-12-13-12---------12-13-12---------12-13-12-------|
----------15-0-------------15-0-------------15-0--|

0:38

B
-----------------------------------------|
-----------------------------------------|
---_------------__------------__---------|
--/ \ ---------/  \----------/  \--------|
-7-8-7--------8-10-8-------10-12-10------|
-------10-8----------12-10----------12---|

--------------------------------------------------|
--------------------------------------------------|
----_____------------_____------------_____-------|
---/     \----------/     \----------/     \------|
-12-13-12---------12-13-12---------12-13-12-------|
----------15-0-------------15-0-------------15-0--|

-----------------------------------------|
-----------------------------------------|
---_------------__------------__---------|
--/ \ ---------/  \----------/  \--------|
-7-8-7--------8-10-8-------10-12-10------|
-------10-8----------12-10----------12---|


0:46

------------------------------------------------------------|
------------------------------------------------------------|
----_____---------------_____---------------_____-----------|
---/     \-------------/     \-------------/     \----------|
-12-13-12------------12-13-12------------12-13-12-----------|
----------15-0--0-0-----------15-0--0-0-----------15-0--0-0-|

-----------------------------------------|
-----------------------------------------|
---_------------__------------__---------|
--/ \ ---------/  \----------/  \--------|
-7-8-7--------8-10-8-------10-12-10------|
-------10-8----------12-10----------12---|

----------------------------------------------------------------|
----------------------------------------------------------------|
----_____---------------------------------------_____-----------|
---/     \----------------/\-----^-------------/     \----------|
-12-13-12-----------/\--121315-13-12---------12-13-12-----------|
----------15-0--0-121315-------------0--0-0-----------15-0--0-0-|

------------------------------------------|
------------------------------------------|
----_------------__------------__---------|
---/ \ ---------/  \----------/  \--------|
--7-8-7--------8-10-8-------10-12-10------|
8-------10-8----------12-10----------12---|



0:59

----------------------------------------------------------------------|
----------------------------------------------------------------------|
----_____------------------_____------------------_____---------------|
---/     \----------------/     \----------------/     \--------------|
-12-13-12---------------12-13-12---------------12-13-12---------------|
----------15-0--00000000---------15-0--00000000---------15-0--00000000|
                ********               ********               ********
-----------------------------------------|
-----------------------------------------|
---_------------__------------__---------|
--/ \ ---------/  \----------/  \--------|
-7-8-7--------8-10-8-------10-12-10------|
-------10-8----------12-10----------12---|


------------------------------------------------------------------------|
------------------------------------------------------------------------|
---_____---------------------------------------------_____--------------|
--/     \-------------------/\-----^----------------/     \-------------|
12-13-12--------------/\--121315-13-12------------12-13-12--------------|
---------15-0--0000-121315-------------0--00000000--------15-0--00000000|
               ****                       ********              ********

-----------------------------------------|
-----------------------------------------|
---_------------__------------__---------|
--/ \ ---------/  \----------/  \--------|
-7-8-7--------8-10-8-------10-12-10------|
-------10-8----------12-10----------12---|




1:12

L
-------------------------------------------------------|
-------------------------------------------------------|
-------------------------------------------------------|
-------------------------------------------------------|
-5-8---7-------------------------5-8---7-----3-7---5---|
-----0---8-0-0-0-0-0-0-0-0-0-0-0-----0---8-0-----0---7-|
     *     * *   *   * * *   *       *     *     *     
R
--------------------------------------------------------|
--------------------------------------------------------|
--------------------------------------------------------|
--------------------------------------------------------|
-5-8---7-------------------------5-8---7-----3-7---5----|
-----0---8---------------------------0---8-0-----0---7--|
     *                               *     *     *

B
-------------------------------------------------------------------|
-------------------------------------------------------------------|
-------------------------------------------------------------------|
-------------------------------------------------------------------|
-5-8---7-------------------------5-8---7-----7-10---10-------------|
-----0---8-0-0-0-0-0-0-0-0-0-0-0-----0---8-0------0----8-0-8-7-5-3-|
     *     * *   *   * * *   *       *     *      *      * * * * *

-----------------------------------------------------------------|
-----------------------------------------------------------------|
-----------------------------------------------------------------|
-----------------------------------------------------------------|
-5-8---7-----0-0-0-0-0-5-8---7-------------5-8---7-----0-0-0-0-0-|
-----0---8\--0-0-0-0-0-----0---8---3---14------0---8\--0-0-0-0-0-|
     *       * * * * *     *     \   /         *       * * * * *


------------------------------------|
------------------------------------|
------------------------------------|
---------8--------3--------7---2----|
-5-8---7-8--------3--------7---2----|
-----0---8--------3--------7---2----|
     *

1:34

B

R GT 
           L                   B         R        
------------------------------------------------------------|
------------------------------------------------------------|
------------------------------------------------------------|
------------------------------------------------------------|
-3-3-3-3---0-0-0-0--0--0-0-0---3-3-3-3---0-0-0-0--0--0-0-0--|
-3-3-3-2---0-0-0-0--0--0-0-0---3-3-3-2---0-0-0-0--0--0-0-0--|
           * * * *  *  * * *             * * * *  *  * * *
B          L                   B
--------------------------------------------------------|
--------------------------------------------------------|
--------------------------------------------------------|
--------------------------------------------------------|
-3-3-3-3---0-0-0-0--0--0-0-0---3-3-3-3---0-0--0-0--0-0--|
-3-3-3-2---0-0-0-0--0--0-0-0---3-3-3-2---0-0--0-0--0-0--|
           * * * *  *  * * *             * *  * *  * * 

R         B
------------------------------------------------------------|
------------------------------------------------------------|
------------------------------------------------------------|
------------------------------------------------------------|
-3-3-3-3---0-0-0-0--0--0-0-0---3-3-3-3---0-0-0-0--0--0-0-0--|
-3-3-3-2---0-0-0-0--0--0-0-0---3-3-3-2---0-0-0-0--0--0-0-0--|
           * * * *  *  * * *             * * * *  *  * * *

--------------------------------------------------------|
--------------------------------------------------------|
--------------------------------------------------------|
--------------------------------------------------------|
-3-3-3-3---0-0-0-0--0--0-0-0---3-3-3-3---0-0--0-0--0-0--|
-3-3-3-2---0-0-0-0--0--0-0-0---3-3-3-2---0-0--0-0--0-0--|
           * * * *  *  * * *             * *  * *  * *

------------------------------------------------------------|
------------------------------------------------------------|
------------------------------------------------------------|
------------------------------------------------------------|
-3-3-3-3---0-0-0-0--0--0-0-0---3-3-3-3---0-0-0-0--0--0-0-0--|
-3-3-3-2---0-0-0-0--0--0-0-0---3-3-3-2---0-0-0-0--0--0-0-0--|
           * * * *  *  * * *             * * * *  *  * * *

--------------------------------------------------------|
--------------------------------------------------------|
--------------------------------------------------------|
--------------------------------------------------------|
-3-3-3-3---0-0-0-0--0--0-0-0---3-3-3-3---0-0--0-0--0-0--|
-3-3-3-2---0-0-0-0--0--0-0-0---3-3-3-2---0-0--0-0--0-0--|
           * * * *  *  * * *             * *  * *  * *



2:15


MELODY                           ^
-------17-----17----13-15-17---15-13---)(-----|
----15---15--------------------------17-------|
-14--------14---------------------------------|
----------------------------------------------|
----------------------------------------------|
----------------------------------------------|

RYTHM
----------------------------------------------|
----------------------------------------------|
----------------------------------------------|
-0--------------------------------------------|
-0--------------------------------------------|
-0--------------------------------------------|


MELODY                          ^
-------17-----17----13-15-17--15-13--15-13----|
----15---15--------------------------------17-|
-14--------14---------------------------------|
----------------------------------------------|
----------------------------------------------|
----------------------------------------------|
RYTHM 
----------------------------------------------|
----------------------------------------------|
----------------------------------------------|
-0------------------------8----------10-10-10-|
-0------------------------8----------10-10-10-|
-0------------------------8----------10-10-10-|

RYTHM L
----------------------------------------------|
----------------------------------------------|
----------------------7-910-------9-7-9-7-5---|
----------------------X-X-X-------X-X-X-X-X---|
----------------------5/7-8-------7\5-7-5-3---|
----------------------------------------------|
RYTHM R
----------------------------------------------|
----------------------------------------------|
---------------------10-12-14----1210-1210-9--|
----------------------X--X--X-----X-X--X-X-X--|
----------------------8/10-12----10\8-10-8-7--|
----------------------------------------------|


MELODY                           ^
-------17-----17----13-15-17---15-13---)(-----|
----15---15--------------------------17-------|
-14--------14---------------------------------|
----------------------------------------------|
----------------------------------------------|
----------------------------------------------|
RYTHM 
----------------------------------------------|
----------------------------------------------|
----------------------------------------------|
-0--------------------------------------------|
-0--------------------------------------------|
-0--------------------------------------------|
RYTHM R
----------------------------------------------|
----------------------------------------------|
-10-------------------------------------------|
-X--------------------------------------------|
-8--------------------------------------------|
----------------------------------------------|




MELODY                          ^
-------17-----17----13-15-17--15-13--15-13----|
----15---15--------------------------------17-|
-14--------14---------------------------------|
----------------------------------------------|
----------------------------------------------|
----------------------------------------------|

RYTHM 
----------------------------------------------|
----------------------------------------------|
----------------------------------------------|
-0------------------------8----------10-10-10-|
-0------------------------8----------10-10-10-|
-0------------------------8----------10-10-10-|
RYTHM L
----------------------------------------------|
----------------------------------------------|
----------------------7-910-------9-7-9-7-5---|
----------------------X-X-X-------X-X-X-X-X---|
----------------------5/7-8-------7\5-7-5-3---|
----------------------------------------------|
RYTHM R
----------------------------------------------|
----------------------------------------------|
---------------------10-12-14----1210-1210-9--|
----------------------X--X--X-----X-X--X-X-X--|
----------------------8/10-12----10\8-10-8-7--|
----------------------------------------------|



2:30

MELODY                           ^
-------17-----17----13-15-17---15-13---)(-----|
----15---15--------------------------17-------|
-14--------14---------------------------------|
----------------------------------------------|
----------------------------------------------|
----------------------------------------------|

RYTHM
----------------------------------------------|
----------------------------------------------|
----------------------------------------------|
-0-0-0-00-0--------------0-0-----0-0----------|
-0-0-0-00-0--------------0-0-----0-0----------|
-0-0-0-00-0--------------0-0-----0-0----------|
 * * * ** *              * *     * *


MELODY                          ^
-------17-----17----13-15-17--15-13--15-13----|
----15---15--------------------------------17-|
-14--------14---------------------------------|
----------------------------------------------|
----------------------------------------------|
----------------------------------------------|

RYTHM
--------------------------------------------|
--------------------------------------------|
--------------------------------------------|
-0-0-0-00-0----------8----------10-10-10----|
-0-0-0-00-0----------8----------10-10-10----|
-0-0-0-00-0----------8----------10-10-10----|
 * * * ** *              
RYTHM L
----------------------------------------------|
----------------------------------------------|
----------------------7-910-------9-7-9-7-5---|
----------------------X-X-X-------X-X-X-X-X---|
----------------------5/7-8-------7\5-7-5-3---|
----------------------------------------------|
RYTHM R
----------------------------------------------|
----------------------------------------------|
---------------------10-12-14----1210-1210-9--|
----------------------X--X--X-----X-X--X-X-X--|
----------------------8/10-12----10\8-10-8-7--|
----------------------------------------------|


MELODY                           ^
-------17-----17----13-15-17---15-13---)(-----|
----15---15--------------------------17-------|
-14--------14---------------------------------|
----------------------------------------------|
----------------------------------------------|
----------------------------------------------|

RYTHM
----------------------------------------------|
----------------------------------------------|
----------------------------------------------|
-0-0-0-00-0--------------0-0-----0-0----------|
-0-0-0-00-0--------------0-0-----0-0----------|
-0-0-0-00-0--------------0-0-----0-0----------|
 * * * ** *              * *     * *


MELODY                          ^
-------17-----17----13-15-17--15-13--15-13----|
----15---15--------------------------------17-|
-14--------14---------------------------------|
----------------------------------------------|
----------------------------------------------|
----------------------------------------------|

RYTHM
---------------------------------------------|
---------------------------------------------|
---------------------10----------12-12-12----|
-0-0-0-00-0-----------8----------10-10-10----|
-0-0-0-00-0-----------8----------10-10-10----|
-0-0-0-00-0-----------8----------10-10-10----|
 * * * ** *              
RYTHM L
----------------------------------------------|
----------------------------------------------|
----------------------7-910-------9-7-9-7-5---|
----------------------X-X-X-------X-X-X-X-X---|
----------------------5/7-8-------7\5-7-5-3---|
----------------------------------------------|
RYTHM R
----------------------------------------------|
----------------------------------------------|
---------------------10-12-14----1210-1210-9--|
----------------------X--X--X-----X-X--X-X-X--|
----------------------8/10-12----10\8-10-8-7--|
----------------------------------------------|



2:45

         
MELODY __                 __         __                  __
      /  \               /  \       /  \                /  \
----13-17-13-----------13-17-13---12-13-12------------13-15-13-------|
--15-------15--------15-------15----------15-13-15-17----------17-15-|
14----------14-----14----------14------------------------------------|
---------------------------------------------------------------------|
---------------------------------------------------------------------|
------_____----------------------------------------------------------|
CONT./     \
---13-15-13-12-----|
---------------15--|
-------------------|
-------------------|
-------------------|
-------------------|
RYTHM
--------------------------------------------------------------------|
--------------------------------------------------------------------|
--------------------------------------------------------------------|
-5-----------------7------------------------------8---------10------|
-5-----------------7------------------------------8---------10------|
-5-----------------7------------------------------8---------10------|



MELODY __                 __         __                  __
      /  \               /  \       /  \                /  \
----13-17-13-----------13-17-13---12-13-12------------13-15-13-------|
--15-------15--------15-------15----------15-13-15-17----------17-15-|
14----------14-----14----------14------------------------------------|
---------------------------------------------------------------------|
---------------------------------------------------------------------|
---------------------------------------------------------------------|

CONT.                         )
---/\---20---/\---20---/\---20-------|
-151718----181715----181715----------|
-------------------------------------|
-------------------------------------|
-------------------------------------|
-------------------------------------|
RYTHM
---------------------------------------------------------------|
---------------------------------------------------------------|
---------------------------------------------------------------|
-5-----------------7------------------------------3------------|
-5-----------------7------------------------------3------------|
-5-----------------7------------------------------3------------|



3:00

MELODY
-------------------------------------------|
-------------------------------------------|
-----7-10------7-10-------9-12-------9-12--|
---8---------8---------10---------10-------|
-5---------5---------7----------7----------|
-------------------------------------------|
 * * *     * * *     *  * *     *  * * 
RYTHM
-------------------------------------------|
-------------------------------------------|
-------------------------------------------|
-5-5-5-5-5-5-5-5-7-7-7-7-7-7-7-7-----------|
-5-5-5-5-5-5-5-5-7-7-7-7-7-7-7-7-----------|
-5-5-5-5-5-5-5-5-7-7-7-7-7-7-7-7-----------|
 * * * * * * * * * * * * * * * *

MELODY
----------------------------------------------------|
----------------------------------------------------|
----------17----------17----------17--19\17---------|
----12-15-------12-15-------12-15-----------17\15---|
-13----------13----------13-------------------------|
----------------------------------------------------|
  *  *  *     *  *  *     *  *  *
RYTHM
---------------------------------------|
---------------------------------------|
---------------------------------------|
-8-8-8-8-8-8-8-8-8-8-8-8-10-10-10-10---|
-8-8-8-8-8-8-8-8-8-8-8-8-10-10-10-10---|
-8-8-8-8-8-8-8-8-8-8-8-8-10-10-10-10---|


MELODY
-------------------------------------------|
-------------------------------------------|
-----7-10------7-10-------9-12-------9-12--|
---8---------8---------10---------10-------|
-5---------5---------7----------7----------|
-------------------------------------------|
 * * *     * * *     *  * *     *  * * 
RYTHM
-------------------------------------------|
-------------------------------------------|
-------------------------------------------|
-5-5-5-5-5-5-5-5-7-7-7-7-7-7-7-7-----------|
-5-5-5-5-5-5-5-5-7-7-7-7-7-7-7-7-----------|
-5-5-5-5-5-5-5-5-7-7-7-7-7-7-7-7-----------|
 * * * * * * * * * * * * * * * *

MELODY
---------------------------------------|
----------------------------6\5--------|
-----5-9------5-9------5-9------7\5----|
---7--------7--------7-----------------|
-3--------3--------3-------------------|
---------------------------------------|


-------------------------------------|
-------------------------------------|
-------------------------------------|
-3-3-3-3-3-3-3-3-3-3-3-3-3-3-3-3-----|
-3-3-3-3-3-3-3-3-3-3-3-3-3-3-3-3-----|
-3-3-3-3-3-3-3-3-3-3-3-3-3-3-3-3-----|
 * * * * * * * * * * * * * * * *



3:15

R               B
----------------------------------------------------------------------|
----------------------------------------------------------------------|
----_____------------------_____------------------_____---------------|
---/     \----------------/     \----------------/     \--------------|
-12-13-12---------------12-13-12---------------12-13-12---------------|
----------15-0--00000000---------15-0--00000000---------15-0--00000000|
                ********               ********               ********

-----------------------------------------|
-----------------------------------------|
---_------------__------------__---------|
--/ \ ---------/  \----------/  \--------|
-7-8-7--------8-10-8-------10-12-10------|
-------10-8----------12-10----------12---|


------------------------------------------------------------------------|
------------------------------------------------------------------------|
---_____---------------------------------------------_____--------------|
--/     \-------------------/\-----^----------------/     \-------------|
12-13-12--------------/\--121315-13-12------------12-13-12--------------|
---------15-0--0000-121315-------------0--00000000--------15-0--0000000-|
               ****                       ********              *******

-----------------------------------------|
-----------------------------------------|
---_------------__------------__---------|
--/ \ ---------/  \----------/  \--------|
-7-8-7--------8-10-8-------10-12-10------|
-------10-8----------12-10----------12---|


----------------------------------------------------------------------|
----------------------------------------------------------------------|
----_____------------------_____------------------_____---------------|
---/     \----------------/     \----------------/     \--------------|
-12-13-12---------------12-13-12---------------12-13-12---------------|
----------15-0--00000000---------15-0--00000000---------15-0--00000000|
                ********               ********               ********

-----------------------------------------|
-----------------------------------------|
---_------------__------------__---------|
--/ \ ---------/  \----------/  \--------|
-7-8-7--------8-10-8-------10-12-10------|
-------10-8----------12-10----------12---|



------------------------------------------------------------------------|
------------------------------------------------------------------------|
---_____---------------------------------------------_____--------------|
--/     \-------------------/\-----^----------------/     \-------------|
12-13-12--------------/\--121315-13-12------------12-13-12--------------|
---------15-0--0000-121315-------------0--00000000--------15-0--00000000|
               ****                       ********              ********

-----------------------------------------|
-----------------------------------------|
---_------------__------------__---------|
--/ \ ---------/  \----------/  \--------|
-7-8-7--------8-10-8-------10-12-10------|
-------10-8----------12-10----------12---|

-----------------------------------------|
-----------------------------------------|
---_------------__------------__---------|
--/ \ ---------/  \----------/  \--------|
-7-8-7--------8-10-8-------10-12-10------|
-------10-8----------12-10----------12---|







|||||||||||||||||||||||||||||||||||||||||||||||||||||||||
|||||||||||||||||||||||||||||||||||||||||||||||||||||||||
|||||||||||||||||||||||||||||||||||||||||||||||||||||||||
|||||||||||||||||||||||||||||||||||||||||||||||||||||||||









HOME IS FOR THE HEARTLESS

B-F#-B-E-G#-C#


0:29

-----------------------------------------------------------|
-----------------------------------------------------------|
--9---9--9-7--7-7-7-5--5-5-5-4-4-5-------------------------|
-10--10-10-9--9-9-9-7--7-7-7-5-5-7\--3---------------------|
-------------------------------------3---------------------|
-------------------------------------3---------------------|
      *  *    * * *    * * *   *


-------------------------------------------------------------------------|
-------------------------------------------------------------------------|
-------------------------------------------------------------------------|
----12--------12------------------------12--------12---------------------|
-------------------------------------------------------------------------|
-8-----8--10-----10-0--0-0-0-0-0-0-0-8-----8--10-----10-0--00000-000-000-|
                       * * *   * * *                       ***** *** ***


-------------------------------------------------------------------------|
-------------------------------------------------------------------------|
---------------------------------------------------------9-------10------|
----12--------12------------------------12--------12-------10-------12---|
-------------------------------------------------------------10-------12-|
-8-----8--10-----10-0--0-0-0-0-0-0-0-8-----8--10-----10------------------|
                       * * *   * * *                       


0:54

L
-------------------------------------------------------------------------|
-------------------------------------------------------------------------|
-------------------------------------------------------------------------|
----12--------12------------------------12--------12---------------------|
-------------------------------------------------------------------------|
-8-----8--10-----10-0--0-0-0-0-0-0-0-8-----8--10-----10-0--00000-000-000-|
                       * * *   * * *                       ***** *** ***
R
-------------------------------------------------------------------------|
-10----10-----------------------------10----10---------------------------|
-10-10-10-12---9---10-----------------10-10-10-12---9---10---------------|
----12----12--10---10--------------------12----12--10---10---------------|
-------------------------------------------------------------------------|
----------------------0-0-0-0-0-0-0-----------------------00000-000-000--|
             |   |    * * *   * * *              |    |   ***** *** ***

L
-------------------------------------------------------------------------|
-------------------------------------------------------------------------|
---------------------------------------------------------9-------10------|
----12--------12------------------------12--------12-------10-------12---|
-------------------------------------------------------------10-------12-|
-8-----8--10-----10-0--0-0-0-0-0-0-0-8-----8--10-----10------------------|
                       * * *   * * *                       
R
--------------------------------------------------------------------------|
-10----10-----------------------------10----10----------------------------|
-10-10-10-12---9---10-----------------10-10-10-12---9---9--------10-------|
----12----12--10---10--------------------12----12--10------10--------12---|
-------------------------------------------------------------10--------12-|
-----------------------0-0-0-0-0-0-0--------------------------------------|
             |   |     * * *   * * *              |         


1:07

1
--------------------------------------------------|
-------------------------------8~-----------------|
------4------4~-------5~----------------5~--------|
-3-------5~-----7~--------9~-------9~-------7~----|
-3------------------------------------------------|
-3------------------------------------------------|
OVERDUB
------------------------------^-------------------|
---------------------^------20-8-------^----------|
-------------------17-5---^-------^--17-5---^-----|
------------------------21-9----21-9------19-7----|
--------------------------------------------------|
--------------------------------------------------|
2
--------------------------------------------------|
--------------------------------------------------|
--------------------------------------------------|
--------------------------------------------------|
-3-------5------7---------------------------------|
-3-------5------7---------------------------------|


1
--------------------------------------------------------|
--------------------------------------------------------|
------4------4~-----9--9--9-7--7-7-7-5--5-5-5-4-4-5-5---|
-3-------5~-----7~-10-10-10-9--9-9-9-7--7-7-7-5-5-7-7---|
-3------------------------------------------------------|
-3------------------------------------------------------|
                       *  *    * * *    * * *   *
2
--------------------------------------------------------|
--------------------------------------------------------|
--------------------9--9--9-7--7-7-7-5--5-5-5-4-4-5-5---|
-------------------10-10-10-9--9-9-9-7--7-7-7-5-5-7-7---|
-3-------5----------------------------------------------|
-3-------5----------------------------------------------|
                       *  *    * * *    * * *   *

1
--------------------------------------------------|
-------------------------------8~-----------------|
------4------4~-------5~----------------5~--------|
-3-------5~-----7~--------9~-------9~-------7~----|
-3------------------------------------------------|
-3------------------------------------------------|
OVERDUB
------------------------------^-------------------|
---------------------^------20-8-------^----------|
-------------------17-5---^-------^--17-5---^-----|
------------------------21-9----21-9------19-7----|
--------------------------------------------------|
--------------------------------------------------|
2
--------------------------------------------------|
--------------------------------------------------|
--------------------------------------------------|
--------------------------------------------------|
-3-------5------7---------------------------------|
-3-------5------7---------------------------------|

1
--------------------------------------------------------|
--------------------------------------------------------|
------4~-----4~-----9--9--9-7--7-7-7-5--5-5-5-4-4-5-5---|
-3-------5~-----7~-10-10-10-9--9-9-9-7--7-7-7-5-5-7-7---|
-3------------------------------------------------------|
-3------------------------------------------------------|
                       *  *    * * *    * * *   *
2
--------------------------------------------------------|
--------------------------------------------------------|
--------------------9--9--9-7--7-7-7-5--5-5-5-4-4-5-5---|
-------------------10-10-10-9--9-9-9-7--7-7-7-5-5-7-7---|
-3-------5----------------------------------------------|
-3-------5----------------------------------------------|
                       *  *    * * *    * * *   *




1:35


-5-----------5-------------------5-----------5------------------|
-----8-----------8-------8-----------8-----------8-------8------|
---------7-----------7-------7-----------7-----------7-------7--|
----------------------------------------------------------------|
----------------------------------------------------------------|
----------------------------------------------------------------|


1
-5-----------5-------------------5-----------5------------------|
-----8-----------8-------8-----------8-----------8-------8------|
---------7-----------7-------7-----------7-----------7-------7--|
----------------------------------------------------------------|
----------------------------------------------------------------|
----------------------------------------------------------------|
2
17-5---------15-5------------15-5-17-5---------15-5------------15-5-|
----17-8---------15-8----15-8---------17-8---------15-8----15-8-----|
--------17-7---------17-7-----------------17-7---------17-7---------|
--------------------------------------------------------------------|
--------------------------------------------------------------------|
--------------------------------------------------------------------|
 T   T   T    T   T   T   T   T    T   T   T    T   T   T   T   T




1:48
    _______________      _______________    
1  /               \    /               \    
-12-0-5-7-(12)8-7-5-0-12-0-5-7-(12)8-7-5-0--|
--------------------------------------------|
--------------------------------------------|
--------------------------------------------|
--------------------------------------------|
--------------------------------------------|
 T          T          T         T    
2
--------------------------------------------|
--------------------------------------------|
--------------------------------------------|
--------------------------------------------|
------3--------------------3----------------|
-3333-3----------------333-3----------------|
 ****                  ***


1:50

    _______________      _______________    
1  /               \    /               \    
-13-0-5-7-(13)8-7-5-0-13-0-5-7-(13)8-7-5-0--|
--------------------------------------------|
--------------------------------------------|
--------------------------------------------|
--------------------------------------------|
--------------------------------------------|
 T          T          T         T 
2
--------------------------------------------|
--------------------------------------------|
--------------------------------------------|
--------------------------------------------|
------5-------------------5-----------------|
-5555-5---------------555-5-----------------|
 ****                 ***

 1:52
    _______________      _______________    
1  /               \    /               \    
-15-0-5-7-(15)8-7-5-0-15-0-5-7-(15)8-7-5-0--|
--------------------------------------------|
--------------------------------------------|
--------------------------------------------|
--------------------------------------------|
--------------------------------------------|
 T          T          T         T 
2
--------------------------------------------|
--------------------------------------------|
--------------------------------------------|
--------------------------------------------|
------7--------------------7----------------|
-7777-7----------------777-7----------------|
 ****                  ***

    _______________      _______________    
1  /               \    /               \    
-15-0-5-7-(15)8-7-5-0-17-0-5-7-(17)8-7-5-0--|
--------------------------------------------|
--------------------------------------------|
--------------------------------------------|
--------------------------------------------|
--------------------------------------------|
 T          T          T         T 
2
--------------------------------------------|
--------------------------------------------|
--------------------------------------------|
--------------------------------------------|
----------10-----------------12-------------|
-10101010-10----------121212-12-------------|
  * * * *              * * *




    _______________      _______________    
1  /               \    /               \    
-12-0-5-7-(12)8-7-5-0-12-0-5-7-(12)8-7-5-0--|
--------------------------------------------|
--------------------------------------------|
--------------------------------------------|
--------------------------------------------|
--------------------------------------------|
 T          T          T         T    
2
--------------------------------------------|
--------------------------------------------|
--------------------------------------------|
--------------------------------------------|
------3--------------------3----------------|
-3333-3----------------333-3----------------|
 ****                  ***


    _______________      _______________    
1  /               \    /               \    
-13-0-5-7-(13)8-7-5-0-13-0-5-7-(13)8-7-5-0--|
--------------------------------------------|
--------------------------------------------|
--------------------------------------------|
--------------------------------------------|
--------------------------------------------|
 T          T          T         T 
2
--------------------------------------------|
--------------------------------------------|
--------------------------------------------|
--------------------------------------------|
------5-------------------5-----------------|
-5555-5---------------555-5-----------------|
 ****                 ***

  
    _______________      _______________    
1  /               \    /               \    
-15-0-5-7-(15)8-7-5-0-15-0-5-7-(15)8-7-5-0--|
--------------------------------------------|
--------------------------------------------|
--------------------------------------------|
--------------------------------------------|
--------------------------------------------|
 T          T          T         T 
2
--------------------------------------------|
--------------------------------------------|
--------------------------------------------|
--------------------------------------------|
------7--------------------7----------------|
-7777-7----------------777-7----------------|
 ****                  ***

    _______________      _______________    
1  /               \    /               \    
-15-0-5-7-(15)8-7-5-0-17-0-5-7-(17)8-7-5-0--|
--------------------------------------------|
--------------------------------------------|
--------------------------------------------|
--------------------------------------------|
--------------------------------------------|
 T          T          T         T 
2
--------------------------------------------|
--------------------------------------------|
--------------------------------------------|
--------------------------------------------|
----------10-----------------12-------------|
-10101010-10----------121212-12-------------|
  * * * *              * * *



2:02

1    ^      ^      ^      ^      ^      ^      ^      ^
-17-875-17-875-17-875-17-875-20-875-20-875-20-875-20-875-|
---------------------------------------------------------|
---------------------------------------------------------|
---------------------------------------------------------|
---------------------------------------------------------|
---------------------------------------------------------|
 T       T     T       T      T      T      T      T
2
----------------------------------------------------------------|
----------------------------------------------------------------|
----------------------------------------------------------------|
----------------------------------------------------------------|
----------------------------------------------------------------|
3-3-3-3-3-3-3-3-3-3-3-3-3-3-3-3-5-5-5-5-5-5-5-5-5-5-5-5-5-5-5-5-|
* * * * * * * * * * * * * * * * * * * * * * * * * * * * * * * *


1    ^      ^      ^      ^      ^      ^      ^      ^
-19-875-19-875-19-875-19-875-15-875-15-875-15-875-15-875-|
---------------------------------------------------------|
---------------------------------------------------------|
---------------------------------------------------------|
---------------------------------------------------------|
---------------------------------------------------------|
 T       T     T       T      T      T      T      T
2
-----------------------------------------------------------------|
-----------------------------------------------------------------|
-----------------------------------------------------------------|
-----------------------------------------------------------------|
-----------------------------------------------------------------|
7-7-7-7-7-7-7-7-7-7-7-7-7-7-7-7-1010101010101010-1212121212121212|
* * * * * * * * * * * * * * * *  * * * * * * * *  * * * * * * * *



1    ^      ^      ^      ^      ^      ^      ^      ^
-17-875-17-875-17-875-17-875-20-875-20-875-20-875-20-875-|
---------------------------------------------------------|
---------------------------------------------------------|
---------------------------------------------------------|
---------------------------------------------------------|
---------------------------------------------------------|
 T       T     T       T      T      T      T      T
2
----------------------------------------------------------------|
----------------------------------------------------------------|
----------------------------------------------------------------|
----------------------------------------------------------------|
----------------------------------------------------------------|
3-3-3-3-3-3-3-3-3-3-3-3-3-3-3-3-5-5-5-5-5-5-5-5-5-5-5-5-5-5-5-5-|
* * * * * * * * * * * * * * * * * * * * * * * * * * * * * * * *


1    ^      ^      ^      ^      ^      ^      ^      ^
-19-875-19-875-19-875-19-875-15-875-15-875-15-875-15-875-|
---------------------------------------------------------|
---------------------------------------------------------|
---------------------------------------------------------|
---------------------------------------------------------|
---------------------------------------------------------|
 T       T     T       T      T      T      T      T
2
-----------------------------------------------------------------|
-----------------------------------------------------------------|
-----------------------------------------------------------------|
-----------------------------------------------------------------|
-----------------------------------------------------------------|
7-7-7-7-7-7-7-7-7-7-7-7-7-7-7-7-1010101010101010-1212121212121212|
* * * * * * * * * * * * * * * *  * * * * * * * *  * * * * * * * *


2:16


1
--------------------------------------------------|
-------------------------------8~-----------------|
------4------4~-------5~----------------5~--------|
-3-------5~-----7~--------9~-------9~-------7~----|
-3------------------------------------------------|
-3------------------------------------------------|
OVERDUB
------------------------------^-------------------|
---------------------^------20-8-------^----------|
-------------------17-5---^-------^--17-5---^-----|
------------------------21-9----21-9------19-7----|
--------------------------------------------------|
--------------------------------------------------|
2
--------------------------------------------------|
--------------------------------------------------|
--------------------------------------------------|
--------------------------------------------------|
-3-------5------7---------------------------------|
-3-------5------7---------------------------------|

1
--------------------------------------------------------|
--------------------------------------------------------|
------4------4~-----9--9--9-7--7-7-7-5--5-5-5-4-4-5-5---|
-3-------5~-----7~-10-10-10-9--9-9-9-7--7-7-7-5-5-7-7---|
-3------------------------------------------------------|
-3------------------------------------------------------|
                       *  *    * * *    * * *   *   *
2
--------------------------------------------------------|
--------------------------------------------------------|
--------------------9--9--9-7--7-7-7-5--5-5-5-4-4-5-5---|
-------------------10-10-10-9--9-9-9-7--7-7-7-5-5-7-7---|
-3-------5----------------------------------------------|
-3-------5----------------------------------------------|
                       *  *    * * *    * * *   *   *

1
--------------------------------------------------|
-------------------------------8~-----------------|
------4------4~-------5~----------------5~--------|
-3-------5~-----7~--------9~-------9~-------7~----|
-3------------------------------------------------|
-3------------------------------------------------|
OVERDUB
------------------------------^-------------------|
---------------------^------20-8-------^----------|
-------------------17-5---^-------^--17-5---^-----|
------------------------21-9----21-9------19-7----|
--------------------------------------------------|
--------------------------------------------------|
2
--------------------------------------------------|
--------------------------------------------------|
--------------------------------------------------|
--------------------------------------------------|
-3-------5------7---------------------------------|
-3-------5------7---------------------------------|

1
--------------------------------|
--------------------------------|
------4~-----4~-----------------|
-3-------5~-----7~--------------|
-3-------------------0-0---0-0--|
-3-------------------0-0---0-0--|
                     * *   * *  
2
--------------------------------|
--------------------------------|
--------------------------------|
--------------------------------|
-3-------5-----------0-0---0-0--|
-3-------5-----------0-0---0-0--|
                     * *   * *



2:43

1    ^      ^      ^      ^      ^      ^      ^      ^
-17-875-17-875-17-875-17-875-20-875-20-875-20-875-20-875-|
---------------------------------------------------------|
---------------------------------------------------------|
---------------------------------------------------------|
---------------------------------------------------------|
---------------------------------------------------------|
 T       T     T       T      T      T      T      T
2
----------------------------------------------------------|
----------------------------------------------------------|
----------------------------------------------------------|
-3--------------------------------------------------------|
-3--------------------------------------------------------|
-3--------------------------------------------------------|


1    ^      ^      ^      ^      ^      ^      ^      ^
-19-875-19-875-19-875-19-875-15-875-15-875-15-875-15-875-|
---------------------------------------------------------|
---------------------------------------------------------|
---------------------------------------------------------|
---------------------------------------------------------|
---------------------------------------------------------|
 T       T     T       T      T      T      T      T
2
---------------------------------------------------------|
---------------------------------------------------------|
---------------------------------------------------------|
-(3)-----------------------------------------------------|
-(3)-----------------------------------------------------|
-(3)-----------------------------------------------------|


1    ^      ^      ^      ^      ^      ^      ^      ^
-17-875-17-875-17-875-17-875-20-875-20-875-20-875-20-875-|
---------------------------------------------------------|
---------------------------------------------------------|
---------------------------------------------------------|
---------------------------------------------------------|
---------------------------------------------------------|
 T       T     T       T      T      T      T      T
2
----------------------------------------------------------|
----------------------------------------------------------|
----------------------------------------------------------|
-3---------------------------7----------------------------|
-3---------------------------7----------------------------|
-3---------------------------7----------------------------|


1    ^      ^      ^      ^      ^      ^      ^      ^
-19-875-19-875-19-875-19-875-15-875-15-875-15-875-15-875-|
---------------------------------------------------------|
---------------------------------------------------------|
---------------------------------------------------------|
---------------------------------------------------------|
---------------------------------------------------------|
 T       T     T       T      T      T      T      T
2
---------------------------------------------------------|
---------------------------------------------------------|
---------------------------------------------------------|
-5----------------------------5--------------------------|
-5----------------------------5--------------------------|
-5----------------------------5--------------------------|




1    ^      ^      ^      ^      ^      ^      ^      ^
-17-875-17-875-17-875-17-875-20-875-20-875-20-875-20-875-|
---------------------------------------------------------|
---------------------------------------------------------|
---------------------------------------------------------|
---------------------------------------------------------|
---------------------------------------------------------|
 T       T     T       T      T      T      T      T
2
----------------------------------------------------------|
----------------------------------------------------------|
----------------------------------------------------------|
-3--------------3-------------7--------------7------------|
-3--------------3-------------7--------------7------------|
-3--------------3-------------7--------------7------------|


1    ^      ^      ^      ^      ^      ^      ^      ^
-19-875-19-875-19-875-19-875-15-875-15-875-15-875-15-875-|
---------------------------------------------------------|
---------------------------------------------------------|
---------------------------------------------------------|
---------------------------------------------------------|
---------------------------------------------------------|
 T       T     T       T      T      T      T      T
2
---------------------------------------------------------|
---------------------------------------------------------|
---------------------------------------------------------|
-5-------------5--------------5-------------5------------|
-5-------------5--------------5-------------5------------|
-5-------------5--------------5-------------5------------|



3:04

1     ^        ^        ^        ^        ^        ^        ^        ^
1717-875-1717-875-1717-875-1717-875-2020-875-2020-875-2020-875-2020-875-|
------------------------------------------------------------------------|
------------------------------------------------------------------------|
------------------------------------------------------------------------|
------------------------------------------------------------------------|
------------------------------------------------------------------------|
 T T     T T      T T       T T      T T     T T       T T     T T
2
-----------------------------------------------------------------|
-----------------------------------------------------------------|
-----------------------------------------------------------------|
-----------------------------------------------------------------|
-----------------------------------------------------------------|
-3-3-3-3-3-3-3-3-3-3-3-3-3-3-3-3-7-7-7-7-7-7-7-7-7-7-7-7-7-7-7-7-|
 * * * * * * * * * * * * * * * * * * * * * * * * * * * * * * * * 
    
1      ^        ^        ^        ^        ^        ^        ^        ^
-1919-875-1919-875-1919-875-1919-875-1515-875-1515-875-1515-875-1515-875-|
-------------------------------------------------------------------------|
-------------------------------------------------------------------------|
-------------------------------------------------------------------------|
-------------------------------------------------------------------------|
-------------------------------------------------------------------------|
 T T      T T       T T     T T       T T      T T     T T      T T
2
-----------------------------------------------------------------|
-----------------------------------------------------------------|
-----------------------------------------------------------------|
-----------------------------------------------------------------|
-----------------------------------------------------------------|
-5-5-5-5-5-5-5-5-5-5-5-5-5-5-5-5-5-5-5-5-5-5-5-5-5-5-5-5-5-5-5-5-|
 * * * * * * * * * * * * * * * * * * * * * * * * * * * * * * * * 



3:11

------------0-------5-5-5-0---------------------5--0---|
------5-5-5-0-------5-5-5-0------5-5-5----5-----5--0---|
------5-5-5-0-------5-5-5-0------5-5-5-4--5--4--5--0---|
-3----5-5-5----------------------5-5-5-5--5--5---------|
-3-------------5-------------7-------------------------|
-3-------------5-------------7-------------------------|


------------0-------5-5-5-0------|
------5-5-5-0-------5-5-5-0------|
------5-5-5-0-------5-5-5-0------|
-3----5-5-5----------------------|
-3-------------5-----------------|
-3-------------5-----------------|


-----------------------------------------------|
-----------------------------------------------|
--9--9--9-7--7-7-7-5--5-5-5-4-4-5-5------------|
-10-10-10-9--9-9-9-7--7-7-7-5-5-7-7------------|
-----------------------------------------------|
-----------------------------------------------|
     *  *    * * *    * * *   *   *


1
--------------------------------------------------|
-------------------------------8~-----------------|
------4------4~-------5~----------------5~--------|
-3-------5~-----7~--------9~-------9~-------7~----|
-3------------------------------------------------|
-3------------------------------------------------|
OVERDUB
------------------------------^-------------------|
---------------------^------20-8-------^----------|
-------------------17-5---^-------^--17-5---^-----|
------------------------21-9----21-9------19-7----|
--------------------------------------------------|
--------------------------------------------------|
2
--------------------------------------------------|
--------------------------------------------------|
--------------------------------------------------|
--------------------------------------------------|
-3-------5------7---------------------------------|
-3-------5------7---------------------------------|


1
--------------------------------------------------------|
--------------------------------------------------------|
------4------4~-----9--9--9-7--7-7-7-5--5-5-5-4-4-5-5---|
-3-------5~-----7~-10-10-10-9--9-9-9-7--7-7-7-5-5-7-7---|
-3------------------------------------------------------|
-3------------------------------------------------------|
                       *  *    * * *    * * *   *
2
--------------------------------------------------------|
--------------------------------------------------------|
--------------------9--9--9-7--7-7-7-5--5-5-5-4-4-5-5---|
-------------------10-10-10-9--9-9-9-7--7-7-7-5-5-7-7---|
-3-------5----------------------------------------------|
-3-------5----------------------------------------------|
                       *  *    * * *    * * *   *

1
--------------------------------------------------|
-------------------------------8~-----------------|
------4------4~-------5~----------------5~--------|
-3-------5~-----7~--------9~-------9~-------7~----|
-3------------------------------------------------|
-3------------------------------------------------|
OVERDUB
------------------------------^-------------------|
---------------------^------20-8-------^----------|
-------------------17-5---^-------^--17-5---^-----|
------------------------21-9----21-9------19-7----|
--------------------------------------------------|
--------------------------------------------------|
2
--------------------------------------------------|
--------------------------------------------------|
--------------------------------------------------|
--------------------------------------------------|
-3-------5------7---------------------------------|
-3-------5------7---------------------------------|

1
--------------------------------------------------------|
--------------------------------------------------------|
------4------4~-----9--9--9-7--7-7-7-5--5-5-5-4-4-5-5---|
-3-------5~-----7~-10-10-10-9--9-9-9-7--7-7-7-5-5-7-7---|
-3------------------------------------------------------|
-3------------------------------------------------------|
                       *  *    * * *    * * *   *   *
2
--------------------------------------------------------|
--------------------------------------------------------|
--------------------9--9--9-7--7-7-7-5--5-5-5-4-4-5-5---|
-------------------10-10-10-9--9-9-9-7--7-7-7-5-5-7-7---|
-3-------5----------------------------------------------|
-3-------5----------------------------------------------|
                       *  *    * * *    * * *   *   *



3:52

L
----------------------------------------------------|
------------------------------------8~--------------|
-----4~----------4~----------5~------------5~-------|
-3-------5~----------7~---------9~-----9~-----7~----|
-3--------------------------------------------------|
-3--------------------------------------------------|
R
----------------------------------------------------|
----------------------------------------------------|
-----7~----------7~----------9~------12~-----9~-----|
-3-------9~----------10~--------12~------12~----10~-|
-3--------------------------------------------------|
-3--------------------------------------------------|
RYTHM
----------------------------------------------------|
----------------------------------------------------|
----------------------------------------------------|
-3-----------5------------7-------------------------|
-3-----------5------------7-------------------------|
-3-----------5------------7-------------------------|



L
------------------------------------|
------------------------------------|
----4~----------4~------------------|
--------5~----------7~--------------|
-------------------------0-0-----0-0|
-------------------------0-0-----0-0|
R                        * *     * * 
------------------------------------|
------------------------------------|
----7~----------7~------------------|
--------9~----------10~-------------|
--------------------------0-0----0-0|
--------------------------0-0----0-0|
RYTHM                     * *    * *
-------------------|
-------------------|
-------------------|
-3-----------5-----|
-3-----------5-----|
-3-----------5-----|









|||||||||||||||||||||||||||||||||||||||||||||||||||||||||
|||||||||||||||||||||||||||||||||||||||||||||||||||||||||
|||||||||||||||||||||||||||||||||||||||||||||||||||||||||
|||||||||||||||||||||||||||||||||||||||||||||||||||||||||








HOLLOW

A-E-A-D-F#-B


1 R
-----------------------------------------------------------------|
-----------------------------------------------------------------|
-----------------------------------------------------------------|
--------------------------------------------------------------10-|
-7-8-7--------7-8-7-------7-8----7-8-7--------7-8-7-------7-8----|
-------10-7---------10-7------5--------10-7---------10-7---------|



0:07

L
---------------------------------------------------------------|
---------------------------------------------------------------|
---------------------------------------------------------------|
---------------------------------------------------------P-----|
-7-8-7----3---------------5--7----------------------------S----|
-------10-3---------------5--7-----------------------------\---|

R
-----------------------------------------------------------------|
-----------------------------------------------------------------|
-----------------------------------------------------------------|
--------------------------------------------------------------10-|
-7-8-7--------7-8-7-------7-8----7-8-7--------7-8-7-------7-8----|
-------10-7---------10-7------5--------10-7---------10-7---------|


L
-----------------------------------------------------------------|
-----------------------------------------------------------------|
-----------------------------------------------------------------|
-----------------------------------------------------------------|
-7--7--7------7--7--7------7-5---7--7--7------7--7--7-----7-5----|
-7--7--7------7--7--7------7-5---7--7--7------7--7--7-----7-5----|
 *  *  *      *  *  *      *     *  *  *      *  *  *     *
R
-----------------------------------------------------------------|
-----------------------------------------------------------------|
-----------------------------------------------------------------|
--------------------------------------------------------------10-|
-7-8-7--------7-8-7-------7-8----7-8-7--------7-8-7-------7-8----|
-------10-7---------10-7------5--------10-7---------10-7---------|

L
-----------------------------------------------------------------|
-----------------------------------------------------------------|
-----------------------------------------------------------------|
-----------------------------------------------------------------|
-7--7--7------7--7--7------7-5---3------------------------5------|
-7--7--7------7--7--7------7-5---3------------------------5------|
 *  *  *      *  *  *      *     
R
-----------------------------------------------------------------|
-----------------------------------------------------------------|
-----------------------------------------------------------------|
--------------------------------------------------------------10-|
-7-8-7--------7-8-7-------7-8----7-8-7--------7-8-7-------7-8----|
-------10-7---------10-7------5--------10-7---------10-7---------|




0;29

L
--------------------------------------------------------------------|
--------------------------------------------------------------------|
--------------------------------------------------------------------|
--------------------------------------------------------5-----7---7-|
-0------------------------------------------------------------------|
-0----------------------------------------------------3---3-5---5---|
  |
R
--------------------------------------------------------------------|
--------------------------------------------------------------------|
--------------------------------------------------------------------|
--------------------------------------------------------5-----7---7-|
-8-8-8------7--7--7--------------------8-8-8------7-----------------|
-7-7-7-0-0-10-10-10-0-0-0-0-0-0000-0-0-7-7-7-0-0-10-0-3---3-5---5---|
         *            * *   * ****   *         *    *

L
----------------------------------------------------------|
----------------------------------------------------------|
----------------------------------------------------------|
----------------------------------------------------------|
-0---------------------------------------------------3----|
-0---------------------------------------------------3----|
  |
R
----------------------------------------------------------|
----------------------------------------------------------|
----------------------------------------------------------|
----------------------------------------------------------|
-8-8-8------7--7--7-------------------8-8-8------7---3----|
-7-7-7-0-0-10-10-10-0-0-0-0-0-0-0-0-0-7-7-7-0-0-10-0-3----|
         *            *   *   *   *           *    *


0:41

B
--------------------------------------------------------------------|
--------------------------------------------------------------------|
--------------------------------------------------------------------|
--------------------------------------------------------5-----7---7-|
-8-8-8------7--7--7--------------------8-8-8------7-----------------|
-7-7-7-0-0-10-10-10-0-0-0-0-0-0000-0-0-7-7-7-0-0-10-0-3---3-5---5---|
         *            * *   * ****   *         *    *

-----------------------------------------------------------------------|
-----------------------------------------------------------------------|
-----------------------------------------------------------------------|
-----------------------------------------------------------------------|
-8-8-8------7--7--7-------------------8-8-8------7---------------------|
-7-7-7-0-0-10-10-10-0-0-0-0-0-0-0-0-0-7-7-7-0-0-10-0-0-33333-7-55555-7-|
         *            *   *   *   *           *    *


0:53

L
----------------------------------------------------------------|
----------------------------------------------------------------|
----------------------------------------------------------------|
------------7---------------------------------------------------|
-0---8-10-------10---8---10-8-7---------773-773---------773-773-|
-0--------0---0----0---0--------333-333---------555-555---------|
          *   *    *   *        *** *** *** *** *** *** *** ***
R
--------------------------------------------------------------|
--------------------------------------------------------------|
--------------------------------------------------------------|
--------------------------------------------------------------|
-0---5-7----8---7---5---7-5-3---------773-773---------773-773-|
-0--------0---0---0---0-------333-333---------555-555---------|
          *   *   *   *       *** *** *** *** *** *** *** ***

B
-----------------------------------------------------|
-----------------------------------------------------|
-----------------------------------------------------|
-----------------------------------------------------|
-000-000----000-000----3----773-773--5----773-773----|
-000-000----000-000----3-------------5---------------|
 *** ***    *** ***         *** ***       *** ***

L
----------------------------------------------------------------|
----------------------------------------------------------------|
----------------------------------------------------------------|
------------7---------------------------------------------------|
-0---8-10-------10---8---10-8-7---------773-773---------773-773-|
-0--------0---0----0---0--------333-333---------555-555---------|
          *   *    *   *        *** *** *** *** *** *** *** ***
R
--------------------------------------------------------------|
--------------------------------------------------------------|
--------------------------------------------------------------|
--------------------------------------------------------------|
-0---5-7----8---7---5---7-5-3---------773-773---------773-773-|
-0--------0---0---0---0-------333-333---------555-555---------|
          *   *   *   *       *** *** *** *** *** *** *** ***

L
------------------------------------------|
------------------------------------------|
------------------------------------------|
------------------------------------------|
-000-000----000-000----3----773-773--5----|
-000-000----000-000----3-------------5----|
 *** ***    *** ***         *** ***   |  
R
------------------------------------------|
------------------------------------------|
------------------------------------------|
----------------------------552-552-------|
-000-000----000-000----3-------------5----|
-000-000----000-000----3-------------5----|
 *** ***    *** ***         *** ***    |




B
-----------------------------------------------------|
-----------------------------------------------------|
-----------------------------------------------------|
-0-------------------------0------------------P------|
-0-------------------------0-------------------S-----|
-0-------------------------0--------------------\----|



1:27

L
-----------------------------------------------------------------|
-----------------------------------------------------------------|
-----------------------------------------------------------------|
-----------------------------------------------------------------|
-0-----------------------------------------------777-777-888-333-|
-0---------------------------------------------------------------|
R                                                *** *** *** ***
-----------------------------------------------------------------|
-----------------------------------------------------------------|
--------10--------------10--------------10-----------------------|
---------X---------------X---------------X-----------------------|
---------8---------------8---------------8-------777-777-888-333-|
-000-000---0-000-000-000---0-000-000-000---0-000-----------------|
 *** ***   * *** *** ***   * *** *** ***   * *** *** *** *** ***

B
---------------------------------------------------------------------|
---------------------------------------------------------------------|
--------10--------------10--------------10---------------------------|
---------X---------------X---------------X---------------------------|
---------8---------------8---------------8-------777-777-888-333-12--|
-000-000---0-000-000-000---0-000-000-000---0-000-----------------12\-|
 *** ***   * *** *** ***   * *** *** ***   * *** *** *** *** ***

                                                R PLAYS 4TH STRING ALSO
------------------------------------------------------------------|
------------------------------------------------------------------|
--------10--------------10--------------10------------------------|
---------X---------------X---------------X------------------------|
-000-000-8-0-000-000-000-8-0-000-000-000-8-0-000-777-777-888-333--|
-000-000---0-000-000-000---0-000-000-000---0-000------------------|
 *** ***   * *** *** ***   * *** *** ***   * *** *** *** *** ***

------------------------------------------------------------------|
------------------------------------------------------------------|
--------10--------------10--------------10------------------------|
---------X---------------X---------------X------------------------|
-000-000-8-0-000-000-000-8-0-000-000-000-8-0-000-777-777-888-333--|
-000-000---0-000-000-000---0-000-000-000---0-000------------------|
 *** ***   * *** *** ***   * *** *** ***   * *** *** *** *** ***

1:56

L
------------------------------------------------------------------|
------------------------------------------------------------------|
--------10--------------10--------------10------------------------|
---------X---------------X---------------X------------------------|
-000-000-8-0-000-000-000-8-0-000-000-000-8-0-000-777-777-888-333--|
-000-000---0-000-000-000---0-000-000-000---0-000------------------|
 *** ***   * *** *** ***   * *** *** ***   * *** *** *** *** ***
R
----------------------------------------------------------------------------|
----------------------------------------------------------------------------|
---------14---------------14---------------14-------------------------------|
----------X----------------X----------------X-------------------------------|
-000-000-12-0-000-000-000-12-0-000-000-000-12-0-000-101010-101010-121212-777|
-000-000----0-000-000-000----0-000-000-000----0-000-------------------------|
 *** ***    * *** *** ***    * *** *** ***    * ***  * **   * * *  * * * ***


L
------------------------------------------------------------------|
------------------------------------------------------------------|
--------10--------------10--------------10------------------------|
---------X---------------X---------------X------------------------|
-000-000-8-0-000-000-000-8-0-000-000-000-8-0-000-777-777-888-333--|
-000-000---0-000-000-000---0-000-000-000---0-000------------------|
 *** ***   * *** *** ***   * *** *** ***   * *** *** *** *** ***
R
----------------------------------------------------------------------------|
----------------------------------------------------------------------------|
---------14---------------14---------------14-------------------------------|
----------X----------------X----------------X-------------------------------|
-000-000-12-0-000-000-000-12-0-000-000-000-12-0-000-101010-101010-121212-777|
-000-000----0-000-000-000----0-000-000-000----0-000-------------------------|
 *** ***    * *** *** ***    * *** *** ***    * ***  * * *  * * *  * * * ***


2:11

B
--------------------------------------------------------------------|
--------------------------------------------------------------------|
--------------------------------------------------------------------|
--------------------------------------------------------5-----7---7-|
-8-8-8------7--7--7--------------------8-8-8------7-----------------|
-7-7-7-0-0-10-10-10-0-0-0-0-0-0000-0-0-7-7-7-0-0-10-0-3---3-5---5---|
         *            * *   * ****   *         *    *

------------------------------------------------------------|
------------------------------------------------------------|
------------------------------------------------------------|
------------------------------------------------------------|
-8-8-8------7--7--7-------------------8-8-8------7-----3----|
-7-7-7-0-0-10-10-10-0-0-0-0-0-0-0-0-0-7-7-7-0-0-10-0-0-3----|
         *            *   *   *   *           *    *


L
----------------------------------------------------------------|
----------------------------------------------------------------|
----------------------------------------------------------------|
------------7---------------------------------------------------|
-0---8-10-------10---8---10-8-7---------773-773---------773-773-|
-0--------0---0----0---0--------333-333---------555-555---------|
          *   *    *   *        *** *** *** *** *** *** *** ***
R
--------------------------------------------------------------|
--------------------------------------------------------------|
--------------------------------------------------------------|
--------------------------------------------------------------|
-0---5-7----8---7---5---7-5-3---------773-773---------773-773-|
-0--------0---0---0---0-------333-333---------555-555---------|
          *   *   *   *       *** *** *** *** *** *** *** ***

B
-----------------------------------------------------|
-----------------------------------------------------|
-----------------------------------------------------|
-----------------------------------------------------|
-000-000----000-000----3----773-773--5----773-773----|
-000-000----000-000----3-------------5---------------|
 *** ***    *** ***         *** ***       *** ***

L
----------------------------------------------------------------|
----------------------------------------------------------------|
----------------------------------------------------------------|
------------7---------------------------------------------------|
-0---8-10-------10---8---10-8-7---------773-773---------773-773-|
-0--------0---0----0---0--------333-333---------555-555---------|
          *   *    *   *        *** *** *** *** *** *** *** ***
R
--------------------------------------------------------------|
--------------------------------------------------------------|
--------------------------------------------------------------|
--------------------------------------------------------------|
-0---5-7----8---7---5---7-5-3---------773-773---------773-773-|
-0--------0---0---0---0-------333-333---------555-555---------|
          *   *   *   *       *** *** *** *** *** *** *** ***

L
------------------------------------------|
------------------------------------------|
------------------------------------------|
------------------------------------------|
-000-000----000-000----3----773-773--5----|
-000-000----000-000----3-------------5----|
 *** ***    *** ***         *** ***   |  
R
------------------------------------------|
------------------------------------------|
------------------------------------------|
----------------------------552-552-------|
-000-000----000-000----3-------------5----|
-000-000----000-000----3-------------5----|
 *** ***    *** ***         *** ***    |


2;46

B
----------------------------------------------------|
----------------------------------------------------|
----------------------------------------------------|
----------------------------------------------------|
-0--0--0--0--0--0--0--0--0--0--0--0-777-777-888-333-|
-0--0--0--0--0--0--0--0--0--0--0--0-----------------|
 *  *  *  *  *  *  *  *  *  *  *  * *** *** *** ***


L
------------------------------------------------------------|
------------------------------------------------------------|
------------------------------------------------------------|
------------------------------------------------------------|
-0--0--0--0000-0--0--0--0000-0--0--0--0--777-777-888-333-0--|
-0--0--0--0000-0--0--0--0000-0--0--0--0------------------0--|
 *| *| *| **** *| *| *| **** *| *| *| *| *** *** *** ***   |

R
--------------------------------------------------------------------|
--------------------------------------------------------------------|
--------------------------------------------------------------------|
--------------------------------------------------------------------|
-0--0--0--0000-0--0--0--0000-0--0--0--0-101010-101010-121212-777-0--|
-0--0--0--0000-0--0--0--0000-0--0--0--0--------------------------0--|
 *| *| *| **** *| *| *| **** *| *| *| *| * * *  * * *  * * * ***   |









|||||||||||||||||||||||||||||||||||||||||||||||||||||||||
|||||||||||||||||||||||||||||||||||||||||||||||||||||||||
|||||||||||||||||||||||||||||||||||||||||||||||||||||||||
|||||||||||||||||||||||||||||||||||||||||||||||||||||||||







LEVIATHAN I

A#-F-A#-D#-G-C


---------------------------------------------------------------------|
---------------------------^----^---------------------------^----^---|
----------5-----------5---5-7-12-7---------5-----------5---5-7-14-7--|
------5-----7-----5-----7--------------5-----7-----5-----7-----------|
-5------8-----5-----8--------------5-----8-----5-----8---------------|
---8------------8--------------------8-----------8-------------------|
   *    *       *   *           T     *   *       *   *          T


0:06

---------------------------------------------------------------|
---------------------------------------------------------------|
---------------------10-9---7------------------------7-5-7-----|
-0-0---0-0---0---0-0--X-X---X---0-0---0-0---0---0-0--X-X-X-----|
-0-0---0-0---0---0-0--8-7---5---0-0---0-0---0---0-0--5-3-5-----|
-0-0---0-0---0---0-0------0-----0-0---0-0---0---0-0------------|
 * *   * *   *   * *      *     * *   * *   *   * *


---------------------------------------------------------------------|
---------------------------^----^---------------------------^----^---|
----------5-----------5---5-7-12-7---------5-----------5---5-7-14-7--|
------5-----7-----5-----7--------------5-----7-----5-----7-----------|
-5------8-----5-----8--------------5-----8-----5-----8---------------|
---8------------8--------------------8-----------8-------------------|
   *    *       *   *   *      T     *   *       *   *   *      T


---------------------------------------------------------------|
---------------------------------------------------------------|
---------------------10-9---7------------------------7-5-7-----|
-0-0---0-0---0---0-0--X-X---X---0-0---0-0---0---0-0--X-X-X-----|
-0-0---0-0---0---0-0--8-7---5---0-0---0-0---0---0-0--5-3-5-----|
-0-0---0-0---0---0-0------0-----0-0---0-0---0---0-0------------|
 * *   * *   *   * *      *     * *   * *   *   * *

---------------------------------------------------|
---------------------------------------------------|
---------5-----------5-----------5-----------5-----|
-----5-----7-----5-----7-----5-----7-----5-----7---|
-5-----8-----5-----8-----5-----8-----5-----8-------|
---8-----------8-----------8-----------8-----------|
   *   *       *   *       *   *       *   *



0:30

L
---------------------------------------------------------------|
---------------------------------------------------------------|
---------------------------------------------------------------|
---------------------------------------------------------------|
-5-----------7-------------8---------------10------------------|
-5-----------7-------------8---------------10------------------|
 *|          *|            *|               *|
R
-------------------------------------------------------__----|
-------------------------------------__-------__------/  \---|
---------_------------_------__-----/  \-----/  \---10-12-14-|
---_----/ \----_-----/ \----/  \---8-10-12-10-12-14----------|
--/ \--5-7-8--/ \---7-8-10-8-10-12---------------------------|
-5-7-8-------7-8-10------------------------------------------|

B
------------------------------------------------------------------------|
------------------------------------------------------------------------|
-------------------------------------------------------_------------_---|
-------------------------------------------------_----/ \----_-----/ \--|
------------------------------------------------/ \--5-7-8--/ \---7-8-10|
0-0-0---0-0-0---0-0-0---0-0-0---0-0-0---0-0-0--5-7-8-------7-8-10-------|
* * *   * * *   * * *   * * *   * * *   * * * 


-------------------------------|
-------------------------------|
-------------------------------|
-------------------------------|
-------------------------------|
-0-0-0---0-0-0---0-0-0---0-0-0-|
 * * *   * * *   * * *   * * * 

-------------------------------------------------------__----|
-------------------------------------__-------__------/  \---|
---------_------------_------__-----/  \-----/  \---10-12-14-|
---_----/ \----_-----/ \----/  \---8-10-12-10-12-14----------|
--/ \--5-7-8--/ \---7-8-10-8-10-12---------------------------|
-5-7-8-------7-8-10------------------------------------------|


------------------------------------------------------------------------|
------------------------------------------------------------------------|
-------------------------------------------------------_------------_---|
-------------------------------------------------_----/ \----_-----/ \--|
------------------------------------------------/ \--5-7-8--/ \---7-8-10|
0-0-0---0-0-0---0-0-0---0-0-0---0-0-0---0-0-0--5-7-8-------7-8-10-------|
* * *   * * *   * * *   * * *   * * *   * * * 


-------------------------------|
-------------------------------|
-------------------------------|
-------------------------------|
-------------------------------|
-0-0-0---0-0-0---0-0-0---0-0-0-|
 * * *   * * *   * * *   * * * 

-------------------------------------------------------__----|
-------------------------------------__-------__------/  \---|
---------_------------_------__-----/  \-----/  \---10-12-14-|
---_----/ \----_-----/ \----/  \---8-10-12-10-12-14----------|
--/ \--5-7-8--/ \---7-8-10-8-10-12---------------------------|
-5-7-8-------7-8-10------------------------------------------|



0:50

--------------------------------------------------------------|
--------------------------------------------------------------|
---------------------------------10-7---7-5---9-7--10-9-5-7---|
----------------------------------X-X---X-X---X-X---X-X-X-X---|
---12---10---8---10-7---8---10----8-5---5-3---7-5---8-7-3/5---|
-0----0----0---0------0---0----0------0-----0-----0-----------|
 *    *    *   *      *   *    *      *     *     *

--------------------------------------------------------------|
--------------------------------------------------------------|
---------------------------------10-7---7-5---9-7--10-9-5-7---|
----------------------------------X-X---X-X---X-X---X-X-X-X---|
---12---10---8---10-7---8---10----8-5---5-3---7-5---8-7-3/5---|
-0----0----0---0------0---0----0------0-----0-----0-----------|
 *    *    *   *      *   *    *      *     *     *

--------------------------------------------------------------|
--------------------------------------------------------------|
---------------------------------10-7---7-5---9-7--10-9-5-7---|
----------------------------------X-X---X-X---X-X---X-X-X-X---|
---12---10---8---10-7---8---10----8-5---5-3---7-5---8-7-3/5---|
-0----0----0---0------0---0----0------0-----0-----0-----------|
 *    *    *   *      *   *    *      *     *     *

---------------------------------------------------------|
---------------------------------------------------------|
---------------------------------10-7---7-5---9-7--10-9--|
----------------------------------X-X---X-X---X-X---X-X--|
---12---10---8---10-7---8---10----8-5---5-3---7-5---8-7--|
-0----0----0---0------0---0----0------0-----0-----0------|
 *    *    *   *      *   *    *      *     *     *



1:09

L
------------------------------------------------------------|
------------------------------------------------------------|
10-9---7-----------------------7-5-7------------------------|
-X-X---X-----------------------X-X-X------------------------|
-8-7---5--0-0---0-0---0---0-0--5-3-5--0-0---0-0---0---0-0---|
-----0----0-0---0-0---0---0-0---------0-0---0-0---0---0-0---|
     *    * *   * *   *   * *         * *   * *   *   * * 
R
------------------------------------------------------------|
------------------------------------------------------------|
-------7-----------------------7-5-7------------------------|
-------X-----------------------X-X-X------------------------|
-------5--0-0---0-0---0---0-0--5-3-5--0-0---0-0---0---0-0---|
----------0-0---0-0---0---0-0---------0-0---0-0---0---0-0---|
          * *   * *   *   * *         * *   * *   *   * * 

B
------------------------------------------------------------|
------------------------------------------------------------|
10-9---7-----------------------7-5-7------------------------|
-X-X---X-----------------------X-X-X------------------------|
-8-7---5--0-0---0-0---0---0-0--5-3-5--0-0---0-0---0---0-0---|
-----0----0-0---0-0---0---0-0---------0-0---0-0---0---0-0---|
     *    * *   * *   *   * *         * *   * *   *   * * 


1:22

L
------------------------------------------------------------|
------------------------------------------------------------|
10-9---7-----------------------7-5-7------------------------|
-X-X---X-----------------------X-X-X------------------------|
-8-7---5--0-0---00000--0-0-0---5-3-5--0-0---0-0-0---00000---|
-----0----0-0---00000--0-0-0----------0-0---0-0-0---00000---|
     *    * *   *****  * * *          * *   * * *   ***** 
R
------------------------------------------------------------|
------------------------------------------------------------|
1412--10----------------------10-9-10-----------------------|
-X-X---X-----------------------X-X-X------------------------|
1210---8--0-0---00000--0-0-0---8-7-8--0-0---0-0-0---00000---|
-----0----0-0---00000--0-0-0----------0-0---0-0-0---00000---|
     *    * *   *****  * * *          * *   * * *   ***** 

L
---------------------------------------------------|
---------------------------------------------------|
10-9---7-----------------------7-5-7---------------|
-X-X---X-----------------------X-X-X---------------|
-8-7---5--0-0---00000--0-0-0---5-3-5--0-0---0-0-0--|
-----0----0-0---00000--0-0-0----------0-0---0-0-0--|
     *    * *   *****  * * *          * *   * * *   
R
---------------------------------------------------|
---------------------------------------------------|
1412--10----------------------10-9-10--------------|
-X-X---X-----------------------X-X-X---------------|
1210---8--0-0---00000--0-0-0---8-7-8--0-0---0-0-0--|
-----0----0-0---00000--0-0-0----------0-0---0-0-0--|
     *    * *   *****  * * *          * *   * * * 



1:34

L
---------------------------------------------------------------|
---------------------------------------------------------------|
---------------------------------------------------------------|
---------------------------------------------------------------|
-5-----------7-------------8---------------10------------------|
-5-----------7-------------8---------------10------------------|
 *|          *|            *|               *|
R
-------------------------------------------------------__----|
-------------------------------------__-------__------/  \---|
---------_------------_------__-----/  \-----/  \---10-12-14-|
---_----/ \----_-----/ \----/  \---8-10-12-10-12-14----------|
--/ \--5-7-8--/ \---7-8-10-8-10-12---------------------------|
-5-7-8-------7-8-10------------------------------------------|

 

B
--------------------------------------------------------------|
--------------------------------------------------------------|
---------------------------------10-7---7-5---9-7--10-9-5-7---|
----------------------------------X-X---X-X---X-X---X-X-X-X---|
---12---10---8---10-7---8---10----8-5---5-3---7-5---8-7-3/5---|
-0----0----0---0------0---0----0------0-----0-----0-----------|
 *    *    *   *      *   *    *      *     *     *

--------------------------------------------------------------|
--------------------------------------------------------------|
---------------------------------10-7---7-5---9-7--10-9-5-7---|
----------------------------------X-X---X-X---X-X---X-X-X-X---|
---12---10---8---10-7---8---10----8-5---5-3---7-5---8-7-3/5---|
-0----0----0---0------0---0----0------0-----0-----0-----------|
 *    *    *   *      *   *    *      *     *     *


1:45

L
--------------------------------------------------------------|
--------------------------------------------------------------|
---------------------------------10-7---7-5---9-7--10-9-5-7---|
----------------------------------X-X---X-X---X-X---X-X-X-X---|
---12---10---8---10-7---8---10----8-5---5-3---7-5---8-7-3/5---|
-0----0----0---0------0---0----0------0-----0-----0-----------|
 *    *    *   *      *   *    *      *     *     *
R
---------------------------------------------------------------|
---------------------------------------------------------------|
--------------------------------------10-9---1210---14-12-910--|
---------------------------------------X-X----X-X----X--X-X-X--|
---------------------------------------8-7---10-8---12-10-7/8--|
-0-000--------------------00000------------0------0------------|
 * ***                    *****            *      *

L
--------------------------------------------------------------|
--------------------------------------------------------------|
---------------------------------10-7---7-5---9-7--10-9-5-7---|
----------------------------------X-X---X-X---X-X---X-X-X-X---|
---12---10---8---10-7---8---10----8-5---5-3---7-5---8-7-3/5---|
-0----0----0---0------0---0----0------0-----0-----0-----------|
 *    *    *   *      *   *    *      *     *     *
R
---------------------------------------------------------------|
---------------------------------------------------------------|
--------------------------------------10-9---1210---14-12-910--|
---------------------------------------X-X----X-X----X--X-X-X--|
---------------------------------------8-7---10-8---12-10-7/8--|
-0-000--------------------00000------------0------0------------|
 * ***                    *****            *      *


1:54

L
--------------------------------------------------------------|
--------------------------------------------------------------|
---------------------------------10-7---7-5---9-7--10-9-5-7---|
----------------------------------X-X---X-X---X-X---X-X-X-X---|
---12---10---8---10-7---8---10----8-5---5-3---7-5---8-7-3/5---|
-0----0----0---0------0---0----0------0-----0-----0-----------|
 *    *    *   *      *   *    *      *     *     *
R
---------------------------------------------------------------|
---------------------------------------------------------------|
----------------------------------7-5--10-9---1210---14-12-910-|
----------------------------------X-X---X-X----X-X----X--X-X-X-|
---8----7----5---7-3----5---7-----5-3---8-7---10-8---12-10-7/8-|
-0----0----0---0------0---0----0------0-----0------0-----------|
 *    *    *   *      *   *    *      *     *      *

L
--------------------------------------------------------------|
--------------------------------------------------------------|
---------------------------------10-7---7-5---9-7--10-9-5-7---|
----------------------------------X-X---X-X---X-X---X-X-X-X---|
---12---10---8---10-7---8---10----8-5---5-3---7-5---8-7-3/5---|
-0----0----0---0------0---0----0------0-----0-----0-----------|
 *    *    *   *      *   *    *      *     *     *
R
---------------------------------------------------------------|
---------------------------------------------------------------|
----------------------------------7-5--10-9---1210---14-12-910-|
----------------------------------X-X---X-X----X-X----X--X-X-X-|
---8----7----5---7-3----5---7-----5-3---8-7---10-8---12-10-7/8-|
-0----0----0---0------0---0----0------0-----0------0-----------|
 *    *    *   *      *   *    *      *     *      *



2:03

---------------------------------------------------------------------|
---------------------------^----^---------------------------^----^---|
----------5-----------5---5-7-12-7---------5-----------5---5-7-14-7--|
------5-----7-----5-----7--------------5-----7-----5-----7-----------|
-5------8-----5-----8--------------5-----8-----5-----8---------------|
---8------------8--------------------8-----------8-------------------|
   *    *       *   *   *      T     *   *       *   *   *      T

---------------------------------------------------------------------|
---------------------------^----^---------------------------^----^---|
----------5-----------5---5-7-12-7---------5-----------5---5-7-14-7--|
------5-----7-----5-----7--------------5-----7-----5-----7-----------|
-5------8-----5-----8--------------5-----8-----5-----8---------------|
---8------------8--------------------8-----------8-------------------|
   *    *       *   *   *      T     *   *       *   *   *      T


2:16

-----------------------------------------------------|
-----------------------------------------------------|
-----------------------------------------------------|
-0-0---0-0---0-------------0-0---0-0---0-------------|
-0-0---0-0---0-------------0-0---0-0---0-------------|
-0-0---0-0---0-------------0-0---0-0---0-------------|
 * *   * *   *             * *   * *   *

--------------------------------------------|
--------------------------------------------|
--------------------------------------------|
-0-0---0-0---0-------------0-0---0-0---0----|
-0-0---0-0---0-------------0-0---0-0---0----|
-0-0---0-0---0-------------0-0---0-0---0----|
 * *   * *   *             * *   * *   * |



2;30

R
------------------------------------------------------------|
------------------------------------------------------------|
10-9---7-----------------------7-5-7------------------------|
-X-X---X-----------------------X-X-X------------------------|
-8-7---5--0-0---0-0---0---0-0--5-3-5--0-0---0-0---0---0-0---|
-----0----0-0---0-0---0---0-0---------0-0---0-0---0---0-0---|
     *    * *   * *   *   * *         * *   * *   *   * * 
L
------------------------------------------------------------|
------------------------------------------------------------|
-------7-----------------------7-5-7------------------------|
-------X-----------------------X-X-X------------------------|
-------5--0-0---0-0---0---0-0--5-3-5--0-0---0-0---0---0-0---|
----------0-0---0-0---0---0-0---------0-0---0-0---0---0-0---|
          * *   * *   *   * *         * *   * *   *   * * 

B
------------------------------------------------------------|
------------------------------------------------------------|
10-9---7-----------------------7-5-7------------------------|
-X-X---X-----------------------X-X-X------------------------|
-8-7---5--0-0---0-0---0---0-0--5-3-5--0-0---0-0---0---0-0---|
-----0----0-0---0-0---0---0-0---------0-0---0-0---0---0-0---|
     *    * *   * *   *   * *         * *   * *   *   * * 

L
------------------------------------------------------------|
------------------------------------------------------------|
10-9---7-----------------------7-5-7------------------------|
-X-X---X-----------------------X-X-X------------------------|
-8-7---5--0-0---00000--0-0-0---5-3-5--0-0---0-0-0---00000---|
-----0----0-0---00000--0-0-0----------0-0---0-0-0---00000---|
     *    * *   *****  * * *          * *   * * *   ***** 
R
------------------------------------------------------------|
------------------------------------------------------------|
1412--10----------------------10-9-10-----------------------|
-X-X---X-----------------------X-X-X------------------------|
1210---8--0-0---00000--0-0-0---8-7-8--0-0---0-0-0---00000---|
-----0----0-0---00000--0-0-0----------0-0---0-0-0---00000---|
     *    * *   *****  * * *          * *   * * *   ***** 


L
---------------------------------------------------|
---------------------------------------------------|
10-9---7-----------------------7-5-7---------------|
-X-X---X-----------------------X-X-X---------------|
-8-7---5--0-0---00000--0-0-0---5-3-5---------------|
-----0----0-0---00000--0-0-0-----------------------|
     *    * *   *****  * * *            
R
---------------------------------------------------|
---------------------------------------------------|
1412--10----------------------10-9-10--------------|
-X-X---X-----------------------X-X-X---------------|
1210---8--0-0---00000--0-0-0---8-7-8---------------|
-----0----0-0---00000--0-0-0-----------------------|
     *    * *   *****  * * *          


2:57

L
------------------------------------------------------------|
------------------------------------------------------------|
-5----3------7---------5----3-------7-----------5----3------|
-X----X------X---------X----X-------X-----------X----X------|
-3----1------5---------3----1-------5-----------3----1------|
------------------------------------------------------------|
R
----------------------------------------8-------------------|
----------------------------------------X-------------------|
-9----7-----10---------9----7------10--101010---9--9--7--7--|
-X----X------X---------X----X-------X---X-X-X---X--X--X--X--|
-7----5------8---------7----5-------8--(8-8-8)--7--7--5--5--|
------------------------------------------------------------|


L
-------------------------------------------------------------------|
-------------------------------------------------------------------|
-7---------5----3--------------------------------------------------|
-X---------X----X--------------------------------------------------|
-5---------3----1--------------------------------------------------|
-------------------000-0-000-0-000-0-000-0-000-0-000-0-000-0-000-0-|
                   *** * *** * *** * *** * *** * *** * *** * *** *

-------------------------------------------------------------------|
-------------------------------------------------------------------|
10--------9----7---------------------------------------------------|
-X--------X----X---------------------------------------------------|
-8--------7----5---0-----------------------------------------------|
-------------------0-----------------------------------------------|



3:17


B                                                L
---------------------------------------------------------------|
---------------------------------------------------------------|
---------------------------------------------------------------|
---------------------------------------------------------------|
---------------------------------------------------------------|
-000-0-000-0-000-0-000-0-000-0-000-0-000-0-000-0-000-0-000-0---|
 *** * *** * *** * *** * *** * *** * *** * *** * *** * *** *


---------------------------------------------------------------|
---------------------------------------------------------------|
---------------------------------------------------------------|
---------------------------------------------------------------|
---------------------------------------------------------------|
-000-0-000-0-000---0-0-0---0-0---000-0-000-0-000---0-0-0---0-0-|
 *** * *** * ***   * * *   * *   *** * *** * ***   * * *   * *

---------------------------------------------------------------|
---------------------------------------------------------------|
---------------------------------------------------------------|
---------------------------------------------------------------|
---------------------------------------------------------------|
-000-0-000-0-000---0-0-0---0-0---000-0-000-0-000---0-0-0---0-0-|
 *** * *** * ***   * * *   * *   *** * *** * ***   * * *   * *




-----------------------------------------------------------------|
-----------------------------------------------------------------|
-----------------------------------------------------------------|
-----------------------------------------------------------------|
-----------------------------------------------------------------|
-000-0-000-0-000-0-000-0-000-000-333-3-555-5-111-1-333-3-111-333-|
 *** * *** * *** * *** * *** *** *** * *** * *** * *** * *** ***


L
---------------------------------------------------------------------|
---------------------------------------------------------------------|
---------------------------------------------------------------------|
-----------------------------------------------------------------0---|
-----------------------------------------------------------------0---|
-000-0-000-0-000-0-000-0-000-000-333-3-555-5-111-1-333-3-111-333-0---|
 *** * *** * *** * *** * *** *** *** * *** * *** * *** * *** ***   |
R
---------------------------------------------------------------------|
---------------------------------------------------------------------|
---------------------------------------------------------------------|
-----------------------------------------------------------------0---|
-----------------------------------------------------------------0---|
-000-0-000-0-000-0-000-0-000-000-777-7-888-8-555-5-777-7-555-555-0---|
 *** * *** * *** * *** * *** *** *** * *** * *** * *** * *** ***   |






|||||||||||||||||||||||||||||||||||||||||||||||||||||||||
|||||||||||||||||||||||||||||||||||||||||||||||||||||||||
|||||||||||||||||||||||||||||||||||||||||||||||||||||||||
|||||||||||||||||||||||||||||||||||||||||||||||||||||||||







SET TO DESTROY

A#-F-A#-D#-G-C







----------------------------------|
----------------------------------|
----------------------------------|
-3--------------------------------|
-3--------------------------------|
-3--------------------------------|

------------------------------------------------------------|
------------------------------------------------------------|
------------------------------------------------------------|
------------------------------------------------------------|
---5-------8-------7-------3----------777---888---777---333-|
-0---0-0-0---0-0-0---0-0-0---0-0-0-333---555---777---333----|
 *   * * *   * * *   * * *   * *

-------------------------------------------------------|
-------------------------------------------------------|
-------------------------------------------------------|
---------------------------------------------------3-5-|
--5-------8-------7-------3-------5------7---------3-5-|
----0-0-0---0-0-0---0-0-0---0-0-0--88-----1010-----3-5-|
    * * *   * * *   * * *   * *


-----------------------------------------------------------|
-----------------------------------------------------------|
-----------------------------------------------------------|
-----------------------------------------------------------|
--5-------8-------7-------3----------777---888---777---333-|
----0-0-0---0-0-0---0-0-0---0-0-0-333---555---777---333----|
    * * *   * * *   * * *   * *

-------------------------------------------------------|
-------------------------------------------------------|
-------------------------------------------------------|
---------------------------------------------------3-5-|
--5-------8-------7-------3-------5------7---------3-5-|
----0-0-0---0-0-0---0-0-0---0-0-0--88-----1010-----3-5-|
    * * *   * * *   * * *   * *


--------------------------------------------------------|
--------------------------------------------------------|
--------------------------------------------------------|
-0--------------------------0-----P--------p------0000--|
-0--------------------------0------S--------s-----0000--|
-0--------------------------0--------\-------\----0000--|


-----------------------------------------------------------|
-----------------------------------------------------------|
-----------------------------------------------------------|
-----------------------------------------------------------|
--5-------8-------7-------3----------777---888---777---333-|
----0-0-0---0-0-0---0-0-0---0-0-0-333---555---777---333----|
    * * *   * * *   * * *   * *

-------------------------------------------------------|
-------------------------------------------------------|
-------------------------------------------------------|
---------------------------------------------------3-5-|
--5-------8-------7-------3-------5------7---------3-5-|
----0-0-0---0-0-0---0-0-0---0-0-0--88-----1010-----3-5-|
    * * *   * * *   * * *   * *


-----------------------------------------------------|
-----------------------------------------------------|
-----------------------------------------------------|
-0--------------------------0-----P--------p---------|
-0--------------------------0------S--------s--------|
-0--------------------------0--------\-------\-------|





-------------------------------------------------------------|
-------------------------------------------------------------|
-------------------------------------------------------------|
-0---0-0-0---0-0-0---0-0-0-0-0---0-0-0---0-0-0---0---0-0-0---|
-0---0-0-0---0-0-0---0-0-0-0-0---0-0-0---0-0-0---0---0-0-0---|
-0---0-0-0---0-0-0---0-0-0-0-0---0-0-0---0-0-0---0---0-0-0---|
     * * *   * * *   * * * * *   * * *   * * *       * * *

-------------------------------------------------------------|
-------------------------------------------------------------|
-------------------------------------------------------------|
-0---0-0-0---0-0-0---0-0-0-0-0---0-0-0---0-0-0---0---0-0-0---|
-0---0-0-0---0-0-0---0-0-0-0-0---0-0-0---0-0-0---0---0-0-0---|
-0---0-0-0---0-0-0---0-0-0-0-0---0-0-0---0-0-0---0---0-0-0---|
     * * *   * * *   * * * * *   * * *   * * *       * * *

-------------------------------------------------------------|
-------------------------------------------------------------|
-------------------------------------------------------------|
-0---0-0-0---0-0-0---0-0-0-0-0---0-0-0---0-0-0---0---0-0-0---|
-0---0-0-0---0-0-0---0-0-0-0-0---0-0-0---0-0-0---0---0-0-0---|
-0---0-0-0---0-0-0---0-0-0-0-0---0-0-0---0-0-0---0---0-0-0---|
     * * *   * * *   * * * * *   * * *   * * *       * * *

-------------------------------------------------------------|
-------------------------------------------------------------|
-------------------------------------------------------------|
-0---0-0-0---0-0-0---0-0-0-0-0---0-0-0---0-0-0---0---0-0-0---|
-0---0-0-0---0-0-0---0-0-0-0-0---0-0-0---0-0-0---0---0-0-0---|
-0---0-0-0---0-0-0---0-0-0-0-0---0-0-0---0-0-0---0---0-0-0---|
     * * *   * * *   * * * * *   * * *   * * *       * * *


-------------------------------------------------------------|
-------------------------------------------------------------|
-------------------------------------------------------------|
-1-0-0-0---------7-0-0-0---------1-0-0-0-----------7-0-0-0---|
-1-0-0-0---------7-0-0-0---------1-0-0-0-----------7-0-0-0---|
-1-0-0-0---------7-0-0-0---------1-0-0-0-----------7-0-0-0---|
   * *             * *             * *               * *

----------------------------------|
----------------------------------|
----------------------------------|
-3--------------------------------|
-3--------------------------------|
-3--------------------------------|

-------------------------------------|
-------------------------------------|
-------------------------------------|
--------------------------------0----|
---5-------8----------777---333-0----|
-0---0-0-0---0-0-0-777---333----0-|--|
 *   * * *   * * *  

comments
We did not receive enough feedback on this tab! Please rate:
print report bad tab
1 2 3 4 5
I want to post or [tab]
guest
You may want to rate the tab now too:
select rating
Please do not post tabs as comments. Select "correction" instead!