Oops, an error
Loading. Please wait.

Deliver Me Tab

ver2
ver2

Whole song

More versions @911Tabs.com
4,501 views 66 this week
1 commentread comment
1 2 3 4 5
accurate
x 5
Autoscroll
+/-
esc
set tempo
stop
Contributor
WARNING: You are trying to view
                                    content from Ultimate-Guitar.com
                                    in an unauthorized application,
                                    which is prohibited.

                                    Please use an official Ultimate
                                    Guitar Tabs application for iPhone,
                                    iPad or Android to access legitimate
                                    chords, guitar, bass, and drum tabs
                                    from Ultimate-Guitar.com database.

                                    Type "ultimate guitar tabs" in Apple
                                    App Store's or Android Market's
                                    search to find the application.
PARKWAY DRIVE

DELIVER ME

A#-F-A#-D#-G-C


TABBED BY andherembrace


B
----------------------------------------------------------------|
----------------------------------------------------------------|
----------------------------------------------------------------|
----------------------------------------------------------------|
000-000-000-000-111-111-333-333-000-000-000-000-111-111-333-333-|
000-000-000-000-333-333-555-555-000-000-000-000-333-333-555-555-|
*** *** *** *** *** *** *** *** *** *** *** *** *** *** *** ***

----------------------------------------------------------------|
----------------------------------------------------------------|
----------------------------------------------------------------|
----------------------------------------------------------------|
000-000-000-000-111-111-333-333-000-000-000-000-111-111-333-333-|
000-000-000-000-333-333-555-555-000-000-000-000-333-333-555-555-|
*** *** *** *** *** *** *** *** *** *** *** *** *** *** *** ***



0:16

-----------------------------------------------------------------|
-----------------------------------------------------------------|
-----------------------------------------------------------------|
-----------------------------------------------------------------|
-88--88--88--88--55--55--77--77--88--88--88--88--55--55--77--77--|
---0---0---0---0---3---3---5---5---0---0---0---0---3---3---5---5-|
 *** *** *** *** *** *** *** *** *** *** *** *** *** *** *** ***

-----------------------------------------------------------------|
-----------------------------------------------------------------|
-----------------------------------------------------------------|
-----------------------------------------------------------------|
-88--88--88--88--55--55--77--77--88--88--88--88--55--55--77--77--|
---0---0---0---0---3---3---5---5---0---0---0---0---3---3---5---5-|
 *** *** *** *** *** *** *** *** *** *** *** *** *** *** *** ***



0:30

-----------------------------------------------------|
-----------------------------------------------------|
-----------------------------------------------------|
-777777---777777-------------------------------------|
-------------------101010101010----101010101010------|
--------8--------8--------------10--------------7----|

-------------------------------------|
-------------------------------------|
-------------------------------------|
-------------------------------------|
-------------------------------------|
-0000000|---00000|---00000|---00000|-|
 *******    *****    *****    *****


-----------------------------------------------------------|
-----------------RPH---------------------------------------|
-----------------------------------------------------------|
-777777---777777-------------------------------------------|
-----------------------------------------------------------|
--------8--------8\----0000000---00000--00000--00000--00000|
                       *******   *****  *****  *****  *****

L
---------------------------------------|
---------------------------------------|
---------------------------------------|
---------------------------------------|
-888888---888888---777777---777777-----|
--------5--------5--------7--------3---|

R
-----------------------------------------------------|
-----------------------------------------------------|
-----------------------------------------------------|
-777777---777777-------------------------------------|
-------------------101010101010----101010101010------|
--------8--------8--------------10--------------7----|

B
-------------------------------------|
-------------------------------------|
-------------------------------------|
-------------------------------------|
-------------------------------------|
-0000000|---00000|---00000|---00000|-|
 *******    *****    *****    *****

L
---------------------|
---------------------|
---------------------|
---------------------|
-888888---888888-----|
--------5--------5---|

R
---------------------|
---------------------|
---------------------|
-777777---777777-----|
---------------------|
--------8--------8---|

B
---------------------------------------------|
---------------------------------------------|
---------------------------------------------|
---------------------------------------0-----|
---------------------------------------0-----|
-0000000---00000--00000--00000--00000--0-----|
 *******   *****  *****  *****  *****


1:01

L
--------------------------|
--------------------------|
---------5-----7-----9----|
-0-------X-----X-----X----|
-0-------3-----5-----7----|
-0------------------------|

R
--------------------------|
--------------------------|
---------9----10-----12---|
-0-------X-----X------X---|
-0-------7-----8-----10---|
-0------------------------|

B
----------------------------------------------------------------------|
----------------------------------------------------------------------|
----------------------------------------------------------------------|
----------------------------------------------------------------------|
-8-55555-8-55555-8-555-8-55555-8-55555-8-555-10-77777-10-77777-10-777-|
----------------------------------------------------------------------|

-------------------------------------------------------------------|
-------------------------------------------------------------------|
-------------------------------------------------------------------|
-------------------------------------------------------------------|
-7-33333-7-33333-7-333-8-55555-8-55555-8-555-8-55555-8-55555-8-555-|
-------------------------------------------------------------------|

L
------------------|
------------------|
--------7----5----|
-3------X----X----|
-3------5----3----|
-3----------------|

R
------------------|
------------------|
-------10----9----|
-3------X----X----|
-3------8----7----|
-3----------------|


1:15

B
----------------------------------------------------------------------|
----------------------------------------------------------------------|
----------------------------------------------------------------------|
----------------------------------------------------------------------|
-8-55555-8-55555-8-555-8-55555-8-55555-8-555-10-77777-10-77777-10-777-|
----------------------------------------------------------------------|

-------------------------------------------------------------------|
-------------------------------------------------------------------|
-------------------------------------------------------------------|
-------------------------------------------------------------------|
-7-33333-7-33333-7-333-8-55555-8-55555-8-555-8-55555-8-55555-8-555-|
-------------------------------------------------------------------|

L
---------------------|
---------------------|
----5-----7-----9----|
----X-----X-----X----|
----3-----5-----7----|
---------------------|

R
--------------------|
--------------------|
---9----10-----12---|
---X-----X------X---|
---7-----8-----10---|
--------------------|



1:25

1
----0-----0----0------------8------8-------------|
------6-----6--6--------------6------6-----------|
--7-----7------7----------------9------9---------|
-------------------------------------------------|
-------------------------------------------------|
-------------------------------------------------|

2
--------------------------------------------------|
--------------------------------------------------|
--------------------------------------------------|
-8------10------0-----------8------10------0------|
-8------10------0-----------8------10------0------|
-8------10------0-----------8------10------0------|


1
----0-----0----0------------8------8-------------|
------6-----6--6--------------6------6-----------|
--7-----7------7----------------9------9---------|
-------------------------------------------------|
-------------------------------------------------|
-------------------------------------------------|

2
----------------------------------------------|
----------------------------------------------|
----------------------------------------------|
-8------10------0-----------8------10---------|
-8------10------0-----------8------10---------|
-8------10------0-----------8------10---------|



1:44

1
-8--------------------------------------------------------------------|
--6-------------------------------------------------------------------|
---9------------------------------------------------------------------|
----------------------------------------------------------------------|
----------------------------------------------------------1-1-1-3-3-3-|
----------------------------------------------------------3-3-3-5-5-5-|
                                                          * * * * * * 
2
-----------------------------------------------------------------------|
-----------------------------------------------------------------------|
-----------------------------------------------------------------------|
-----------------------------------------------------------------------|
-880----880----880----880---7--7--7---880----880----880----1-1-1-3-3-3-|
-770----770----770----770--10-10-10---770----770----770----3-3-3-5-5-5-|
 ***    ***    ***    ***   *  *  *   ***    ***    ***    * * * * * *



1:52

1
----------------------------------------------------------------------|
----------------------------------------------------------------------|
----------------------------------------------------------------------|
-0--------------------------------------------------------------------|
-0------------------------121212-----880----880----880----1-1-1-3-3-3-|
-0-------------------------8-8-8-----770----770----770----3-3-3-5-5-5-|
                           * * *     ***    ***    ***    * * * * * * 
2
----------------------------------------------------------------------|
----------------------------------------------------------------------|
----------------------------------------------------------------------|
----------------------------------------------------------------------|
-880----880----880----880---7--7--7--880----880----880----1-1-1-3-3-3-|
-770----770----770----770--10-10-10--770----770----770----3-3-3-5-5-5-|
 ***    ***    ***    ***   *  *  *  ***    ***    ***    * * * * * *




----------------------------------------------------------------------|
----------------------------------------------------------------------|
----------------------------------------------------------------------|
----------------------------------------------------------------------|
-880----880----880----880---7--7--7--880----880----880----1-1-1-3-3-3-|
-770----770----770----770--10-10-10--770----770----770----3-3-3-5-5-5-|
 ***    ***    ***    ***   *  *  *  ***    ***    ***    * * * * * *

----------------------------------------------------------------------|
----------------------------------------------------------------------|
----------------------------------------------------------------------|
----------------------------------------------------------------------|
-880----880----880----880---7--7--7--880----880----880----1-1-1-3-3-3-|
-770----770----770----770--10-10-10--770----770----770----3-3-3-5-5-5-|
 ***    ***    ***    ***   *  *  *  ***    ***    ***    * * * * * *

---------------------------------------------------------------|
---------------------------------------------------------------|
---------------------------------------------------------------|
-0-------------------------------------------------------------|
-0-------------------------------------------------------------|
-0-------------------------------------------------------------|



2:24

                   _
-----0------------/ \------------------0--------8---------------------|
-------6-------5-5-6-5-------------------6---------------8------------|
---7-------------------5-5/7---------7---------------------10-9~--7-5-|
-----------------------------7~---------------------------------------|
----------------------------------------------------------------------|
0----------8----------------------0---------8--------10---------------|
                                                       HOLD
                   _
-----0------------/ \------------------0--------8---------------------|
-------6-------5-5-6-5-------------------6---------------8------------|
---7-------------------5-5/7---------7---------------------10-9~--7-5-|
-----------------------------7~---------------------------------------|
----------------------------------------------------------------------|
0----------8----------------------0---------8--------10---------------|


2:45    

1                  
----------------------------------------------|
----------------------------------------------|
----------------------------------------------|
-0-----------------0-0------------------------|
-0-----------------0-0------------------------|
-0-----------------0-0------------------------|
                   * *
2
------0---------0---------0----------^--------|
--------6---------6---------6----5--6-5--^----|
----7---------7---------7---------------7-5---|
----------------------------------------------|
----------------------------------------------|
-0---------8---------10-----------------------|

1                  
----------------------------------------------|
----------------------------------------------|
----------------------------------------------|
-0-------------------0-0----------------------|
-0-------------------0-0----------------------|
-0-------------------0-0----------------------|
                     * *
2
------0---------0-----------------------|
--------6---------6-----6---5~----------|
----7---------7-----------------7-5-----|
----------------------------------------|
----------------------------------------|
-0---------8--------3-----3-------------|


1                  
----------------------------------------------|
----------------------------------------------|
----------------------------------------------|
-0-----------------0-0------------------------|
-0-----------------0-0------------------------|
-0-----------------0-0------------------------|
                   * *
2
------0---------0---------0----------^--------|
--------6---------6---------6----5--6-5--^----|
----7---------7---------7---------------7-5---|
----------------------------------------------|
----------------------------------------------|
-0---------8---------10-----------------------|

1                  
----------------------------------------------|
----------------------------------------------|
----------------------------------------------|
-0-------------------0-0----------------------|
-0-------------------0-0----------------------|
-0-------------------0-0----------------------|
                     * *
2
------0---------0-----------------------|
--------6---------6-----6---5~----------|
----7---------7-----------------7-5-----|
----------------------------------------|
----------------------------------------|
-0---------8--------3-----3-------------|




3:06

1
-------------------------------------^---------|
---------------------------------8-10-8---^----|
----------------------------------------10-9---|
-0---------8---------10------------------------|
-0---------8---------10------------------------|
-0---------8---------10------------------------|

2
------0---------0---------0----------^--------|
--------6---------6---------6----5--6-5--^----|
----7---------7---------7---------------7-5---|
----------------------------------------------|
----------------------------------------------|
-0---------8---------10-----------------------|

1
--------------------------------------|
------------------------/10-8---------|
------------------------------10-9----|
-0---------8--------3-----------------|
-0---------8--------3-----------------|
-0---------8--------3-----------------|

2
------0---------0-----------------------|
--------6---------6-----6---5~----------|
----7---------7-----------------7-5-----|
----------------------------------------|
----------------------------------------|
-0---------8--------3-----3-------------|


1
-------------------------------------^---------|
---------------------------------8-10-8---^----|
----------------------------------------10-9---|
-0---------8---------10------------------------|
-0---------8---------10------------------------|
-0---------8---------10------------------------|

2
------0---------0---------0----------^--------|
--------6---------6---------6----5--6-5--^----|
----7---------7---------7---------------7-5---|
----------------------------------------------|
----------------------------------------------|
-0---------8---------10-----------------------|

1
--------------------------------------|
------------------------/10-8---------|
------------------------------10-9----|
-0---------8--------3-----------------|
-0---------8--------3-----------------|
-0---------8--------3-----------------|

2
------0---------0-----------------------|
--------6---------6-----6---5~----------|
----7---------7-----------------7-5-----|
----------------------------------------|
----------------------------------------|
-0---------8--------3-----3-------------|





3:27

L
----------------------------------------------------------------|
----------------------------------------------------------------|
----------------------------------------------------------------|
----------------------------------------------------------------|
000-000-000-000-111-111-333-333-000-000-000-000-111-111-333-333-|
000-000-000-000-333-333-555-555-000-000-000-000-333-333-555-555-|
*** *** *** *** *** *** *** *** *** *** *** *** *** *** *** ***
R
---------------------------------------------------------------|
---------------------------------------------------------------|
---------------------------------------------------------------|
---------------------------------------------------------------|
-0-------------------------------------------------------------|
-0-------------------------------------------------------------|




B
-----------------------------------------------------------|
-----------------------------------------------------------|
-----------------------------------------------------------|
-----------------------------------------------------------|
000-000-000-000-111-111-333-333-000-000-000-000-111-111-3--|
000-000-000-000-333-333-555-555-000-000-000-000-333-333-5--|
*** *** *** *** *** *** *** *** *** *** *** *** *** *** *

----------------------------------------------------------------|
----------------------------------------------------------------|
----------------------------------------------------------------|
----------------------------------------------------------------|
000-000-000-000-111-111-333-333-000-000-000-000-111-111-333-333-|
000-000-000-000-333-333-555-555-000-000-000-000-333-333-555-555-|
*** *** *** *** *** *** *** *** *** *** *** *** *** *** *** ***

-----------------------------------------------------------|
-----------------------------------------------------------|
-----------------------------------------------------------|
-----------------------------------------------------------|
000-000-000-000-111-111-333-333-000-000-000-000-111-111-3--|
000-000-000-000-333-333-555-555-000-000-000-000-333-333-5--|
*** *** *** *** *** *** *** *** *** *** *** *** *** *** *


3:57

-----------------------------------------------------------------|
-----------------------------------------------------------------|
-----------------------------------------------------------------|
-----------------------------------------------------------------|
-88--88--88--88--55--55--77--77--88--88--88--88--55--55--77--77--|
---0---0---0---0---3---3---5---5---0---0---0---0---3---3---5---5-|
 *** *** *** *** *** *** *** *** *** *** *** *** *** *** *** ***


4:04

L
-------------------------------------------------|
-------------------------------------------------|
-------------------------------------------------|
-------------------------------------------------|
-88--88--88--88--55--55--77--77--88--88--88--88--|
---0---0---0---0---3---3---5---5---0---0---0---0-|
 *** *** *** *** *** *** *** *** *** *** *** *** 

R
----------------------------------------------------------------------|
----------------------------------------------------------------------|
----------------------------------------------------------------------|
----------------------------------------------------------------------|
1212--1212--1212--1212--88--88--1010---1010---1212--1212--1212--1212--|
----0-----0-----0-----0---8---8-----10-----10-----0-----0-----0-----0-|
 * **  * **  * **  * ** *** ***  * * *  * * *  * **  * **  * **  * **


--------------|
--------------|
--------------|
--------------|
-8----0-------|
-8-|--0-|-----|
1 comment total.
0 reply
andherembrace wrote on February 8 2013, 04:30 pm

for the riff starting @1:44 after the 4 sets of 7/8's there should be 3 10/7's instead of what i typed (5/3,5/7) sorry

I want to post or [tab]
guest
You may want to rate the tab now too:
select rating
Please do not post tabs as comments. Select "correction" instead!