Oops, an error
Loading. Please wait.

Dream Run Tab

ver1
ver1

Whole song

More versions @911Tabs.com
3,652 views 21 this week
5 commentsread comments
1 2 3 4 5
excellent!
x 3
Autoscroll
+/-
esc
set tempo
stop
Contributor
Tuning
B F# B E G# C#
WARNING: You are trying to view
                                    content from Ultimate-Guitar.com
                                    in an unauthorized application,
                                    which is prohibited.

                                    Please use an official Ultimate
                                    Guitar Tabs application for iPhone,
                                    iPad or Android to access legitimate
                                    chords, guitar, bass, and drum tabs
                                    from Ultimate-Guitar.com database.

                                    Type "ultimate guitar tabs" in Apple
                                    App Store's or Android Market's
                                    search to find the application.
Song: Dream Run
Artist: Parkway Drive
Album: Atlas
Year: 2012
Tuning: Drop B




GUITAR 1



Intro – 0:00
      PM PM PM PM                                  PMPMPMPMPM     
C#||--------------------------------|----------------------------|
G#||--------------------------------|----------------------------|              Cont.
E ||--------------------------------|----------------------------|
B ||--------------7-----------------|----------------------------|
F#||--5--5--5--5-----0-----0-----0--|-----0-----0----------------|
B ||-----------------0-----0-----0--|-----0-----0--0-0-0-0-0--0--|
               PMPMPMPMPM             PM    PM    PM        
--------------------------------|--------------------------|
--------------------------------|--------------------------|            Cont.
--------------------------------|--------------------------|
--------------------------------|--------7-----5-----------|
--------------------------------|-----5-----5-----5--7--8--|
------0------0---0-0-0-0-0---0--|--------------------------|
   PM PM PM PM                                PM PM PM PM PM     
--------------------------------|-------------------------------|       
--------------------------------|-------------------------------|               Cont.
--------------------------------|-------------------------------|
--------------------------------|-------------------------------|
-----------8--8------8------8---|----8-----8-----------------8--|
---8-8-8-8----8------8------8---|----8-----8--8--8--8--8--8--8--|

              PM PM PM PM PM         
--------------------------------|
--------------------------------|
--------------------------------|
--------------------------------|
------8------8---------------8--|
------8------8--8-8-8-8-8-8--8--|





Verse – 0:12
  PM PM PM PM                                  PMPMPMPMPM     
--------------------------------|----------------------------|
--------------------------------|----------------------------|          Cont.
--------------------------------|----------------------------|
--------------7-----------------|----------------------------|
--5--5--5--5-----0-----0-----0--|-----0-----0----------------|
-----------------0-----0-----0--|-----0-----0--0-0-0-0-0--0--|
               PMPMPMPMPM             PM    PM    PM        
--------------------------------|--------------------------|
--------------------------------|--------------------------|            Cont.
--------------------------------|--------------------------|
--------------------------------|--------7-----5-----------|
--------------------------------|-----5-----5-----5--7--8--|
------0------0---0-0-0-0-0---0--|--------------------------|
   PM PM PM PM                                PM PM PM PM PM     
--------------------------------|-------------------------------|       
--------------------------------|-------------------------------|               Cont.
--------------------------------|-------------------------------|
--------------------------------|-------------------------------|
-----------8--8------8------8---|----8-----8-----------------8--|
---8-8-8-8----8------8------8---|----8-----8--8--8--8--8--8--8--|

              PM PM PM PM PM          PM    PM                    
--------------------------------|------------------------------|
--------------------------------|------------------------------| X2
--------------------------------|------------------------------|
--------------------------------|------------------------------|
------8------8---------------8--|-----8--8--8--8s--10--10--10--|
------8------8--8-8-8-8-8-8--8--|-----8--8--8--8s--10--10--10--|

        Second time end on
                                        PM    PM                
                                |------------------------------|
                                |------------------------------|
                                |------------------------------|
                                |------------------------------|
                                |------8--8--8--8s--10---------|
                                |------8--8--8--8s--10---------|




Breakdown – 0:33
  PM PM PM PM PMPMPMPMPMPMPMPM      PM  PM  PM PMPMPMPMPMPMPMPM   
---------------------------------|------------------------------|
---------------------------------|------------------------------|               Cont.
---------------------------------|------------------------------|
---------------------------------|------------------------------|
---0--0--0--0--0-0-0-0-0-0-0-0---|--0---0---0--0-0-0-0-0-0-0-0--|
---0--0--0--0--0-0-0-0-0-0-0-0---|--0---0---0--0-0-0-0-0-0-0-0--|
PM PM PM PM   PMPMPMPM             
-----------------------------------|----------------------------|
-----------------------------------|----------------------------|               Cont.
-----------------------------------|----------------------------|
-------------------------5h-7p-5---|----------------------------|
--0--0--0--0--0-0-0-0-----------8h-|--10~--------8--7b----------|
--0--0--0--0--0-0-0-0--------------|----------------------------|





Verse – 0:39
-----------------------------------|----------------------------|
-----------------------------------|----------------------------|               Cont.
-----------------------------------|----------------------------|
-----------------------------------|----------------------------|
-----------------------------------|----------------------------|
--0--0--0--0-----------------------|----------------------------|

-----------------------------------|----------------------------|
-----------------------------------|----------------------------|       X2
-----------------------------------|----------------------------|
-----------------------------------|----------------------------|
-----------------------------------|----------------------------|
--0--0--0--0-----------------------|------0-0-0--0--0--0--0-----|




-----------------------------------|----------------------------|
-----------------------------------|----------------------------|       X4
-----------------------------------|----------------------------|
-----------------------------------|----------------------------|
-----------------------------------|----------------------------|
--0--0--0--0-----------------------|------0-0-0--0--0--0--0-----|




Breakdown – 1:01
  PM PM PM PM PMPMPMPMPMPMPMPM      PM  PM  PM PMPMPMPMPMPMPMPM   
---------------------------------|------------------------------|
---------------------------------|------------------------------|               Cont.
---------------------------------|------------------------------|
---------------------------------|------------------------------|
---0--0--0--0--0-0-0-0-0-0-0-0---|--0---0---0--0-0-0-0-0-0-0-0--|
---0--0--0--0--0-0-0-0-0-0-0-0---|--0---0---0--0-0-0-0-0-0-0-0--|
   PM PM PM PM PMPMPMPMPMPMPMPM    PM   PM   PM   PM   PM   PM  
---------------------------------|------------------------------|
---------------------------------|------------------------------| X2
---------------------------------|------------------------------|
---------------------------------|------------------------------|
---0--0--0--0--0-0-0-0-0-0-0-0---|--0----0----0----0----0----0--|
---0--0--0--0--0-0-0-0-0-0-0-0---|--0----0----0----0----0----0--|

                                        Second time end with
                                   |----------------------------|
                                   |----------------------------|
                                   |----------------------------|
                                   |----------------------------|
                                   |---5--5--5--5--5--5--5--5---|
                                   |----------------------------|






Chorus – 1:12
---------------------------|---------------------------|
--3--3--3--3--3--3--3--10--|-----10--10--8----8--8--6--|                        Cont.
---------------------------|---------------------------|
---------------------------|---------------------------|
---------------------------|---------------------------|
---------------------------|---------------------------|

--------------------------|--------------------------|
-----6--6--6--6--6--6--6--|--6--6--6--6--8--8--8--6--|                  Cont.
--------------------------|--------------------------|
--------------------------|--------------------------|
--------------------------|--------------------------|
--------------------------|--------------------------|

--------------------------|----------------------------|
-----3--3----3--3--3--10--|-----10--10--8----8--8--13--|                        Cont.
--------------------------|----------------------------|
--------------------------|----------------------------|
--------------------------|----------------------------|
--------------------------|----------------------------|

----------------------------------|---------------------------------|
------13--13--13--13--13--13--13--|--13--13--13--13--13--13--13--3--|   Cont.
----------------------------------|---------------------------------|
----------------------------------|---------------------------------|
----------------------------------|---------------------------------|
----------------------------------|---------------------------------|

---------------------------|---------------------------|
-----3--3--3--3--3--3--10--|-----10--10--8----8--8--6--|                        Cont.
---------------------------|---------------------------|
---------------------------|---------------------------|
---------------------------|---------------------------|
---------------------------|---------------------------|

--------------------------|--------------------------|
-----5--5--5--5--5--5--5--|--5--5--5--5--6--6--6--6--|                  Cont.
--------------------------|--------------------------|
--------------------------|--------------------------|
--------------------------|--------------------------|
--------------------------|--------------------------|

--------------------------|----------------------------|
-----3--3----3--3--3--10--|-----10--10--8----8--8--13--|                        Cont.
--------------------------|----------------------------|
--------------------------|----------------------------|
--------------------------|----------------------------|
--------------------------|----------------------------|

----------------------------------|--------------------|
------13--13--13--13--13--13--13--|--13----------------|
----------------------------------|--------------------|
----------------------------------|--------------------|
----------------------------------|--------------------|
----------------------------------|--------------------|







Post Chorus – 1:35
----------------------------------|----------------------------------|
--6-6-6-6-6-6-5-5-5-5-5-5---------|----------------------------------|  Cont.
--------------------------5-5-5-5-|--5-5-4-4-4-4-4-4-4-4-4-4-4-4-4-4-|
----------------------------------|----------------------------------|
----------------------------------|----------------------------------|
----------------------------------|----------------------------------|

----------------------------------|----------------------------------|
--6-6-6-6-6-6-5-5-5-5-5-5---------|----------------------------------|  Cont.
--------------------------5-5-5-5-|--5-5-7-7-7-7-7-7-7-7-7-7-7-7-7-7-|
----------------------------------|----------------------------------|
----------------------------------|----------------------------------|
----------------------------------|----------------------------------|

----------------------------------|----------------------------------|
--6-6-6-6-6-6-5-5-5-5-5-5---------|----------------------------------|  Cont.
--------------------------5-5-5-5-|--5-5-4-4-4-4-4-4-4-4-4-4-4-4-4-4-|
----------------------------------|----------------------------------|
----------------------------------|----------------------------------|
----------------------------------|----------------------------------|

----------------------------------|----------------------------------|
--6-6-6-6-6-6-5-5-5-5-5-5---------|----------------------------------|
--------------------------5-5-5-5-|--5-5-7---------------------------|
----------------------------------|----------------------------------|
----------------------------------|----------------------------------|
----------------------------------|----------------------------------|





Bridge – 1:45
--16----15--13--16----15--13------|----------------------------------|
----------------------------------|----------------------------------|  Cont.
----------------------------------|----------------------------------|
----------------------------------|----------------------------------|
----------------------------------|----------------------------------|
----------------------------------|----------------------------------|

--15----13------15----13----------|----------------------------------|
------------13------------13------|----------------------------------|  X2
----------------------------------|----------------------------------|
----------------------------------|----------------------------------|
----------------------------------|----------------------------------|
----------------------------------|----------------------------------|



Breakdown – 1:57
  PM PM PM PM                                 PM PM PM PM    
----------------------------------|----------------------------------|
----------------------------------|----------------------------------|  Cont.
----------------------------------|----------------------------------|
----------------------------------|----------------------------------|
--6--6--6--6----------------------|-----------1--1--1--1-------------|
--6--6--6--6----------------------|-----------1--1--1--1-------------|
  PM PM PM PM                                 PM PM PM PM        
----------------------------------|----------------------------------|
----------------------------------|----------------------------------|  Cont.
----------------------------------|----------------------------------|
----------------------------------|----------------------------------|
--3--3--3--3----------------------|-----------3--1--3--5-------------|
--3--3--3--3----------------------|-----------3--1--3--5--1b---------|
  PM PM PM PM                      
----------------------------------|----------------------------------|
----------------------------------|----------------------------------|  Cont.
----------------------------------|----------------------------------|
----------------------------------|----------------------------------|
--6--6--6--6----------------------|----------------------------------|
--6--6--6--6----------------------|----------------------------------|
  PM   PM   PM           
----------------------------------|----------------------------------|
----------------------------------|----------------------------------|
----------------------------------|----------------------------------|
----------------------------------|----------------------------------|
--3----3----3--3------------------|----------------------------------|
--3----3—---3--3------------------|----------------------------------|




  PM PM PM PM PMPMPM PM PM         PM PMPMPM PM  PM            
-----------------------------|-----------------------------|
-----------------------------|-----------------------------|            Cont.
-----------------------------|-----------------------------|
-----------------------------|-----------------------------|
---6--6--6--6--6-8-6--6--6---|-----6--6-6-6---------1------|
---6--6--6--6--6-8-6--6--6---|-----6--6-6-6--8--10--1------|
  PM PM PM PM PMPMPM PM PM         PM PMPMPM PM PM       
-----------------------------|----------------------------|
-----------------------------|----------------------------|                     Cont.
-----------------------------|----------------------------|
-----------------------------|----------------------------|
---3--3--3--3--3-5-3--1--3---|-----3--3-3-3--3--5--1------|
---3--3--3--3--3-5-3--1--3---|-----3--3-3-3--3--5--1------|
  PM PM PM PM PMPMPM PM PM         PM PMPMPM PM  PM            
-----------------------------|-----------------------------|
-----------------------------|-----------------------------|            Cont.
-----------------------------|-----------------------------|
-----------------------------|-----------------------------|
---6--6--6--6--6-8-6--6--6---|-----6--6-6-6---------1------|
---6--6--6--6--6-8-6--6--6---|-----6--6-6-6--8--10--1------|
  PM PM PM PM PMPMPM PM PM                             
-----------------------------|------4--4--4------8--8--8---|
-----------------------------|------x--x--x------x--x--x---|
-----------------------------|------1--1--1------5--5--5---|
-----------------------------|-----------------------------|
---3--3--3--3--3-5-3--1--3---|-----------------------------|
---3--3--3--3--3-5-3--1--3---|-----------------------------|

   



Solo – 2:21
--------------20--------------18--|--------------16--------------15--|
--18------18------18------18------|--18------18------18------18------| X8
------17--------------17----------|------17--------------17----------|
----------------------------------|----------------------------------|
----------------------------------|----------------------------------|
----------------------------------|----------------------------------|
        Last time don’t play the bar above


Build Up – 2:45
 PMPMPMPM          PM PM PM PM     PM PM PM PM PM PM PM PM    
--------------------------------|--------------------------|
--------------------------------|--------------------------|            Cont.
--------------------------------|--------------------------|
--------------7-----------------|--------------------------|
--5-5-5-5-----------0--0--0--0--|--0--0--0--0--0--0--0--0--|
-----------------0--0--0--0--0--|--0--0--0--0--0--0--0--0--|
  PMPMPMPM         PM PM PM PM  
--------------------------------|-----------------------------------|
--------------------------------|-----------------------------------| X3
--------------------------------|-----------------------------------|
--------------7-----------------|----------7-----------------7------|
--5-5-5-5----------0--0--0--0---|-----------------------------------|
----------------0--0--0--0--0---|--8-8-8-8----8--10-10-10-10----10--|




  PMPMPMPM         PM PM PM PM     PMPMPMPM         PM PM PM PM  
--------------------------------|--------------------------------|
--------------------------------|--------------------------------|              Cont.
--------------------------------|--------------------------------|
--------------7-----------------|--------------7-----------------|
--5-5-5-5----------0--0--0--0---|--5-5-5-5----------0--0--0--0---|
----------------0--0--0--0--0---|----------------0--0--0--0--0---|
  PM PM PM PM       PM PM PM PM  
--------------------------------|--------------------------------|
--------------------------------|--------------------------------|
--------------------------------|--------------------------------|
--------------7-----------------|--------------------------------|
--5--5--5--5--------0--0--0--0--|--------------------------------|
-----------------0--0--0--0--0--|--0-----------------------------|




Verse 2 – 3:08
  PM PM PM PM                                  PMPMPMPMPM     
--------------------------------|----------------------------|
--------------------------------|----------------------------|          Cont.
--------------------------------|----------------------------|
--------------7-----------------|----------------------------|
--5--5--5--5-----0-----0-----0--|-----0-----0----------------|
-----------------0-----0-----0--|-----0-----0--0-0-0-0-0--0--|
               PMPMPMPMPM             PM    PM    PM        
--------------------------------|--------------------------|
--------------------------------|--------------------------|            Cont.
--------------------------------|--------------------------|
--------------------------------|--------7-----5-----------|
--------------------------------|-----5-----5-----5--7--8--|
------0------0---0-0-0-0-0---0--|--------------------------|
   PM PM PM PM                                PM PM PM PM PM     
--------------------------------|-------------------------------|       
--------------------------------|-------------------------------|               Cont.
--------------------------------|-------------------------------|
--------------------------------|-------------------------------|
-----------8--8------8------8---|----8-----8-----------------8--|
---8-8-8-8----8------8------8---|----8-----8--8--8--8--8--8--8--|

              PM PM PM PM PM          PM    PM                    
--------------------------------|------------------------------|
--------------------------------|------------------------------| 
--------------------------------|------------------------------|
--------------------------------|------------------------------|
------8------8---------------8--|-----8--8--8--8s--10--10--10--|
------8------8--8-8-8-8-8-8--8--|-----8--8--8--8s--10--10--10--|







Pre Chorus – 3:22
     PM    PM                                                         
---5--5--5--5--5--5--5--5---|--/10------------8------------|
----------------------------|------------------------------|            Cont.
----------------------------|------------------------------|
----------------------------|------------------------------|
----------------------------|------------------------------|
----------------------------|------------------------------|

--3b------------------------|--~---------------------------|
----------------------------|------------------------------|
----------------------------|------------------------------|
----------------------------|------------------------------|
----------------------------|------------------------------|
----------------------------|------------------------------|






Chorus – 3:27
---------------------------|---------------------------|
--3--3--3--3--3--3--3--10--|-----10--10--8----8--8--6--|                        Cont.
---------------------------|---------------------------|
---------------------------|---------------------------|
---------------------------|---------------------------|
---------------------------|---------------------------|

--------------------------|--------------------------|  
-----6--6--6--6--6--6--6--|--6--6--6--6--8--8--8--6--|                  Cont.
--------------------------|--------------------------|
--------------------------|--------------------------|
--------------------------|--------------------------|
--------------------------|--------------------------|

--------------------------|----------------------------|
-----3--3----3--3--3--10--|-----10--10--8----8--8--13--|                        Cont.
--------------------------|----------------------------|
--------------------------|----------------------------|
--------------------------|----------------------------|
--------------------------|----------------------------|

----------------------------------|---------------------------------|
------13--13--13--13--13--13--13--|--13--13--13--13--13--13--13--3--|   Cont.
----------------------------------|---------------------------------|
----------------------------------|---------------------------------|
----------------------------------|---------------------------------|
----------------------------------|---------------------------------|

---------------------------|---------------------------|
-----3--3--3--3--3--3--10--|-----10--10--8----8--8--6--|                        Cont.
---------------------------|---------------------------|
---------------------------|---------------------------|
---------------------------|---------------------------|
---------------------------|---------------------------|

--------------------------|--------------------------|
-----5--5--5--5--5--5--5--|--5--5--5--5--6--6--6--6--|                  Cont.
--------------------------|--------------------------|
--------------------------|--------------------------|
--------------------------|--------------------------|
--------------------------|--------------------------|

--------------------------|----------------------------|
-----3--3----3--3--3--10--|-----10--10--8----8--8--13--|                        Cont.
--------------------------|----------------------------|
--------------------------|----------------------------|
--------------------------|----------------------------|
--------------------------|----------------------------|
         PM PM PM    PM PM
----------------------------------|-------------------------|
------13--13--13--13--13--13--13--|-------------------------|
----------------------------------|-------------------------|
----------------------------------|-------------------------|
----------------------------------|--0--0--0-----0--0-------|
----------------------------------|--0--0--0-----0--0-------|






Breakdown – 3:50
  PM PM PM PM PMPMPMPMPMPMPMPM      PM  PM  PM PMPMPMPMPMPMPMPM   
---------------------------------|------------------------------|
---------------------------------|------------------------------|               Cont.
---------------------------------|------------------------------|
---------------------------------|------------------------------|
---0--0--0--0--0-0-0-0-0-0-0-0---|--0---0---0--0-0-0-0-0-0-0-0--|
---0--0--0--0--0-0-0-0-0-0-0-0---|--0---0---0--0-0-0-0-0-0-0-0--|
   PM PM PM PM PMPMPMPMPMPMPMPM    PM   PM   PM   PM   PM   PM  
---------------------------------|------------------------------|
---------------------------------|------------------------------| X2
---------------------------------|------------------------------|
---------------------------------|------------------------------|
---0--0--0--0--0-0-0-0-0-0-0-0---|--0----0----0----0----0----0--|
---0--0--0--0--0-0-0-0-0-0-0-0---|--0----0----0----0----0----0--|





  PMPMPMPM         PM PM PM PM    PMPMPMPM        PM PM PM PM     
-------------------------------|------------------------------|
-------------------------------|------------------------------|         Cont.
-------------------------------|------------------------------|
--------------7----------------|-------------7----------------|
--5-5-5-5----------0--0--0--0--|--5-5-5-5---------0--0--0--0--|
----------------0--0--0--0--0--|---------------0--0--0--0--0--|

  PM PM PM PM      PM PM PM PM                                      
-------------------------------|-----------------------------------|
-------------------------------|-----------------------------------|
-------------------------------|-----------------------------------|
--------------7----------------|----------7-----------------7------|
--5-5-5-5----------0--0--0--0--|-----------------------------------|
----------------0--0--0--0--0--|--8-8-8-8----8--10-10-10-10----10--|

---------------------||
---------------------||
---------------------||
---------------------||
--0------------------||
--0------------------||






GUITAR 2




Verse – 0:12
  PM PM PM PM                                  PMPMPMPMPM     
--------------------------------|----------------------------|
--------------------------------|----------------------------|          Cont.
--------------------------------|----------------------------|
--------------7-----------------|----------------------------|
--5--5--5--5-----0-----0-----0--|-----0-----0----------------|
-----------------0-----0-----0--|-----0-----0--0-0-0-0-0--0--|
               PMPMPMPMPM             PM    PM    PM        
--------------------------------|--------------------------|
--------------------------------|--------------------------|            Cont.
--------------------------------|--------------------------|
--------------------------------|--------7-----5-----------|
--------------------------------|-----5-----5-----5--7--8--|
------0------0---0-0-0-0-0---0--|--------------------------|
   PM PM PM PM                                PM PM PM PM PM     
--------------------------------|-------------------------------|       
--------------------------------|-------------------------------|               Cont.
--------------------------------|-------------------------------|
--------------------------------|-------------------------------|
-----------8--8------8------8---|----8-----8-----------------8--|
---8-8-8-8----8------8------8---|----8-----8--8--8--8--8--8--8--|

              PM PM PM PM PM          PM    PM                    
--------------------------------|------------------------------|
--------------------------------|------------------------------| X2
--------------------------------|------------------------------|
--------------------------------|------------------------------|
------8------8---------------8--|-----8--8--8--8s--10--10--10--|
------8------8--8-8-8-8-8-8--8--|-----8--8--8--8s--10--10--10--|

        Second time end on
                                        PM    PM                
                                |------------------------------|
                                |------------------------------|
                                |------------------------------|
                                |------------------------------|
                                |------8--8--8--8s--10---------|
                                |------8--8--8--8s--10---------|




Breakdown – 0:33
  PM PM PM PM PMPMPMPMPMPMPMPM      PM  PM  PM PMPMPMPMPMPMPMPM   
---------------------------------|------------------------------|
---------------------------------|------------------------------|               Cont.
---------------------------------|------------------------------|
---------------------------------|------------------------------|
---0--0--0--0--0-0-0-0-0-0-0-0---|--0---0---0--0-0-0-0-0-0-0-0--|
---0--0--0--0--0-0-0-0-0-0-0-0---|--0---0---0--0-0-0-0-0-0-0-0--|
PM PM PM PM   PMPMPMPM             
-----------------------------------|----------------------------|
-----------------------------------|----------------------------|               Cont.
-----------------------------------|----------------------------|
-------------------------2h-3p-2---|----------------------------|
--0--0--0--0--0-0-0-0-----------5h-|--7-~--------5--3b----------|
--0--0--0--0--0-0-0-0--------------|----------------------------|





Verse – 0:39

-----------------------------------|----------------------------|
-----------------------------------|----------------------------|               Cont.
-----------------------------------|----------------------------|
-----------------------------------|----------------------------|
-----------------------------------|----------------------------|
--0--0--0--0-----------------------|------0-0-0--0--0--0--0-----|

-----------------------------------|----------------------------|
-----------------------------------|----------------------------|               X2
-----------------------------------|----------------------------|
-----------------------------------|----------------------------|
-----------------------------------|----------------------------|
--0--0--0--0-----------------------|----------------------------|




        PMPMPM PM       PM
-----------------------------------|----------------------------|
-----------------------------------|----------------------------|       X4
-----------------------------------|----------------------------|
-----------------------------------|----------------------------|
----------------------0-0-0--0-----|--0-------------------------|
--0--0--0--0----------0-0-0--0-----|--0---0-0-0--0--0--0--0-----|




Breakdown – 1:01
  PM PM PM PM PMPMPMPMPMPMPMPM      PM  PM  PM PMPMPMPMPMPMPMPM   
---------------------------------|------------------------------|
---------------------------------|------------------------------|               Cont.
---------------------------------|------------------------------|
---------------------------------|------------------------------|
---0--0--0--0--0-0-0-0-0-0-0-0---|--0---0---0--0-0-0-0-0-0-0-0--|
---0--0--0--0--0-0-0-0-0-0-0-0---|--0---0---0--0-0-0-0-0-0-0-0--|
   PM PM PM PM PMPMPMPMPMPMPMPM    PM   PM   PM   PM   PM   PM  
---------------------------------|------------------------------|
---------------------------------|------------------------------| X2
---------------------------------|------------------------------|
---------------------------------|------------------------------|
---0--0--0--0--0-0-0-0-0-0-0-0---|--0----0----0----0----0----0--|
---0--0--0--0--0-0-0-0-0-0-0-0---|--0----0----0----0----0----0--|



Pre Chorus
----------------------------|
----------------------------|   
----------------------------|
----------------------------|
--5--5--5--5--5--5--5--5----|
----------------------------|




Chorus – 1:12
---------------------------|----------------------------|
---------------------------|----------------------------|                       Cont.
-----------------------10--|-----10--10--9----9--9------|
------------------------x--|------x---x--x----x--x------|
--0--0--0--0--0--0--0---8--|------8---8--7----7--7--10--|
--0--0--0--0--0--0--0------|------------------------10--|

---------------------------------|-------------------------------|
---------------------------------|-------------------------------|              Cont.
---------------------------------|-------------------------------|
---------------------------------|-------------------------------|
-----10--10--10--10--10--10--10--|--10--10--10--10--10--12----0--|
-----10--10--10--10--10--10--10--|--10--10--10--10--10--12----0--|
   
---------------------------|----------------------------|
---------------------------|----------------------------|                       Cont.
-----------------------10--|-----10--10--9----9--9------|
------------------------x--|------x---x--x----x--x------|
-----0--0--0--0--0--0---8--|------8---8--7----7--7--10--|
-----0--0--0--0--0--0------|------------------------10--|
                                    PM PM PM PM PM PM PM                                    
---------------------------------|--------------------------|
---------------------------------|--------------------------|           X2
---------------------------------|--------------------------|
---------------------------------|--------------------------|
-----10--10--10--10--10--10--10--|-----------------------0--|
-----10--10--10--10--10--10--10--|--5--7--5--3--5--3--2--0--|

                                      Last time end on
         PM PM PM    PM PM
                                  |-------------------------|
                                  |-------------------------|
                                  |-------------------------|
                                  |-------------------------|
                                  |--0--0--0-----0--0-------|
                                  |--0--0--0-----0--0-------|




Post Chorus – 1:35
  PM PM PM PM                                  PMPMPMPMPM     
--------------------------------|----------------------------|
--------------------------------|----------------------------|          Cont.
--------------------------------|----------------------------|
--------------7-----------------|----------------------------|
--5--5--5--5-----0-----0-----0--|-----0-----0----------------|
-----------------0-----0-----0--|-----0-----0--0-0-0-0-0--0--|
               PMPMPMPMPM             PM    PM    PM        
--------------------------------|--------------------------|
--------------------------------|--------------------------|            Cont.
--------------------------------|--------------------------|
--------------------------------|--------7-----5-----------|
--------------------------------|-----5-----5-----5--7--8--|
------0------0---0-0-0-0-0---0--|--------------------------|
   PM PM PM PM                                PM PM PM PM PM     
--------------------------------|-------------------------------|       
--------------------------------|-------------------------------|               Cont.
--------------------------------|-------------------------------|
--------------------------------|-------------------------------|
-----------8--8------8------8---|----8-----8-----------------8--|
---8-8-8-8----8------8------8---|----8-----8--8--8--8--8--8--8--|

              PM PM PM PM PM          PM    PM                    
--------------------------------|------------------------------|
--------------------------------|------------------------------| 
--------------------------------|------------------------------|
--------------------------------|------------------------------|
------8------8---------------8--|-----8--8--8--8s--10--10--10--|
------8------8--8-8-8-8-8-8--8--|-----8--8--8--8s--10--10--10--|




Bridge – 1:45
----------------------------------|----------------------------------|
----------------------------------|----------------------------------|  Cont.
----------------------------------|----------------------------------|
----------------------------------|----------------------------------|
--6-------------------------------|----------------------------------|
--6-------------------------------|----------------------------------|

----------------------------------|----------------------------------|
----------------------------------|----------------------------------|  X2
----------------------------------|----------------------------------|
----------------------------------|----------------------------------|
--3-------------------------------|----------------------------------|
--3-------------------------------|----------------------------------|



Breakdown – 1:57
  PM PM PM PM                                 PM PM PM PM    
----------------------------------|----------------------------------|
----------------------------------|----------------------------------|  Cont.
----------------------------------|----------------------------------|
----------------------------------|----------------------------------|
--6--6--6--6----------------------|-----------1--1--1--1-------------|
--6--6--6--6----------------------|-----------1--1--1--1-------------|
  PM PM PM PM                                 PM PM PM PM        
----------------------------------|----------------------------------|
----------------------------------|----------------------------------|  Cont.
----------------------------------|----------------------------------|
----------------------------------|----------------------------------|
--3--3--3--3----------------------|-----------3--1--3--5-------------|
--3--3--3--3----------------------|-----------3--1--3--5--1b---------|
  PM PM PM PM                      
----------------------------------|----------------------------------|
----------------------------------|----------------------------------|  Cont.
----------------------------------|----------------------------------|
----------------------------------|----------------------------------|
--6--6--6--6----------------------|----------------------------------|
--6--6--6--6----------------------|----------------------------------|
  PM   PM   PM           
----------------------------------|----------------------------------|
----------------------------------|----------------------------------|
----------------------------------|----------------------------------|
----------------------------------|----------------------------------|
--3----3----3--3------------------|----------------------------------|
--3----3—---3--3------------------|----------------------------------|




  PM PM PM PM PMPMPM PM PM         PM PMPMPM PM  PM            
-----------------------------|-----------------------------|
-----------------------------|-----------------------------|            Cont.
-----------------------------|-----------------------------|
-----------------------------|-----------------------------|
---6--6--6--6--6-8-6--6--6---|-----6--6-6-6---------1------|
---6--6--6--6--6-8-6--6--6---|-----6--6-6-6--8--10--1------|
  PM PM PM PM PMPMPM PM PM         PM PMPMPM PM PM       
-----------------------------|----------------------------|
-----------------------------|----------------------------|                     Cont.
-----------------------------|----------------------------|
-----------------------------|----------------------------|
---3--3--3--3--3-5-3--1--3---|-----3--3-3-3--3--5--1------|
---3--3--3--3--3-5-3--1--3---|-----3--3-3-3--3--5--1------|
  PM PM PM PM PMPMPM PM PM         PM PMPMPM PM  PM            
-----------------------------|-----------------------------|
-----------------------------|-----------------------------|            Cont.
-----------------------------|-----------------------------|
-----------------------------|-----------------------------|
---6--6--6--6--6-8-6--6--6---|-----6--6-6-6---------1------|
---6--6--6--6--6-8-6--6--6---|-----6--6-6-6--8--10--1------|
  PM PM PM PM PMPMPM PM PM                             
-----------------------------|------------------------------|
-----------------------------|------------------------------|   X2
-----------------------------|------10--10--10---13--13--13-|
-----------------------------|------x---x---x-----x---x---x-|
---3--3--3--3--3-5-3--1--3---|------8---8---8----11--11--11-|
---3--3--3--3--3-5-3--1--3---|------------------------------|
            Last time end on   
                                  PM PM PM PM PM PM                             
                               |---------------------------|
                               |---------------------------|
                               |---------------------------|
                               |---------------------------|
                               |-----3--3--3--3--5--1------|
                               |-----3--3--3--3--5--1------|


Build Up – 2:33
----------------------------------|----------------------------------|
----------------------------------|----------------------------------|  Cont.
----------------------------------|----------------------------------|
----------------------------------|----------------------------------|
--3-------------------------------|----------------------------------|
--3-------------------------------|----------------------------------|

----------------------------------|----------------------------------|
----------------------------------|----------------------------------|  Cont.
----------------------------------|----------------------------------|
----------------------------------|----------------------------------|
--5-------------------------------|----------------------------------|
--5-------------------------------|----------------------------------|

----------------------------------|----------------------------------|
----------------------------------|----------------------------------|  Cont.
----------------------------------|----------------------------------|
----------------------------------|----------------------------------|
--6-------------------------------|----------------------------------|
--6-------------------------------|----------------------------------|

----------------------------------|------------------------------|
----------------------------------|------------------------------|              Cont.
----------------------------------|------------------------------|
----------------------------------|------------------------------|
--8-------------------------------|------------------------------|
--8-------------------------------|--5--7--5--3--5--2--7--0------|



Joins in at 2:56
-----------------------------------|
-----------------------------------|
-----------------------------------|
----------7-----------------7------|
-----------------------------------|
--8-8-8-8----8--10-10-10-10----10--|



PMPMPMPM          PM PM PM PM     PM PM PM PM PM PM PM PM    
--------------------------------|--------------------------|
--------------------------------|--------------------------|            Cont.
--------------------------------|--------------------------|
--------------7-----------------|--------------------------|
--5-5-5-5-----------0--0--0--0--|--0--0--0--0--0--0--0--0--|
-----------------0--0--0--0--0--|--0--0--0--0--0--0--0--0--|
  PMPMPMPM         PM PM PM PM  
--------------------------------|-----------------------------------|
--------------------------------|-----------------------------------|
--------------------------------|-----------------------------------|
--------------7-----------------|----------7-----------------7------|
--5-5-5-5----------0--0--0--0---|-----------------------------------|
----------------0--0--0--0--0---|--8-8-8-8----8--10-10-10-10----10--|




  PMPMPMPM         PM PM PM PM     PMPMPMPM         PM PM PM PM  
--------------------------------|--------------------------------|
--------------------------------|--------------------------------|              Cont.
--------------------------------|--------------------------------|
-------------10-----------------|-------------10-----------------|
--8-8-8-8----------0--0--0--0---|--8-8-8-8----------0--0--0--0---|
----------------0--0--0--0--0---|----------------0--0--0--0--0---|
  PM PM PM PM       PM PM PM PM  
--------------------------------|--------------------------------|
--------------------------------|--------------------------------|
--------------------------------|--------------------------------|
---------------10---------------|--------------------------------|
--8--8--8--8--------0--0--0--0--|--------------------------------|
-----------------0--0--0--0--0--|--0-----------------------------|




Verse 2 – 3:08
  PM PM PM PM                                  PMPMPMPMPM     
--------------------------------|----------------------------|
--------------------------------|----------------------------|          Cont.
--------------------------------|----------------------------|
--------------7-----------------|----------------------------|
--5--5--5--5-----0-----0-----0--|-----0-----0----------------|
-----------------0-----0-----0--|-----0-----0--0-0-0-0-0--0--|
               PMPMPMPMPM             PM    PM    PM        
--------------------------------|--------------------------|
--------------------------------|--------------------------|            Cont.
--------------------------------|--------------------------|
--------------------------------|--------7-----5-----------|
--------------------------------|-----5-----5-----5--7--8--|
------0------0---0-0-0-0-0---0--|--------------------------|
   PM PM PM PM                                PM PM PM PM PM     
--------------------------------|-------------------------------|       
--------------------------------|-------------------------------|               Cont.
--------------------------------|-------------------------------|
--------------------------------|-------------------------------|
-----------8--8------8------8---|----8-----8-----------------8--|
---8-8-8-8----8------8------8---|----8-----8--8--8--8--8--8--8--|

              PM PM PM PM PM          PM    PM                    
--------------------------------|------------------------------|
--------------------------------|------------------------------| 
--------------------------------|------------------------------|
--------------------------------|------------------------------|
------8------8---------------8--|-----8--8--8--8s--10--10--10--|
------8------8--8-8-8-8-8-8--8--|-----8--8--8--8s--10--10--10--|







Pre Chorus – 3:20
---------------------------|----------------------------|
---------------------------|----------------------------|                       Cont.
---------------------------|----------------------------|
---------------------------|----------------------------|
--5--5--5--5--5--5--5--5---|--5--5--5--5--5--5--5--5----|
---------------------------|----------------------------|

---------------------------|----------------------------|
---------------------------|----------------------------|
---------------------------|----------------------------|
---------------------------|----------------------------|
--5--5--5--5--5--5--5--5---|--5-------------------------|
---------------------------|----------------------------|




Chorus – 3:28
---------------------------|----------------------------|
---------------------------|----------------------------|                       Cont.
-----------------------10--|-----10--10--9----9--9------|
------------------------x--|------x---x--x----x--x------|
--0--0--0--0--0--0--0---8--|------8---8--7----7--7--10--|
--0--0--0--0--0--0--0------|------------------------10--|

---------------------------------|-------------------------------|
---------------------------------|-------------------------------|              Cont.
---------------------------------|-------------------------------|
---------------------------------|-------------------------------|
-----10--10--10--10--10--10--10--|--10--10--10--10--10--12----0--|
-----10--10--10--10--10--10--10--|--10--10--10--10--10--12----0--|
   
---------------------------|----------------------------|
---------------------------|----------------------------|                       Cont.
-----------------------10--|-----10--10--9----9--9------|
------------------------x--|------x---x--x----x--x------|
-----0--0--0--0--0--0---8--|------8---8--7----7--7--10--|
-----0--0--0--0--0--0------|------------------------10--|
                                    PM PM PM PM PM PM PM                                    
---------------------------------|--------------------------|
---------------------------------|--------------------------|           X2
---------------------------------|--------------------------|
---------------------------------|--------------------------|
-----10--10--10--10--10--10--10--|-----------------------0--|
-----10--10--10--10--10--10--10--|--5--7--5--3--5--3--2--0--|

                                      Last time end on
         PM PM PM    PM PM
                                  |-------------------------|
                                  |-------------------------|
                                  |-------------------------|
                                  |-------------------------|
                                  |--0--0--0-----0--0-------|
                                  |--0--0--0-----0--0-------|






Breakdown – 3:50
  PM PM PM PM PMPMPMPMPMPMPMPM      PM  PM  PM PMPMPMPMPMPMPMPM   
---------------------------------|------------------------------|
---------------------------------|------------------------------|               Cont.
---------------------------------|------------------------------|
---------------------------------|------------------------------|
---0--0--0--0--0-0-0-0-0-0-0-0---|--0---0---0--0-0-0-0-0-0-0-0--|
---0--0--0--0--0-0-0-0-0-0-0-0---|--0---0---0--0-0-0-0-0-0-0-0--|
   PM PM PM PM PMPMPMPMPMPMPMPM    PM   PM   PM   PM   PM   PM  
---------------------------------|------------------------------|
---------------------------------|------------------------------| X2
---------------------------------|------------------------------|
---------------------------------|------------------------------|
---0--0--0--0--0-0-0-0-0-0-0-0---|--0----0----0----0----0----0--|
---0--0--0--0--0-0-0-0-0-0-0-0---|--0----0----0----0----0----0--|





  PMPMPMPM         PM PM PM PM    PMPMPMPM        PM PM PM PM     
-------------------------------|------------------------------|
-------------------------------|------------------------------|         Cont.
-------------------------------|------------------------------|
------------10-----------------|-----------10-----------------|
--8-8-8-8----------0--0--0--0--|--8-8-8-8---------0--0--0--0--|
----------------0--0--0--0--0--|---------------0--0--0--0--0--|

  PM PM PM PM      PM PM PM PM                                      
-------------------------------|-----------------------------------|
-------------------------------|-----------------------------------|
-------------------------------|-----------------------------------|
-------------10----------------|----------7-----------------7------|
--8-8-8-8----------0--0--0--0--|-----------------------------------|
----------------0--0--0--0--0--|--8-8-8-8----8--10-10-10-10----10--|

---------------------||
---------------------||
---------------------||
---------------------||
--0------------------||
--0------------------||
comments
We did not receive enough feedback on this tab! Please rate:
1 2 3 4 5
5 comments total. Showing first comments.
0 reply
ASeparatePeace wrote on December 10 2012, 01:47 pm

This part:
Solo – 2:21
--------------20--------------18--|--------------16--------------15--|
--18------18------18------18------|--18------18------18------18------| X8
----------------------------------|----------------------------------|
------15--------------15----------|------15--------------15----------|
----------------------------------|----------------------------------|
----------------------------------|----------------------------------|

Sounds better like this:
Solo – 2:21
-------------20-------------18----|----------------------------------|
-18------18-------18----18--------|-18-----18---21------18-----18--20| X8
-----17--------------17-----------|-----17-----------------17--------|
----------------------------------|----------------------------------|
----------------------------------|----------------------------------|
----------------------------------|----------------------------------|

Other then that you nailed this tab 5 stars for having both guitar parts.

0 reply
prikaze wrote on January 18 2013, 05:58 am

Very good tab, one small thing tho. The PM's being inducated avobe the tab throws me off a bit. I am used to seeing the PM indication below, so it'll take some getting used to.

0 reply
scottismad wrote on January 19 2013, 01:17 am

Yeah having them below would make a lot more sense right? haha. I export this straight from my guitar pro tab and then edit it from there, and when i do that they appear on the top of the bar so that's why it's like that.

I want to post or [tab]
guest
You may want to rate the tab now too:
select rating
Please do not post tabs as comments. Select "correction" instead!