Oops, an error
Loading. Please wait.

Home Is For The Heartless Tab

ver1
ver1

Solo

Whole song

Interactive

More versions @911Tabs.com
17,530 views 51 this week
no commentswrite comment
1 2 3 4 5
worth learning
x 3
Autoscroll
+/-
esc
set tempo
stop
Contributor
Difficulty
Tuning
novice
B F# B E G# C#
Hey! There's an official Ultimate Guitar app which is ideal
for learning songs when you're away from computer. Get the app
WARNING: You are trying to view
                                    content from Ultimate-Guitar.com
                                    in an unauthorized application,
                                    which is prohibited.

                                    Please use an official Ultimate
                                    Guitar Tabs application for iPhone,
                                    iPad or Android to access legitimate
                                    chords, guitar, bass, and drum tabs
                                    from Ultimate-Guitar.com database.

                                    Type "ultimate guitar tabs" in Apple
                                    App Store's or Android Market's
                                    search to find the application.
-------------------------------------------------------------------------------
                             HOME IS FOR THE HEARTLESS - PARKWAY DRIVE
-------------------------------------------------------------------------------
Tabbed by: ETHAN 
Email: ETHANW99@LIVE.COM

Hey heres my best guess at it. please comment and rate. if you see something 
wrong tell me and ill try to fix it. the cd isn't even out yet so this is the
only tab so far. thanks for looking and if you have something to say either
comment or email me at ethanw99@live.com. Thanks

Tuning: DROP B BF#BEG#Db

Db|---------------------------------------------------------------------------|
G#|---------------------------------------------------------------------------|
E |-10----9-----7-----5\2/4-------------12-----------------12-----------------|
B |-0-000-0-000-0-000-0-----3-------8---10-------------8---10-----------------|
F#|-------------------------3------8---10--0-0000000--8---10--0-0000000-------|
B |-------------------------3-----8---10---0-0000000-8---10---0-0000000-------|
0:30  ***   ***   ***                        *******            *******

Db|----------------------------------15---------------------------------------|
G#|-----------------------------13\12--12/13----------------------------------|
E |-------12-----------------12------12-----14-------12-----------------12----|
B |---8---10-------------8---10-10\9----9/10-----8---10-------------8---10----|
F#|--8---10--0-0000000--8---10--------------12--8---10--0-0000000--8---10-----|
B |-8---10---0-0000000-8---10------------------8---10---0-0000000-8---10------|
0:47           *******          /\Guitar 1&2/\            *******

Db|---------------------------------------------------------------------------|
G#|---------------------------------------------------------------------------|
E |----------------12-----------------12-9\7---10\9---------------------------|
B |------------8---10-------------8---10----10-----12-------------------------|
F#|0-0000000--8---10--0-0000000--8---10---------------------------------------|
B |0-0000000-8---10---0-0000000-8---10----------------------------------------|
0:59 *******            *******

Db|---------------------------------------------------------------------------|
G#|---------------------------------------------------------------------------|
E |---5p4---7p5----10p9-12-10-9h10p9-7---5p4---7p5---10----9-----7-----5\2/4--|
B |-3-----5-----7----------------------3-----5-----7-0-000-0-000-0-000-0------|
F#|-3-----5-----7----------------------3-----5-----7--------------------------|
B |-3-----5-----7----------------------3-----5-----7--------------------------|
1:07                                               *   ***   ***   ***   

Db|---------------------------------------------------------------------------|
G#|---------------------------------------------------------------------------|
E |---5p4---7p5----10p9-12-10-9h10p9-7---5p4---7p5---10----9-----7-----5\2/4--|
B |-3-----5-----7----------------------3-----5-----7-0-000-0-000-0-000-0------|
F#|-3-----5-----7----------------------3-----5-----7--------------------------|
B |-3-----5-----7----------------------3-----5-----7--------------------------|
1:21                                               *   ***   ***   ***   

Db|---------------------------------------------------------------------------|
G#|-10-8---8---8---8-10-8---8---8---8-10-8---8---8---8-10-8---8---8---8-------|
E |------7---7---7--------7---7---7--------7---7---7--------7---7---7---------|
B |---------------------------------------------------------------------------|
F#|---------------------------------------------------------------------------|
B |---------------------------------------------------------------------------|
1:35

Db|-5h8h17p8p5h7h15p7h5h8h17p8p5h7h15p7p5h8h19p8p5h7h17p7p5h8h19p8p5h7h17p7p--|
G#|---------------------------------------------------------------------------|
E |---------------------------------------------------------------------------|
B |---------------------------------------------------------------------------|
F#|---------------------------------------------------------------------------|
B |---------------------------------------------------------------------------|
1:48
(Look closely, it changes-overall pattern) 5-8-17 -> 5-7-15 -> 5-8-19 -> 5-7-17
                                           -> 5-8-20 -> 5-7-19 then do it again

Db|-5h8h20p9p5h7h19p7p5h8h20p9p5h7h19p7p5h8h20p9p5h7h19p7p5h8h20p9p5h7h19p7p--|
G#|---------------------------------------------------------------------------|
E |---------------------------------------------------------------------------|
B |---------------------------------------------------------------------------|
F#|---------------------------------------------------------------------------|
B |---------------------------------------------------------------------------|
1:51

Db|-5h8h17p8p5h7h15p7h5h8h17p8p5h7h15p7p5h8h19p8p5h7h17p7p5h8h19p8p5h7h17p7p--|
G#|---------------------------------------------------------------------------|
E |---------------------------------------------------------------------------|
B |---------------------------------------------------------------------------|
F#|---------------------------------------------------------------------------|
B |---------------------------------------------------------------------------|
1:55

Db|-5h8h20p9p5h7h19p7p5h8h20p9p5h7h19p7p5h8h20p9p5h7h19p7p5h8h20p9p5h7h19p7p--|
G#|---------------------------------------------------------------------------|
E |---------------------------------------------------------------------------|
B |---------------------------------------------------------------------------|
F#|---------------------------------------------------------------------------|
B |---------------------------------------------------------------------------|
1:58

Db|-5h7h8h17-5h7h8h17-5h7h8h17-5h7h8h17-5h7h8h20-5h7h8h20-5h7h8h20-5h7h8h20---|
G#|---------------------------------------------------------------------------|
E |---------------------------------------------------------------------------|
B |---------------------------------------------------------------------------|
F#|---------------------------------------------------------------------------|
B |---------------------------------------------------------------------------|
2:02

Db|-5h7h8h19-5h7h8h19-5h7h8h19-5h7h8h19-5h7h8h15-5h7h8h15-5h7h8h15-5h7h8h15---|
G#|---------------------------------------------------------------------------|
E |---------------------------------------------------------------------------|
B |---------------------------------------------------------------------------|
F#|---------------------------------------------------------------------------|
B |---------------------------------------------------------------------------|
2:05

Db|-5h7h8h17-5h7h8h17-5h7h8h17-5h7h8h17-5h7h8h20-5h7h8h20-5h7h8h20-5h7h8h20---|
G#|---------------------------------------------------------------------------|
E |---------------------------------------------------------------------------|
B |---------------------------------------------------------------------------|
F#|---------------------------------------------------------------------------|
B |---------------------------------------------------------------------------|
2:09

Db|-5h7h8h19-5h7h8h19-5h7h8h19-5h7h8h19-5h7h8h15-5h7h8h15-5h7h8h15-5h7h8h15---|
G#|---------------------------------------------------------------------------|
E |---------------------------------------------------------------------------|
B |---------------------------------------------------------------------------|
F#|---------------------------------------------------------------------------|
B |---------------------------------------------------------------------------|
2:12

Db|---------------------------------------------------------------------------|
G#|---------------------------------------------------------------------------|
E |---5p4---7p5----10p9-12-10-9h10p9-7---5p4---7p5---10----9-----7-----5\2/4--|
B |-3-----5-----7----------------------3-----5-----7-0-000-0-000-0-000-0------|
F#|-3-----5-----7----------------------3-----5-----7--------------------------|
B |-3-----5-----7----------------------3-----5-----7--------------------------|
2:16                                               *   ***   ***   ***   

Db|---------------------------------------------------------------------------|
G#|---------------------------------------------------------------------------|
E |---5p4---7p5----10p9-12-10-9h10p9-7---5p4---7p5----------------------------|
B |-3-----5-----7----------------------3-----5-----7--------------------------|
F#|-3-----5-----7----------------------3-----5-----7-----00------00-----------|
B |-3-----5-----7----------------------3-----5-----7-----00------00-----------|
2:30                                               *     **      **

Db|-5h7h8h17-5h7h8h17-5h7h8h17-5h7h8h17-5h7h8h20-5h7h8h20-5h7h8h20-5h7h8h20---|
G#|---------------------------------------------------------------------------|
E |---------------------------------------------------------------------------|
B |---------------------------------------------------------------------------|
F#|---------------------------------------------------------------------------|
B |---------------------------------------------------------------------------|
2:43

Db|-5h7h8h19-5h7h8h19-5h7h8h19-5h7h8h19-5h7h8h15-5h7h8h15-5h7h8h15-5h7h8h15---|
G#|---------------------------------------------------------------------------|
E |---------------------------------------------------------------------------|
B |---------------------------------------------------------------------------|
F#|---------------------------------------------------------------------------|
B |---------------------------------------------------------------------------|
2:47

Db|-5h7h8h17-5h7h8h17-5h7h8h17-5h7h8h17-5h7h8h20-5h7h8h20-5h7h8h20-5h7h8h20---|
G#|---------------------------------------------------------------------------|
E |---------------------------------------------------------------------------|
B |---------------------------------------------------------------------------|
F#|---------------------------------------------------------------------------|
B |---------------------------------------------------------------------------|
2:50

Db|-5h7h8h19-5h7h8h19-5h7h8h19-5h7h8h19-5h7h8h15-5h7h8h15-5h7h8h15-5h7h8h15---|
G#|---------------------------------------------------------------------------|
E |---------------------------------------------------------------------------|
B |---------------------------------------------------------------------------|
F#|---------------------------------------------------------------------------|
B |---------------------------------------------------------------------------|
2:53

Db|-5h7h8h17-5h7h8h17-5h7h8h17-5h7h8h17-5h7h8h20-5h7h8h20-5h7h8h20-5h7h8h20---|
G#|---------------------------------------------------------------------------|
E |---------------------------------------------------------------------------|
B |---------------------------------------------------------------------------|
F#|---------------------------------------------------------------------------|
B |---------------------------------------------------------------------------|
2:57

Db|-5h7h8h19-5h7h8h19-5h7h8h19-5h7h8h19-5h7h8h15-5h7h8h15-5h7h8h15-5h7h8h15---|
G#|---------------------------------------------------------------------------|
E |---------------------------------------------------------------------------|
B |---------------------------------------------------------------------------|
F#|---------------------------------------------------------------------------|
B |---------------------------------------------------------------------------|
3:00

Db|-5h7h8h17-5h7h8h17-5h7h8h17-5h7h8h17-5h7h8h20-5h7h8h20-5h7h8h20-5h7h8h20---|
G#|---------------------------------------------------------------------------|
E |---------------------------------------------------------------------------|
B |---------------------------------------------------------------------------|
F#|---------------------------------------------------------------------------|
B |---------------------------------------------------------------------------|
3:04

Db|-5h7h8h19-5h7h8h19-5h7h8h19-5h7h8h19-5h7h8h15-5h7h8h15-5h7h8h15-5h7h8h15---|
G#|---------------------------------------------------------------------------|
E |---------------------------------------------------------------------------|
B |---------------------------------------------------------------------------|
F#|---------------------------------------------------------------------------|
B |---------------------------------------------------------------------------|
3:07

Db|---------------------------------------------------------------------------|
G#|---------------------------------------------------------------------------|
E |---------7p5----10p9-12-10-10p9-----5p4---7p5---10----9-----7-----5\2/4----|
B |-3-----5-----7--------------------3-----5-----7-0-000-0-000-0-000-0--------|
F#|-3-----5-----7--------------------3-----5-----7----------------------------|
B |-3-----5-----7--------------------3-----5-----7----------------------------|
3:10                                             *   ***   ***   ***

Db|---------------------------------------------------------------------------|
G#|---------------------------------------------------------------------------|
E |---5p4---7p5----10p9-12-10-9h10p9-7---5p4---7p5---10----9-----7-----5\2/4--|
B |-3-----5-----7----------------------3-----5-----7-0-000-0-000-0-000-0------|
F#|-3-----5-----7----------------------3-----5-----7--------------------------|
B |-3-----5-----7----------------------3-----5-----7--------------------------|
3:24                                               *   ***   ***   ***   

Db|---------------------------------------------------------------------------|
G#|---------------------------------------------------------------------------|
E |---5p4---7p5----10p9-12-10-9h10p9-7---5p4---7p5---10----9-----7-----5\2/4--|
B |-3-----5-----7----------------------3-----5-----7-0-000-0-000-0-000-0------|
F#|-3-----5-----7----------------------3-----5-----7--------------------------|
B |-3-----5-----7----------------------3-----5-----7--------------------------|
3:38                                               *   ***   ***   ***   

Db|---------------------------------------------------------------------------|
G#|---------------------------------------------------------------------------|
E |---555444555---777555777----101010999121212-101010-9h10p9------------------|
B |-3-----------5-----------7-------------------------------------------------|
F#|-3-----------5-----------7-------------------------------------------------|
B |-3-----------5-----------7-------------------------------------------------|
3:52

Db|---------------------------------------------------------------------------|
G#|---------------------------------------------------------------------------|
E |---555444555---777555777---------------------------------------------------|
B |-3-----------5-----------7-------------------------------------------------|
F#|-3-----------5-----------700----------00-----------------------------------|
B |-3-----------5-----------700----------00-----------------------------------|
3:59                        ***          **



************************************

| /   slide up
| \   slide down
| h   hammer-on
| p   pull-off
| ~   vibrato
| +   harmonic
| x   Mute note
| b   Bend
| pb  Pre-bend
| br  Bend release
| pbr Pre-bend release
| brb Bend release bend

************************************
comments
We did not receive enough feedback on this tab! Please rate:
print report bad tab
1 2 3 4 5
I want to post or [tab]
guest
You may want to rate the tab now too:
select rating
Please do not post tabs as comments. Select "correction" instead!