Oops, an error
Loading. Please wait.

Horizons Tab

ver1
ver1

Album

Whole song

More versions @911Tabs.com
8,350 views 12 this week
2 commentsread comments
1 2 3 4 5
excellent!
x 2
Autoscroll
+/-
esc
set tempo
stop
Contributor
Difficulty
Tuning
intermediate
B F# B E G# C#
WARNING: You are trying to view
                                    content from Ultimate-Guitar.com
                                    in an unauthorized application,
                                    which is prohibited.

                                    Please use an official Ultimate
                                    Guitar Tabs application for iPhone,
                                    iPad or Android to access legitimate
                                    chords, guitar, bass, and drum tabs
                                    from Ultimate-Guitar.com database.

                                    Type "ultimate guitar tabs" in Apple
                                    App Store's or Android Market's
                                    search to find the application.
I dont take any credit except for putting it
all down. First album tab for Parkway!!!!!! XD

Have Fun Buds!

1 - Begin

     Guitar 1 fades in and plays x4 before guitar 2 comes in
  E||-----------------------------------|
  B||-----------------------------------|
  G||-----------------------------6-----|    x8
  D||---4-6-4---4-6-4---6-7-6---6---6---|
  A||-4-------5-------7-------7---------|
  E||-----------------------------------|

     Guitar 2 overlap come in after 4th time (when drums come in)
  E||-----------------------------------|
  B||-----------------------------2-----|
  G||-6---6---4---4---2-1-2-1---1---1---|    x4
  D||---4---4---4---4---------2---------|
  A||-----------------------------------|
  E||-----------------------------------|

2 - Siren's Song
Tuning: Drop B

INTRO RIFF (Trem Picked)
0:01
C#|-20-15-20-15-------------------------------------|
G#|-------------20-16-20-16-------------------------|
E |-------------------------19-15-19-15-------19-15-|
B |-------------------------------------19-15-------|
F#|-------------------------------------------------|
B |-------------------------------------------------|

PRE-VERSE RIFF
0:20
C#|-------------------------|
G#|-------------------------|
E |-------------------------|
B |-------------------------|
F#|-0-----------0--0--0--0--|
B |-0-----------0--0--0--0--|

VERSE RIFF 1
0:22
C#|---------------------------------|
G#|---------------------------------|
E |---------------------------------|
B |---------------------------------|
F#|-----5---7-8-----3---5-7-----3h5-|
B |-0-0---0-----0-0---0-----0-0-----|

C#|---------------------------------|
G#|---------------------------------|
E |---------------------------------|
B |-----------------5-------7-5-----|
F#|-----5---7-8-------8-7-5-----8-7-|
B |-0-0---0-----0-0-----------------|

VERSE RIFF 2
0:41
C#|--------------------------------------------------------------------|
G#|--------------------------------------------------------------------|
E |--------------------------------------------------------------------|
B |--------------------------------------------------------------------|
F#|-8-5-0---------------------------8-5-0---------------5~8------7~10--|
B |-------8-5-0-0-0-000-000-000-000-------8-5-0-0-0-5-8-----7-10-------|

VERSE RIFF 2 FILL
Played at the end of every second run through.
0:49
C#|----------------------|
G#|----------------------|
E |----------------------|
B |----------------------|
F#|--------5---------8-7-|
B |--0h5h8----0h7h10-----|

BREAKDOWN 1
1:10
C#|-------------------------------|
G#|-------------------------------|
E |-------------------------------|
B |----x4--------x2---------x2----|
F#|-------------------------------|
B |-5p0h8p0---7p0h10p0---7p0h11p0-|

1:13
C#|-------------------------|-------------------------------|
G#|-------------------------|-------------------------------|
E |-------------------------|-------------------------------|
B |-------------------------|----x4--------x2---------x2----|
F#|-------------------------|-------------------------------|
B |-0-0---00-00-0-0---00-00-|-5p0h8p0---8p0h12p0---7p0h10p0-|

1:19
C#|----------------------------|-------------------------------|
G#|----------------------------|-------------------------------|
E |----------------------------|-------------------------------|
B |----------------------------|----x4--------x2---------x2----|
F#|----------------------------|-------------------------------|
B |-0--0-----0--0-0--0----0--0-|-5p0h8p0---7p0h10p0---7p0h11p0-|

1:26
C#|-------------------------|-------------------------------|
G#|-------------------------|-------------------------------|
E |-------------------------|-------------------------------|
B |-------------------------|----x4--------x2---------x2----|
F#|-------------------------|-------------------------------|
B |-0-0---00-00-0-0---00-00-|--5p0h8p0---8p0h12p0---7p0h10p0-|

1:33
C#|----------------------------|----------------------------|
G#|----------------------------|----------------------------|
E |----------------------------|----------------------------|
B |----------------------------|----------------------------|
F#|----------------------------|----------------------------|
B |-0--0-----0--0-0--0----0-0=-|-0--0-----0--0-0--0----0--0-|

VERSE RIFF 2
1:39
C#|---------------------------------|
G#|---------------------------------|
E |---------------------------------|
B |---------------------------------|
F#|-----5---7-8-----3---5-7-----3h5-|
B |-0-0---0-----0-0---0-----0-0-----|

C#|---------------------------------|
G#|---------------------------------|
E |---------------------------------|
B |-----------------5-------7-5-----|
F#|-----5---7-8-------8-7-5-----8-7-|
B |-0-0---0-----0-0-----------------|

1:49
C#|-------------------------|
G#|-------------------------|
E |-------------------------|
B |-------------------------|
F#|-0-----------0--0--0--0--|
B |-0-----------0--0--0--0--|

VERSE RIFF 3
2:00
C#|-------------------------------|-------------------------------|
G#|-------------------------------|-------------------------------|
E |-------------------------------|-------------------------------|
B |---------------------5---------|-------------------------------|
F#|-----5--5------8-7---------7h8-|-----3--3------8-7---5-----3h5-|
B |-0-0-------0-0-----0---0-0-----|-0-0-------0-0-----0---0-0-----|

C#|----------------------------------|-------------------------------------|
G#|----------------------------------|-------------------------------------|
E |----------------------------------|-------------------------------------|
B |----------------------------------|-------7-----------------5--------3-2|
F#|-----5--5------7h8---8h10---10h12-|-0h5h8----------8--0h3h7-------------|
B |-0-0-------0-0-----0------0-------|----------0h5h8-------------0h3h7----|

BREAKDOWN 2
2:19
C#|----------------------------|
G#|----------------------------|
E |----------------------------|
B |----------------------------|
F#|-0--------------------0h1---|
B |-0--------------------0h1---|

C#|----------------------------------------------------|
G#|----------------------------------------------------|
E |----------------------------------------------------|
B |----------------------------------------------------|
F#|-0-----0---0--------0---0---0-----0---0---0----1----|
B |-0-0-0-0-0-0----0-0-0-0-0---0-0-0-0-0-0-0-0----1----|
PM   |---| |-|    |---| |-|     |---| |-| |-|

BREAKDOWN 2 FILL
2:20
C#|-------------------------|
G#|-------------------------|
E |-------------------------|
B |-------------------------|
F#|-3-0-1--1-0-3-1----------|
B |-3-0-1--1-0-3-1----------|

3 - Feed Them To The Pigs
Tuning: Drop A#

INTRO/VERSE RIFF
0:02
C |-----------------------------------|
G |-----------------------------------|
F#|-9s10s9---7------------------------|
A#|-----------------------------------|
F#|-7s8-s7---5------------------------|
A#|--------0----0-000-0-000-0-000-000-|

C |---------------------------------|
G |---------------------------------|
F#|-9s10s9---7----------------------|
A#|---------------------------------|
F#|-7s8-s7---5----------------------|
A#|--------0----0-000-8~~5~~10~~7~~-|

INTRO/VERSE RIFF ENDING
0:19
C |---------------------------|---------------------------|
G |---------------------------|---------------------------|
F#|---------------------------|---------------------------|
A#|---------------------------|---------------------------|
F#|--------------5~~---7~~3~~-|--------------5~~---7~~3~~-|
A#|-8~~5~~10~~7~~---8~~-------|-8~~5~~10~~7~~---8~~-------|

C |-----------------------------------------|
G |-----------------------------------------|
F#|-----------------------------------------|
A#|-----------------------------------------|
F#|-----------------------------------------|
A#|-5-8-5-8-7-10-7-10-8-12-8-12-10-14-10-14-|

C |-----------------------------------------|
G |-----------------------------------------|
F#|-----------------------------------------|
A#|-----------------------------------------|
F#|-5-8-5-8-7-10-7-10-8-12-8-12-10-14-10-14-|
A#|-5-8-5-8-7-10-7-10-8-12-8-12-10-14-10-14-|


BREAKDOWN
0:30
C |--------------------------------------------------------------|
G |--------------------------------------------------------------|
F#|--------------------------------------------------------------|
A#|--------------------------------------------2-----------------|
F#|-0--------------0-------------0-------------0--3--2--5--3--2--|
A#|-0---0--00--00--0---00--00--000---0--00--00----3--2--5--3--2--|

BREAKDOWN ENDING
0:52
C |--------------------------------------------------------------|
G |--------------------------------------------------------------|
F#|--------------------------------------------------------------|
A#|--------------------------------------------2-----------------|
F#|-0------------------------------------------0--3--2--5--3--2--|
A#|-0---0--00--00------00--00--00----0--00--00----3--2--5--3--2--|

0:58
C |-----------------------------|
G |-----------------------------|
F#|-------------7---------------|
A#|-------------7---------------|
F#|-0-----------5---------------|
A#|-0-----------0-------x\\\\\\-|

BRIDGE
1:02
C |--------------------------------|----------------------------------|
G |--------------------------------|----------------------------------|
F#|--------------------------------|----------------------------------|
A#|--------------------------------|----------------------------------|
F#|-----5---5---8---8---7---7---3--|-----5---5---10---8---7---7h8p7s3-|
A#|-0-0---0---0---0---0---0---0----|-0-0---0---0----0---0---0---------|

C |--------------------------------|-----------------------------------|
G |--------------------------------|-----------------------------------|
F#|--------------------------------|-----------------------------------|
A#|--------------------------------|-------------7---------------------|
F#|-----5---5---8---8---7---7---3--|-----5---5--------10---8---7h8h10--|
A#|-0-0---0---0---0---0---0---0----|-0-0---0---0----0----0---0---------|

BRIDGE HARMONY RIFF 
(PLAYED TWICE,  WITH FIRST LINE OF ABOVE RIFF TWICE)
1:11
C |------------------------------------|
G |------------------------------------|
F#|------------------------------------|
A#|------------------------------------|
F#|-----8---8---12---12---10---10---7--|
A#|-0-0---0---0----0----0----0----0----|

C |---------------------------------------|
G |---------------------------------------|
F#|---------------------------------------|
A#|-------------8-------------------------|
F#|-----8---8-------12---10---10s12s10s7--|
A#|-0-0---0---0---0----0----0-------------|

VERSE 2
1:20
C |-----------------------------------|
G |-----------------------------------|
F#|-9s10s9---7------------------------|
A#|-----------------------------------|
F#|-7s8-s7---5------------------------|
A#|--------0----0-000-0-000-0-000-000-|

C |---------------------------------|
G |---------------------------------|
F#|-9s10s9---7----------------------|
A#|---------------------------------|
F#|-7s8-s7---5----------------------|
A#|--------0----0-000-8~~5~~10~~7~~-|

VERSE 2 HARMONY RIFF
1:40
C |-------------------------------------|
G |-------------------------------------|
F#|-12s14s12---10-----------------------|
A#|-------------------------------------|
F#|-10s12s10---8------------------------|
A#|----------0----0-000-0-000-0-000-000-|

C |-----------------------------------|
G |-----------------------------------|
F#|-12s14s12---10---------------------|
A#|-----------------------------------|
F#|-10s12s10---8----------------------|
A#|----------0----0-000-8~~5~~10~~7~~-|


VERSE 2 RIFF ENDING
1:48
C |------------------------------|
G |------------------------------|
F#|------------------------------|
A#|------------------------------|
F#|--------------5~~---7~~3~~----|
A#|-8~~5~~10~~7~~---8~~----------|

C |-----------------------------------------|
G |-----------------------------------------|
F#|-----------------------------------------|
A#|-----------------------------------------|
F#|-----------------------------------------|
A#|-5-8-5-8-7-10-7-10-8-12-8-12-10-14-10-14-|

C |------------------------------|
G |------------------------------|
F#|------------------------------|
A#|------------------------------|
F#|--------------5~~---7~~3~~----|
A#|-8~~5~~10~~7~~---8~~----------|

C |-----------------------------------------|
G |-----------------------------------------|
F#|-----------------------------------------|
A#|-----------------------------------------|
F#|-5-8-5-8-7-10-7-10-8-12-8-12-10-14-10-14-|
A#|-5-8-5-8-7-10-7-10-8-12-8-12-10-14-10-14-|

BREAKDOWN 2
1:59
C |--------------------------------------------------------------|
G |--------------------------------------------------------------|
F#|--------------------------------------------------------------|
A#|--------------------------------------------2-----------------|
F#|-0------------------------------------------0--3--2--5--3--2--|
A#|-0---0--00--00------00--00--00----0--00--00----3--2--5--3--2--|

4 - Carrion

Tunning: Drop B   
INTRO (CLEAN) - SET YOUR 3 WAY TOGGLE SWITCH     
TO CENTRE POSITION FOR THE INTRO.                
                                                 
0:03
c#|---------------------------------------------|
G#|----------------0----------------------------|
 E|-------5--------5-------9--------9---9---7---|
 B|---3---3---0----4---7---7----5-----7---7-----|
F#|---3-------0--------7--------5---------------|
 B|---3-------0--------7--------5---------------|
               |
              \|/
c#|-----------------------------------------|
G#|----------------0------------------------|
 E|-------5--------5-------9--------9---7---|
 B|---3---3---0----4---7---7----5-----7-----|
F#|---3-------0--------7--------5-----------|
 B|---3-------0--------7--------5-----------|
---------------------------------------------------------------

0:15 verse: 
c#|-----------------------------------------------------------|
G#|-----------------------------------------------------------|
 E|----5-4h5p4-------4---5---4------9-7h9p7-------5---9---7---|
 B|-3-----------0--5---5---5----7------------5--5---5---5-----|
F#|-3-----------0---------------7------------5----------------|\
 B|-3-----------0---------------7------------5----------------|\\
    ^           ^  *   *   *    ^            ^  *   *   *      \\\
 Let-ring   cover strings    Let Ring     Hands over            \\\
            with hand after               strings once           x1
            you play that                 played                ///  
                                                               ///
c#|-----------------------------------------------------------|//
G#|-----------------------------------------------------------|/
 E|----5-4h5p4-------4---5---4------9-7h9p7-------5---9---7---|
 B|-3-----------0--5---5---5----7------------5--5---5---5-----|
F#|-3-----------0---------------7------------5----------------|
 B|-3-----------0---------------7------------5----------------|
                   *   *   *                    *   *   *
0:28 - guitar 1 plays this                       guitar 2 plays this once
c#|-------------------------------------|      c#|----------------|over the
G#|-------------------------------------|      G#|----------------|first bit
 E|-------------------------------------|<----->E|----------------|of the verse
 B|-------------------------------------|\      B|-0-----0-----0--|
F#|-8-----7---8-5--8---7------7h8p7-----|\\    F#|-0-----0-----0--|
 B|-0-0-0-0-0-0-0--0-0-0-0-10-------10--|\\\    B|-0-----0-----0--|\
      * *   *        *   *               x2 in                      \
c#|-------------------------------------|///that                    /
G#|-------------------------------------|//order                   /  
 E|-------------------------------------|<------------------------/                          
 B|-------------------------------------|then guitar 2               
F#|-8-----7---8-5--8---5------7h8p7-----|comes in here and plays    
 B|-0-0-0-0-0-0-0--0-0-0-0-10-------10--|this with guitar one      
      * *   *  |     *   *                                             
0:40          \|/                       
c#|--------------------------|
G#|--------------------------|
E |--------------------------|
B |-----------------------7--|
F#|-8-----8---8-5---------8--| x4
B |-0-0-0-0-0-0-0---0-000-8--|
      * *   *  |    * ***
              \|/   d dud
C#|----------------------------|on the
G#|----------------------------|fourth time
E |----------------------------|don't play the b blat.
B |----------------------------|just play the artificial harmonic
F#|-8-----8---8-5---------<8>--|of that chord as shown.
B |-0-0-0-0-0-0-0---0-000------|
      * *   * | *   * ***       
0:52          \|/   d dud 
c#|-------------------------------------|
G#|-------------------------------------|
 E|-------------------------------------|
 B|-------------------------------------|
F#|-8-----7---8-5--8---5------7h8p7-----|
 B|-0-0-0-0-0-0-0--0-0-0-0-10-------10--|
      * *   *  |     *   * 
              \|/
C#|-------------------------------------|
G#|-------------------------------------|
 E|-------------------------------------|
 B|-------------------------------------|
F#|-8-----7---8-5--8---7------7h8p7-----|
 B|-0-0-0-0-0-0-0--0-0-0-0-10-------10--|
      * *   *        *   * 
----------------------------------------------------------------
1:04  Chrous   
c#|-----------------------------------------------------------|
G#|-----------------------------------------------------------|
 E|----5-4h5p4-------4---5---4------9-7h9p7-------5---9---7---|
 B|-3-----------0--5---5---5----7------------5--5---5---5-----|
F#|-3-----------0---------------7------------5----------------| x2
 B|-3-----------0---------------7------------5----------------|
----------------------------------------
 and then straight into verse 2:
 but this time without the artificial
C#|--------------------------|harmonic.
G#|--------------------------|
E |--------------------------|
B |-----------------------7--|
F#|-8-----8---8-5---------8--| x4
B |-0-0-0-0-0-0-0---0-000-8--|
      * *   *  |    * ***   Band 
1:28b         \|/   d dud - comes back in between 1:31-:32 
c#|--------------------------------------------------|
G#|--------------------------------------------------|
 E|-12-12-12-12-10-10-10-10--9--9--9--9--7--7--7--7--|
 B|-12-12-12-12-12-12-12-12-12-12-12-12-12-12-12-12--| x2
F#|--------------------------------------------------|
 B|--------------------------------------------------|
---------------------------------------------------------
Solo starts beweteen 1:34-:35 goes till 1:47 
c#|---------------------------------------------|
G#|---------------------------------------------|
 E|---------------------------------------------|
 B|---------------------------------------------|
F#|-8--8-8-7h8p7-5--3-5-5/7-7-7-5-7-7-10-8-7-5--| x2
 B|---------------------------------------------|
------------------------------------------------------------
chorus: coms in between 1:47-:48 
c#|------------------------------------------------------|
G#|------------------------------------------------------|
 E|----5-4h5p4-------4---5---4------9-7h9p7-------5---9--|
 B|-3-----------0--5---5---5----7------------5--5---5----|
F#|-3-----------0---------------7------------5-----------|
 B|-3-----------0---------------7------------5-----------|
    ^           ^  *   *   *    ^            ^  *   *
 let ring    let ring        let ring     let ring
---------------------------------------------------------------------------
1:59 - Bridge
c#|---------------------------------------------------------------------|
G#|---------------------------------------------------------------------|
 E|---------------------------------------------------------------------|
 B|-0h5h8p7---------0h5h8p7p5---------0h5h8/10---------8p7p5\3----------|
F#|---------------------------------------------------------------------|
 B|---------00-0-00-----------00-0-00----------00-0-00---------00-0-00--|
            **   **        |  **   **          **   **         **   **    \ x2
                          \|/                                             /   

c#|------------------------------------------------------------------------|
G#|------------------------------------------------------------------------|
 E|------------------------------------------------------------------------|
 B|-0h5h8p7---------0h5h8p7p5---------0h5h8/10---------8p7p5-7-7--8-7-5-2--|
F#|----------------------------------------------------------8-8-10-8-7-3--|
 B|---------00-0-00-----------00-0-00----------00-0-00---------------------|
            **   **           **   **          **   **  
2:27 - chorus ---------------------------------------------------
c#|-----------------------------------------------------------|
G#|-----------------------------------------------------------|
 E|----5-4h5p4-------4---5---4------9-7h9p7-------5---9---7---|
 B|-3-----------0--5---5---5----7------------5--5---5---5-----|
F#|-3-----------0---------------7------------5----------------| x2
 B|-3-----------0---------------7------------5----------------|
   |_______________*___*___*__||________________*___*___*__|  
       play this in clean      O.D. + Band comes back in here  

c#|-----------------------------------------------------------|
G#|-----------------------------------------------------------|
 E|----5-4h5p4-------4---5---4------9-7h9p7-------5---9---7---|
 B|-3-----------0--5---5---5----7------------5--5---5---5-----|
F#|-3-----------0---------------7------------5----------------| x2
 B|-3-----------0---------------7------------5----------------|
   |_______________*___*___*____________________*___*___*__|
   over drive through the hole chorus this time then with the
   continued over drive.... play the following...

c#|--------------------------------------------------------------------------------------|
G#|--------------------------------------------------------------------------------------|
 E|---5-5-5-5-5-5-5-5-7----7-7-7-7-7-7-7-7-9----9-9-9-9-9-9-9-9-10----7-7-7-7-7-7-7-7-9--|
 B|-3--------------------5--------------------7---------------------5--------------------|
F#|-3--------------------5--------------------7---------------------5--------------------|
 B|-3--------------------5--------------------7---------------------5--------------------|      
                              |
2:39 play  this till it fades\|/out, listen to cd and you'll know what I mean 
c#|-------------------------------------------------------------------------------------|
G#|-------------------------------------------------------------------------------------|
 E|---5-5-5-5-5-5-5-5-7----7-7-7-7-7-7-7-7-9----4-4-4-4-4-4-4-4-5----2-2-2-2-2-2-2-2-4--|
 B|-3--------------------5--------------------0--------------------3--------------------|
F#|-3--------------------5--------------------0--------------------3--------------------|
 B|-3--------------------5--------------------0--------------------3--------------------|

fade out  finishes at 3:10.

5 - Five Months

tuning = drop b

intro

---------------------------------------------------------------------|
-----------------------------------------------------10p8------------|
-------7-10-9------------7-10-9----7-----7-10-9------10p9-10---9---7-|
--8-8---------10---8------------10--------------10--------12-0---0---|
--8-8------------8-8--8--------------8-8-----------8-----------------|
--8-8------------8-8--8--------------8-8-----------8-----------------|x4


---------------------------------------------------------------------|
-----------------------------------------------------10p8------------|
-------7-10-9------------7-10-9----7-----7-10-9------10p9-10---9---7-|
--8-8---------10---10-----------10--------------10--------12-0---0---|
--8-8------------8-10-10--------------0-0-----------0----------------|
--8-8------------8-10-10--------------0-0-----------0----------------|x1

---------------------------------------------------------------------|
---------------------------------------------------------------------|
-------7-10-9------------7-10-9----7-----7-10-9----------------------|
--8-8---------10---10-----------10--------------10-------------------|
--8-8------------8-10-10--------------0-0-----------0-8h10-8p7h8-7-5-|
--8-8------------8-10-10--------------0-0-----------0----------------|
                                                      (leads into verse)

verse part 1


---------------------------------------------------------------------|
---------------------------------------------------------------------|
---------------------------------------------------------------------|
----------------------------------------------------5-----5h7---5----|
-5-----8-----------7-----7-8-7----5-----8---------------------8------|
---0-0---0-0-8-0-0---0-0-------10---0-0---0-0-8-0-0---0-0------------|


---------------------------------------------------------------------|
---------------------------------------------------------------------|
---------------------------------------------------------------------|
---------------------------------------------------------------------|
-5-----8-----------7-----7-8-7----5-----8-8-8-8-8-8-7-7-7-7----------|
---0-0---0-0-8-0-0---0-0-------10---0-0------------------------------|

---------------------------------------------------|
---------------------------------------------------|
---------------------------------------------------|
---------------------------------------------------|
-3------7-7-7-7-7-7-5-5-5-5------------------------|
---0-0---------------------------------------------|


harmony for verse


---------------------------------------------------------------------|
---------------------------------------------------------------------|
---------------------------------------------------------------------|
-3-----7-----------5-----5-7-5---3-----7-----------------------------|
-------------5-----------------7-------------5-----7-----7-8-5-7-----|
---0-0---0-0---0-0---0-0-----------0-0---0-0---0-0---0-0-------------|


---------------------------------------------------------------------|
---------------------------------------------------------------------|
---------------------------------------------------------------------|
-3-----7-----------5-----5-7-5---------------7-7-7-7-7-7-5-5-5-5-----|
-------------5-----------------7-8-----------------------------------|
---0-0---0-0---0-0---0-0-----------0-0---0-0-------------------------|

-----------------------------------------------|
-----------------------------------------------|
-----------------------------------------------|
-------5-5-5-5-5-5-3-3-3-3---------------------|
-7---------------------------------------------|
---0-0-----------------------------------------|

pre chorus/ verse thingy

---------------------------------------------------------------------|
---------------------------------------------------------------------|
---------------------------------------------------------------------|
---------------------------------------------------------------------|
---5-5-5-5-5-5-3-3-3----7-7-7-7-7-7-3-3-3----8-8-8-8-8-8-5-5-5-------|
-0--------------------3-------------------5--------------------------|

----------------------------|
----------------------------|
----------------------------|
----------------------------|
-10-7-7-12-8-8-10-7-7-8-5-5-|
----------------------------|

---------------------------------------------------------------------|
---------------------------------------------------------------------|
---------------------------------------------------------------------|
---------------------------------------------------------------------|
---5-5-5-5-5-5-3-3-3----7-7-7-7-7-7-3-3-3----8-8-8-8-8-8-5-5-5-------|
-0--------------------3-------------------5--------------------------|

----------------------------------|
----------------------------------|
----------------------------------|
-----10-----7---------------------|
---8----8-------10----------------|
-8--------8---8-------------------|


harmony for pre chorus/ verse thingy

---------------------------------------------------------------------|
---------------------------------------------------------------------|
---------------------------------------------------------------------|
---3-3-3-3-3-3-2-2-2---5-5-5-5-5-5-3-3-3---7-7-7-7-7-7-3-3-3---------|
---------------------------------------------------------------------|
-0-------------------3-------------------5---------------------------|

----------------------------|
----------------------------|
----------------------------|
----------------------------|
-10-7-7-12-8-8-10-7-7-8-5-5-|
----------------------------|

---------------------------------------------------------------------|
---------------------------------------------------------------------|
---------------------------------------------------------------------|
---3-3-3-3-3-3-2-2-2---5-5-5-5-5-5-3-3-3---7-7-7-7-7-7-3-3-3---------|
---------------------------------------------------------------------|
-0-------------------3-------------------5---------------------------|

----------------------------------------|
----------------------------------------|
----------------------------------------|
----------------------------------------|
---8-12-8---8---7-----------------------|
-8--------8---8-------------------------|

when the drum roles start before the breakdown all it is, is this

---------------------------------------|
---------------------------------------|
-----4---------------------------------|
---------------------------------------|
---------------------------------------|
---------------------------------------|

now breakdown part

-----------------------------------------------------------------|
-----------------------------------------------------------------|
-----------------------------------------------------------------|
---------5--------------7-------3--------------------------------|
-0-0-0-8---8-0-0--0-0-8---8-0-7---7------------------------------|
-0-0-0-------0-0--0-0-------0------------------------------------|

harmony part for breakdown

----------------------------------------|
----------------------------------------|
---------3--------------5---------------|
-------7---7----------7---7-----3-------|
-0-0-0-------0-0--0-0-------0-7---7-----|
-0-0-0-------0-0--0-0-------0-----------|


now the main chorus

------------------------------------------------------------|
------------------------------------------------------------|
------------------------------------------------------------|
------------10-10-10-10---------------------7-7-7-7---------|
-8--8-8-8-8-------------8-8-8-8--5--5-5-5-5---------8-8-8-8-|
-8-------------------------------5--------------------------|


---------------------------------------------------------|
---------------------------------------------------------|
---------------------------------------------------------|
---------------------------------------------------------|
-0-0-0-0--0-0--0--3---5--0--0-0--0-0-0--3-0-5------------|
-0-0-0-0--0-0--0----0----0--0-0--0-0-0----0--------------|


-----------------------------------------------------------------|
-----------------------------------------------------------------|
------------9-9-9-9-10-10-10-10-------------9-9-9-9-10-10-10-10--|
-----------------------------------------------------------------|
-8--8-8-8-8----------------------5--5-5-5-5----------------------|
-8-------------------------------5-------------------------------|

---------------------------------------------------------|
---------------------------------------------------------|
---------------------------------------------------------|
---------------------------------------------------------|
-0-0-0-0--0-0--0--3---5--0--0-0--0-0-0--3-0-5------------|
-0-0-0-0--0-0--0----0----0--0-0--0-0-0----0--------------|

clean guitar

-----------------------------------------------------|
-----------------------------------------------------|
-10---9----9--------10---12----9----7----------------|
-8----5----0--------8----10----0------7--------------|
-8----5----0--------8----10----0---------------------|
-8----5----0--------8----10----0---------------------|
keep this going through the whole part

solo back ground slowly ull will noe wen to come in

--------------------------------------8-------------------------------|
-----------8-----------8---8b-8-6-8-----8------------------------8----|
------9-10--------9-10--------------------10-9-10-----------9-10------|
---10----------10---------------------------------10-----10-----------|
----------------------------------------------------------------------|
-8-----------------------------------------------------8--------------|


-------------------------------------------------------------|
---------8---------------------------------------------------|
----9-10-----------------------------------------------------|
-10----------------------------------------------------------|
------------12-0-0-0-0-0-0-0-0-0-0-0-0-0-0-------------------|
------------12-0-0-0-0-0-0-0-0-0-0-0-0-0-0-------------------|

back 2 main intro part

---------------------------------------------------------------------|
-----------------------------------------------------10p8------------|
-------7-10-9------------7-10-9----7-----7-10-9------10p9-10---9---7-|
--8-8---------10---8------------10--------------10--------12-0---0---|
--8-8------------8-8--8--------------8-8-----------8-----------------|
--8-8------------8-8--8--------------8-8-----------8-----------------|x2

---------------------------------------------------------------------|
-----------------------------------------------------10p8------------|
-------7-10-9------------7-10-9----7-----7-10-9------10p9-10---9-9-7-|
--8-8---------10---10-----------10--------------10--------12-0-------|
--8-8------------8-10-10--------------0-0-----------0----------------|
--8-8------------8-10-10--------------0-0-----------0----------------|x2

main solo the madd one

---------------------13--------17b-17-15b-15---|
------15------13--------13-15------------------|
-12br----12br----12b---------------------------|
-----------------------------------------------|
-----------------------------------------------|
-----------------------------------------------|

tapping part

-T13p10-T13p10-T13p10-T13p10-T13p10-T13p10-T13p10-T13p10---|
-----------------------------------------------------------|
-----------------------------------------------------------|
-----------------------------------------------------------|
-----------------------------------------------------------|
-----------------------------------------------------------|

-T17p13-T17p13-T17p13-T17p13-T15p12-T15p12-T15p12-T15p12---|
-----------------------------------------------------------|
-----------------------------------------------------------|
-----------------------------------------------------------|
-----------------------------------------------------------|
-----------------------------------------------------------|

-T12p8-T12p8-T12p8-T12p8-T12p8-T12p8-T12p8-T12p8---|
---------------------------------------------------|
---------------------------------------------------|
---------------------------------------------------|
---------------------------------------------------|
---------------------------------------------------|

-13-15-13-15-13-15-13-12-10---------|
------------------------------------|
------------------------------------|
------------------------------------|
------------------------------------|
------------------------------------|

-17p13----17p13----17-----15p12----15p12----15----|
-------15-------15----15--------13-------13----13-|
--------------------------------------------------|
--------------------------------------------------|
--------------------------------------------------|
--------------------------------------------------|

-17-13-13-18-13-13-17-13-13-18-13-13-20-13-13-13---|
---------------------------------------------------|
---------------------------------------------------|
---------------------------------------------------|
---------------------------------------------------|
---------------------------------------------------|

-17p13----17p13----17-----15p12----15p12----15----|
-------15-------15----15--------13-------13----13-|
--------------------------------------------------|
--------------------------------------------------|
--------------------------------------------------|
--------------------------------------------------|

-13p12----15p12----13-----15bfull-bend--15~----------|
-------13-------13----13-----------------------------|
-----------------------------------------------------|
-----------------------------------------------------|
-----------------------------------------------------|
-----------------------------------------------------|

now the chorus

------------------------------------------------------------|
------------------------------------------------------------|
------------------------------------------------------------|
------------10-10-10-10---------------------7-7-7-7---------|
-8--8-8-8-8-------------8-8-8-8--5--5-5-5-5---------8-8-8-8-|
-8-------------------------------5--------------------------|


---------------------------------------------------------|
---------------------------------------------------------|
---------------------------------------------------------|
---------------------------------------------------------|
-0-0-0-0--0-0--0--3---5--0--0-0--0-0-0--3-0-5------------|
-0-0-0-0--0-0--0----0----0--0-0--0-0-0----0--------------|


-----------------------------------------------------------------|
-----------------------------------------------------------------|
------------9-9-9-9-10-10-10-10-------------9-9-9-9-10-10-10-10--|
-----------------------------------------------------------------|
-8--8-8-8-8----------------------5--5-5-5-5----------------------|
-8-------------------------------5-------------------------------|

---------------------------------------------------------|
---------------------------------------------------------|
---------------------------------------------------------|
-----------------------------------------------0---------|
-0-0-0-0--0-0--0--3---5--0--0-0--0-0-0--3-0-5--0---------|
-0-0-0-0--0-0--0----0----0--0-0--0-0-0----0----0---------|

6 - Boneyards

  Intro x4
|-------------------------------------------------------------|
|-------------------------------------------------------------|
|----4"-2"-4"----4"-2"-2"----4h5p4-5h7p5-4h5p4--------4"------|
|--2-----------3-----------5--------------------3--5"----5"---|
|--2-----------3-----------5--------------------3-------------|
|--2-----------3-----------5--------------------3-------------|
   
  
|-------------------------------------------------------------------------|
|-------------------------------------------------------------------------|
|-------------------------------------------------------------------------| 
|-------------------------------------------------------------------------|
|--5p0------7p0------8p0------10p0-8p0-----5p0-----7p0-----8p0-10p0-8p0---|
|------0000-----0000-----0000----------0-0-----0-0-----0-0----------------| 
       ****     ****     ****          * *     * *     * *

|----------------------------|
|----------------------------|
|----------------------------| 
|--8-7"-5"-7"-8"-7"-10"-8"---|
|--8-------------------------|
|--8-------------------------| 

   Breakdown I
|--------------------------------------------------------------------------|
|--------------------------------------------------------------------------|
|--------------------------------------------------------------------------|
|--------------------------------------------------------5-------8p7p5p----|
|--0--0-0000-00--00-0-0-0--0000-00--0--0-0000-00-0h5h7h8---8p7p5--------8--|
|--0--0-0000-00--00-0-0-0--0000-00--0--0-0000-00---------------------------|
   *  * **** **  ** * * *  **** **  *  * **** **

|-----------| 
|-----------|
|-----------| THIS SECTION X2
|-5---------|
|---8p7p5---|
|-----------|

|--------------------------------------------------------------|
|--------------------------------------------------------------|
|--------------------------------------------------------------| x2
|-------------------------------------------------------7"-----|
|--0--0-0000-00--00-0-0-0--0000-00--0--0-0000-00-10"-8"----8"--|
|--0--0-0000-00--00-0-0-0--0000-00--0--0-0000-00---------------|
   *  * **** **  ** * * *  **** **  *  * **** **

|--------------------------------------------------|
|--------------------------------------------------|
|--------------------------------------------------| 
|--------------------------------------------------|
|--0--0-0000-00--00-0-0-0--0000-00--0--0-0000-00---|
|--0--0-0000-00--00-0-0-0--0000-00--0--0-0000-00---|
   *  * **** **  ** * * *  **** **  *  * **** **

|-----------------------------------| 
|-----------------------------------|
|-----------------------------------|  
|-7p0-0-5p0-0-3p0-5p0-0-3p0-0-2p0---|
|-----------------------------------| 
|-----------------------------------|
 
  Verse I x2
|----------------------------------------------------------------------| 
|----------------------------------------------------------------------|
|----------------------------------------------------------------------|
|----------------------------------------------------------------------| 
|--8-----8-----7---8-----8-----7---8-----8-----7---10-----10-----8-----|
|----0-0---0-0---0---0-0---0-0---0---5-5---5-5---5----7-7----7-7---7---|
     * *   * *   *   * *   * *   *   * *   * *   *    * *    * *   *

|----------------------------------------------------------------------| 
|----------------------------------------------------------------------|
|----------------------------------------------------------------------|
|----------------------------------------------------------2-2h3-------| 
|--8-----8-----7---8-----8-----7---5-----5-----3---7-------------5-3---|
|----0-0---0-0---0---0-0---0-0---0---3-3---3-3---3---5-5-5-------------|
     * *   * *   *   * *   * *   *   * *   * *   *   * * *

  Verse II x4
|---------------------------------------------------------------------| 
|---------------------------------------------------------------------|
|---------------------------------------------------------------------|
|--3-5-3-0---------5-7-5-0--------------------------------------------| 
|--3-5-3-0---------5-7-5-0---------5p0-----7p0-----8p0-----10p0-8p0---|
|--3-5-3-0-0-0-0-0-5-7-5-0-0-0-0-0-----0-0-----0-0-----0-0------------|
           * * * *         * * * *     * *     * *     * *
|---------------------------------------------------------------------| 
|---------------------------------------------------------------------|
|---------------------------------------------------------------------|
|--3-5-3-0---------5-7-5-0--------------------------------------------| 
|--3-5-3-0---------5-7-5-0-------------5p0-----7p0-----8p0-10p0-8p0---|
|--3-5-3-0-0-0-0-0-5-7-5-0-0-0-0-0-0-0-----0-0-----0-0----------------|
           * * * *         * * * * * *     * *     * *    

  Verse III x2
|------------------------------------------------------------------------| 
|------------------------------------------------------------------------|
|------------------------------------------------------------------------|
|--3-5-3-0-----------------------------3-5-3-0---------------------------| 
|--3-5-3-0-----------------------------3-5-3-0---------3-5-3-0-5-7-5-0---|
|--3-5-3-0-0-0-0-0-0-0-0-0-0-0-0-0-0-0-3-5-3-0-0-0-0-0-3-5-3-0-5-7-5-0---|
           * * * * * * * * * * * * * *         * * * * * * * * * * * *

  Breakdown II
|-------------------------------------------------------------------------| 
|-------------------------------------------------------------------------|
|-------------------------------------------------------------------------|
|-----------------------------------------------------------7p0--5p0--3p0-| 
|-0-0-0-0---0--0-0-0--0-0-0-0--0-0-0-0---0--0-0-0--0-0-0-0----------------|
|-1-1-1-1---0--0-0-0--0-0-0-0--1-1-1-1---0--0-0-0--0-0-0-0-0----0----0----|
  * * * *   *  * * *  * * * *  * * * *   *  * * *  * * * * *    *    *

|--------------------------------------------------------------| 
|--------------------------------------------------------------|
|--------------------------------------------------------------|
|----------------------------------------------7p0--5p0--3p0---| 
|-0-0-0-0--0--0-0---0-0-0-0--0--0-0--0-0-0-0-------------------|
|-1-1-1-1--1--1-1---1-1-1-1--1--1-1--1-1-1-1-0-----0----0------|
  * * * *  *  * *   * * * *  *  * *  * * * * *     *    *

|----------------------------------------------------------------| 
|----------------------------------------------------------------|
|----------------------------------------------------------------|
|----------------------------------------------------------------| 
|-0-0-0-0--0--0-0---0-0-0-0--0000-0-0--0-0-0-0--0--0-0--0-0-0-0--|
|-0-0-0-0--0--0-0---0-0-0-0--0000-0-0--0-0-0-0--0--0-0--0-0-0-0--|
  * * * *  *  * *   * * * *  **** * *  * * * *  *  * *  * * * *

|---------------------| 
|---------------------|
|---------------------|  
|---7p0---5p0---3p0---| 
|---------------------|
|-0-----0-----0-------|  
  *     *     *



Repeat Verse I x4



|--------------------------------------------------------------------------|
|--------------------------------------------------------------------------|
|--------------------------------------------------------------------------|
|-7p0-0-5p0-0-3p0-5p0-0-3p0-0-2----0-7p0-0-5p0-0-3p0-5p0-0-3p0-0-2----0--0-|
|-------------------------------3--0-------------------------------3--0--0-|
|----------------------------------0----------------------------------0--0-|
                                                                         *


 "There's Blood In The Water"

                                                                           
Breakdown III
|--------------------------------------------------------------------------|
|--------------------------------------------------------------------------|
|--------------------------------------------------------------------------|
|--------------------------------------------------------5-------8p7p5p----|
|--0--0-0000-00--00-0-0-0--0000-00--0--0-0000-00-0h5h7h8---8p7p5--------8--|
|--0--0-0000-00--00-0-0-0--0000-00--0--0-0000-00---------------------------|
   *  * **** **  ** * * *  **** **  *  * **** **

|-----------| 
|-----------|
|-----------|
|-5---------|
|---8p7p5---|
|-----------|

|--------------------------------------------------------------------------|
|--------------------------------------------------------------------------|
|--------------------------------------------------------------------------|
|-------------------------------------------------------7"----8"-7"-10"-8"-|
|--0--0-0000-00--00-0-0-0--0000-00--0--0-0000-00-10"-8"----8"--------------|
|--0--0-0000-00--00-0-0-0--0000-00--0--0-0000-00---------------------------|
   *  * **** **  ** * * *  **** **  *  * **** **

7 - Idols And Anchors
Tuning: Drop B

INTRO RIFF
0:00
C#|------------------------------------------|
G#|------10----10----------10----10----------|
E |---------12----12----------12----12-------|
B |-12---------------12----------------12----|
F#|------------------------------------------|
B |------------------------------------------|
/// Guitar 1
\\\ Guitar 2
C#|----------------------------------------------|
G#|----------------------------------------------|
E |----------------------------------------------|
B |----------------------------------------------|
F#|-8----------------5-----------------0---------|
B |-8----------------5-----------------0---------|


C#|------------------------------------------|
G#|------10----10----------13----13----------|
E |---------12----12----------10----10-------|
B |-12---------------12----------------------|
F#|------------------------------------------|
B |------------------------------------------|
/// Guitar 1
\\\ Guitar 2
C#|-------------------------------------------------------|
G#|-------------------------------------------------------|
E |-------------------------------------------------------|
B |-------------------------------------------------------|
F#|-8----------------5-----------------0------------------|
B |-8----------------5-----------------0-000-000-000-0----|


C#|------------------------------------------|
G#|------10----10----------13----13----------|
E |---------12----12----------10----10-------|
B |-12---------------12----------------------|
F#|------------------------------------------|
B |------------------------------------------|
/// Guitar 1
\\\ Guitar 2
C#|-----------------------------------------------------------|
G#|-----------------------------------------------------------|
E |-----------------------------------------------------------|
B |-8---------------------3---3-------------------------------|
F#|-8------8----8----5------5---5-0---------------------------|
B |-8--------12---12-5------------0-000-000-000-000---000-000-|


C#|------------------------------------------|
G#|------10----10----------13----13----------|
E |---------12----12----------10----10-------|
B |-12---------------12----------------------|
F#|------------------------------------------|
B |------------------------------------------|
/// Guitar 1
\\\ Guitar 2
C#|--------------------------------------------------------------------|
G#|--------------------------------------------------------------------|
E |---------------------------2h3p2p0--------------------------0---0---|
B |-8---------------------3----------------------------------7---7-----|
F#|-8------8----8----5------5----------0--------------0--------------0-|
B |-8--------12---12-5-----------------0--0-0-00-00-000--0-0---------0-|



RIFF 2
0:40
C#|---------------------------------|
G#|---------------------------------|
E |---------------------------------|
B |---------------------------------|
F#|-----8---8---5---8---8---5h8p5p0-|
B |-0-0---0---0---0---0---0---------|

C#|-----------------------------------------------|
G#|-----------------------------------------------|
E |-----------------------------------------------|
B |-----------------------------------------------|
F#|---5-----8---7h8p7p5---7-----10---10h12p10---8-|
B |-5---5-5---5---------8---8-8----8----------8---|

C#|---------------------------------|----------------------------------|
G#|---------------------------------|----------------------------------|
E |---------------------------------|----------------------------------|
B |---------------------------------|-----------------------------5----|
F#|-----8---8---5---8---8---5h8p5p0-|---10---10---8---8---7---7---3----|
B |-0-0---0---0---0---0---0---------|-5----5----5---5---5---5---5------|


RIFF 3
1:07
C#|-------------------------------------|
G#|-------------------------------------|
E |-------------------------------------|
B |-------------------------------------|
F#|-7h8p7----0--0-----7h8p7----0--0-----|
B |-------10-0--0-0-0-------10-0--0-0-0-|

C#|-------------------------------------------------|
G#|-------------------------------------------------|
E |-------------------------------------------------|
B |-------------------------------------------------|
F#|-7h8p7----12---10---8---7---10-8h10p8h10-7h8p7h8-|
B |-------10----0----0---0---0----------------------|

C#|-------------------------------------|
G#|-------------------------------------|
E |-------------------------------------|
B |-------------------------------------|
F#|-7h8p7----0--0-----7h8p7----0--0-----|
B |-------10-0--0-0-0-------10-0--0-0-0-|

C#|---------------------------------------|
G#|---------------------------------------|
E |---------------------------------------|
B |---------------------------------------|
F#|-7h8p7----8---7---3---0---8-7h8p7p0-3--|
B |-------10---0---0---0---0--------------|


BRIDGE (GUITAR 1)
1:47
C#|-----------------------------------------------------------------------|
G#|-----------------------------------------------------------------------|
E |-h7p0h7p0h7p0h7p0h7p0h7p0h7p0h7p0h9p0h9p0h9p0h9p0h10p0h10p0h10p0h10p0h-|
B |-----------------------------------------------------------------------|
F#|-----------------------------------------------------------------------|
B |-----------------------------------------------------------------------|

C#|------------------------------------------|
G#|------------------------------------------|
E |-h12p0h12p0h12p0h12p0h12p0h12p0h12p0h12p0-|
B |------------------------------------------|
F#|------------------------------------------|
B |------------------------------------------|

C#|--------------------------------------|
G#|--------------------------------------|
E |-h14p0h14p0h14p0h14p0h9p0h9p0h9p0h9p0-|
B |--------------------------------------|
F#|--------------------------------------|
B |--------------------------------------|


BRIDGE (GUITAR 2 HARMONIES)
1:47
C#|------------------------------------------|
G#|------------------------------------------|
E |-h14p0h14p0h14p0h14p0h14p0h14p0h14p0h14p0-|
B |------------------------------------------|
F#|------------------------------------------|
B |------------------------------------------|

C#|------------------------------------------|
G#|------------------------------------------|
E |-h12p0h12p0h12p0h12p0h14p0h14p0h14p0h14p0-|
B |------------------------------------------|
F#|------------------------------------------|
B |------------------------------------------|

C#|------------------------------------------|
G#|------------------------------------------|
E |-h19p0h19p0h19p0h19p0h19p0h19p0h19p0h19p0-|
B |------------------------------------------|
F#|------------------------------------------|
B |------------------------------------------|

C#|------------------------------------------|
G#|------------------------------------------|
E |-h19p0h19p0h19p0h19p0h19p0h19p0h19p0h19p0-|
B |------------------------------------------|
F#|------------------------------------------|
B |------------------------------------------|


BRIDGE (GUITAR 3)
1:59
C#|-------------------------------------------------|
G#|-------------------------------------------------|
E |-------x2--------------x2--------------x4--------|
B |-------------------------------------------------|
F#|-1-1-1-1-1-1-1-1-3-3-3-3-3-3-3-3-----------------|
B |---------------------------------0-0-0-0-0-0-0-0-|


BRIDGE RIFF 2
2:12
C#|------------------------------------|
G#|------------------------------------|
E |------------------------------------|
B |-9s10s9s5s7-------------------------|
F#|-7s8-s7s3s5-------0-------0-------0-|
B |------------0-0-0-0-0-0-0-0-0-0-0-0-|

C#|--------------------------------------|
G#|--------------------------------------|
E |--------------------------------------|
B |-9s10s9s5s7-----------------------5---|
F#|-7s8-s7s3s5-----------------2h3p2-3---|
B |------------0-0-0-5-0-3-0-0-2h3p2-----|


FINAL CHORUS RIFF
2:46
C#|----------------------------------|
G#|-----------10-8-------------8-6---|
E |----0h7h10-----------0h7h10-------|
B |----------------------------------|
F#|-0---------------0----------------|
B |-0---------------0----------------|
/// Guitar 1
\\\ Guitar 2
C#|-----------------------------------|
G#|-----------------------------------|
E |------------10-9-------------9-7---|
B |----0h10h12-----------0h9h10-------|
F#|-0----------------0----------------|
B |-0----------------0----------------|


C#|---------------------------------------------------|
G#|---------------------------------------------------|
E |---------------------------------------------------|
B |----7---------7------------------------------------|
F#|-8----8-5--5----8-5--0-----------------------------|
B |-8---------5---------0-000-000-000-000-000-000-000-|

8 - Moments Of Oblivion
Tuning: Drop B

INTRO RIFF (DIRTY)
0:00
C#|-----------------------------------|
G#|-----------------------------------|
E |----------------------------5s7s5--|
B |-----------------------------------|
F#|-0----3-5-3-0----3-5-3-0----3s5s3--|
B |-0----3-5-3-0----3-5-3-0-----------|

INTRO RIFF (CLEAN)
0:00
C#|---------------------------------|
G#|-3---3---3---3---3---3---3---3---|
E |---2---2---2---2---3---3---5---5-|
B |---------------------------------|
F#|---------------------------------|
B |---------------------------------|

RIFF 2
0:44
C#|----------------------------------------------|
G#|----------------------------------------------|
E |------------------------------9---9s10s9s7----|
B |----------------------------------------------|
F#|-------3----------------3-----7---7s8ss7s5----|
B |-0h3h5---5-3-7----0h3h5---5-3-----------------|
/// Guitar 1
\\\ Guitar 2
C#|----------------------------------------------|
G#|----------------------------------------------|
E |----------------------------------------------|
B |----------------------------------------------|
F#|-------------3----------------7---------------|
B |-------------3----------------7---------------|

C#|-----------------------------------------------------|
G#|-----------------------------------------------------|
E |----------------7s9-9-9--------------9---9s9s7s5--4--|
B |-----------------------------------------------------|
F#|-------3--------5s7-7-7--------3-----7---5s7s5s3--2--|
B |-0h3h5---5-3-7-----------0h3h5---5-3-----------------|
/// Guitar 1
\\\ Guitar 2
C#|-----------------------------------------------------|
G#|-----------------------------------------------------|
E |-------------------------------------------------<3>-|
B |-----------------------------------------------------|
F#|-5-----------3-----------------------7---------------|
B |-5-----------3-----------------------7---------------|

RIFF 3 (UNSURE OF MELODY HARMONY)
1:09
C#|----------------------------------------------|
G#|---------5----------5------------5-----8------|
E |-5---4-5---5----4-5---5s2----4-5---5-5--------|
B |----------------------------------------------|
F#|----------------------------------------------|
B |----------------------------------------------|
/// Guitar 1
\\\ Guitar 2
C#|----------------------------------------------|
G#|----------------------------------------------|
E |----------------------------------------------|
B |----------------------------------------------|
F#|-3-------7----------5------------3------------|
B |-3-------7----------5------------3------------|

C#|--------------------------------------------------------------|
G#|-----5----------5------------5--h6p5----------5-------5-------|
E |-4-5---5----4-5---5s2----4-5---------5----4-5-----4-5---5s2---|
B |--------------------------------------------------------------|
F#|--------------------------------------------------------------|
B |--------------------------------------------------------------|
/// Guitar 1
\\\ Guitar 2
C#|--------------------------------------------------------------|
G#|--------------------------------------------------------------|
E |--------------------------------------------------------------|
B |--------------------------------------------------------------|
F#|-----7---------5-------------3----------------7-------5-------|
B |-----7---------5-------------3----------------7-------5-------|

C#|--------------------------------------------------------------------|
G#|-----5-5-5-3-3-3-1-1-3-3-3-1-1-1-----5-----8---6-8-5-6-3-5-1--------|
E |-4-5-----------------------------4-5---5-4--------------------0--2--|
B |--------------------------------------------------------------------|
F#|--------------------------------------------------------------------|
B |--------------------------------------------------------------------|
/// Guitar 1
\\\ Guitar 2
C#|--------------------------------------------------------------------|
G#|--------------------------------------------------------------------|
E |--------------------------------------------------------------------|
B |--------------------------------------------------------------------|
F#|-3-----------------------------------7---------5-----------------3--|
B |-3-----------------------------------7---------5-----------------3--|

9 - Breaking Point

 Intro
          Trem picking
|-5000070000800007000050000700008000070000100000800007000050000120000100000-|
|---------------------------------------------------------------------------|
|---------------------------------------------------------------------------|
|---------------------------------------------------------------------------|
|---------------------------------------------------------------------------|
|---------------------------------------------------------------------------|


|-8000070000500007000080000700005000070000800007----------------------------|
|-----------------------------------------------570000780000800100012~------|
|---------------------------------------------------------------------------|
|---------------------------------------------------------------------------|
|---------------------------------------------------------------------------|
|---------------------------------------------------------------------------|


Tapping (Listen to the song to know how long is each tapping)

|---------------------------------------------------------------------------|
|--12p8h12p8h12p8h12p8h12p812p8---10p7h10p7h10p7h10p7-----------------------|
|------------------------------------------------------11p7h11p7h11p7h11p7--|
|---------------------------------------------------------------------------|
|---------------------------------------------------------------------------|
|---------------------------------------------------------------------------|


|---------------------------------------------------------------------------|
|--12p8h12p8h12p8h12p8h12p812p8--13p8h13p8h13p8h13p8--15p10h15p10h15p10/15~-|
|---------------------------------------------------------------------------|
|---------------------------------------------------------------------------|
|---------------------------------------------------------------------------|
|---------------------------------------------------------------------------|


Couldnt figure out the harmonic :(     
                                                     [    X4    ]
|-----------------------------------------------------19-15-0000------------|
|-7-8p7p0--7-8p7p0--7-8p7p0--7-8p7p0----------------------------------------|
|---------------------------------------------------------------------------|
|---------------------------------------------------------------------------|
|---------------------------------------6ph---------------------------------|
|---------------------------------------------------------------------------|


|-19-15-00-17-14-00-15-12-00-17-14-00-15-12-00-14-10-00-15-12-00-14-10------|
|---------------------------------------------------------------------------|
|---------------------------------------------------------------------------|
|---------------------------------------------------------------------------|
|---------------------------------------------------------------------------|
|---------------------------------------------------------------------------|


15 17 and 19 frets are tapped

|-10h12h14t15p14p12p10h12h14t17p14p12p10h12h14t19p14p12p10h12h14t17p14p12p10|
|---------------------------------------------------------------------------|
|---------------------------------------------------------------------------|
|---------------------------------------------------------------------------|
|---------------------------------------------------------------------------|
|---------------------------------------------------------------------------|


 Trem picking   
                                                   [       X4       ]
|-------151719191715------------151719191715--------19p17p15---------18b19~-|
|-151719------------191715151719------------191715----------19p17p15--------|
|---------------------------------------------------------------------------|
|---------------------------------------------------------------------------|
|---------------------------------------------------------------------------|
|---------------------------------------------------------------------------|


Verse I

|-----------------------------------------|---------------------------------|
|-----------------------------------------|---------------------------------|
|-----------------------------------------|---------------------------------|
|-----------------------------------------|--------------------7p5p0--------|
|-----------8h12p8h12-----------7h10p7h10-|--------------------------8p7p0--|
|-8h12p8h12-----------7h10p7h10-----------|-0-00-0-00-0-0-0-0---------------|
                                              ..   ..   .   .  

|---------------------------------------------------------------------------|
|---------------------------------------------------------------------------|
|---------------------------------------------------------------------------|
|-----------------------------------------------------7-5-0-----------------|
|-5p3p0------------------8-7---7-5--------------------------8-7-0-5-3-------|
|--------0-00-0-00-0-0-5-----3-----2-3--0-00-0-00-0-0-----------------------|
           ..   ..   .                    ..   ..   . . . . . . . . .

|---------------------------------------------------------------------------|
|-----------------------------------------------------------T---------------|
|------------------------------------------------------------W--------------|
|-777---------------------------------------------------------I-------------|
|-----888-101010-777-----------8h12p8h12-----------7h10p7h10---C------------|
|--------------------8h12p8h12-----------7h10p7h10--------------E-8h12p8h12-|


                   Breakdown 
|----------------|----------------------------------------------------------|
|----------------|----------------------------------------------------------|
|----------------|----------------------------------------------------------|
|----------------|----------------------------------------------------------|
|--8h12p8h12-----|----------------------------------------------------------|
|------------7---|--0000-0000-00----------------0000-0000-00----------------|
                    .... .... ..                .... .... ..

|---------------------------------------------------------------------------|
|---------------------------------------------------------------------------|
|---------------------------------------------------------------------------|
|---------------------------------------------------------------------------|
|------------------------------------------------------8h12p8h12------------|
|--0000-0000-00--0000-0000-00--0000-0000-00--8h12p8h12-----------7h10p7h10--|
   .... .... ..  .... .... ..  .... .... ..
   
|-------------------------------------------------------------12h15p12------|
|-----------------------------------------------------------13--------13----|
|---------------------------------------------------------12------------12--|
|-------------------------------------------------------14------------------|
|-7h10p7h10-[------------X3------------]--------------15--------------------|
|------------0000-0000-00--0-00-0-00-00--0000-0000-00-----------------------|
             .... .... ..  . .. . .. ..  .... .... ..[          X2        ]

|---------------------------------------------------------------------------|
|---------------------------------------------------------------------------|
|---------------------------------------------------------------------------|
|---------------------------------------------------------------------------|
|-------------------------------------------------------8h12p8h12-----------|
|-000000000-0-0--0-00-0-00-00--000000000-0-0--8h12p8h12-----------7h10p7h10-|
  ......... . .  . .. . .. ..  ......... . .  


|--------------------------------------------------------------12h15p12-----|
|------------------------------------------------------------13--------13---|
|----------------------------------------------------------12------------12-|
|--------------------------------------------------------14-----------------|
|-7h10p7h10--------------------------------------------15-------------------|
|-----------000000000-0-0--0-00-0-00-00--000000000-0-0----------------------|
            ......... . .  . .. . .. ..  ......... . .[          X2        ]

Verse II

|------------------------------------------------------------------4--------|
|-------------------------------------------------------------------T-------|
|--------------------------------------------------------------------I------|
|---------7-7---5------------7---3----------3-------------------------M-----|
|---------5/8---7------------8---5----------5---------8-7---7-5--------E----|
|-0-0-0-0-----0----0-0-0-0-0---0----0-0-0-0---0-0-0-5-----3-----2-3-----S---|
    . . .     .    . . . . .   .    . . . .   . . . 

Bridge

|--------------------------------------------------------|------------------|
|--------------------------------------------------------|------------------|
|--77777777--99999999--1010101010101010--12121214121212--|------------------|
|--xxxxxxxx--xxxxxxxx--x-x-x-x-x-x-x-x---x-x-x-x-x-x-x---|------------------|
|--55555555--77777777--8-8-8-8-8-8-8-8---10101010101010--|------------------|
|--------------------------------------------------------|--000000-000000---|
  [                            x2                      ]    ...... ......


|---------------------------------------------------------------------------|
|--------------------------------------------------------------------T------|
|--7-----7-----7---9-----9-----9---10----10----10--12-----14-----12---W-----|
|--x-----x-----x---x-----x-----x---x-----x-----x---x------x------x-----I----|
|--5-----5-----5---7-----7-----7---8-----8-----8---10-----10-----10-----C---|
|----0-0---0-0---0---0-0---0-0---0---0-0---0-0---0----0-0----0-0----0----E--|
     . .   . .   .   . .   . .   .   . .   . .   .    . .    . .    .

 Solo

|---------------------------------------------------------------------------|
|-----------------------13b15(13)~---10h11p10-------------------------------|
|--5/7/9--14/12-10-9-10-----------------------12-14p12-10----10~------------|
|---------------------------------------------------------12-10~-12-12------|
|---------------------------------------------------------------------------|
|---------------------------------------------------------------------------|


|-----12-13-15b17(15)-------------------------------------------------------|
|--15------------------15p10-13p10----10-15p10-13p10----10-15p10-13p10------|
|----------------------------------12----------------12---------------------|
|---------------------------------------------------------------------------|
|---------------------------------------------------------------------------|
|---------------------------------------------------------------------------|
                                                     
                                                    Trem picking
|---------------------------------------------------13-12-10-12 13-12-10-12-|
|--17p13-15p13----13--17p13-15p13----13-17p13-15p13-------------------------|
|--------------14-----------------14----------------------------------------|
|---------------------------------------------------------------------------|
|---------------------------------------------------------------------------|
|---------------------------------------------------------------------------|


|-13-15-13-12-13-15-13-12-13-15-17-15-13-15-17-15-13-15-17-20-17-15-17-20---|
|---------------------------------------------------------------------------|
|---------------------------------------------------------------------------|
|---------------------------------------------------------------------------|
|---------------------------------------------------------------------------|
|---------------------------------------------------------------------------|
                                     

|17-15-17-20b22~------------------------------------------------------------|
|---------------------------------------------------------------------------|
|---------------------------------------------------------------------------|
|---------------------------------------------------------------------------|
|---------------------------------------------------------------------------|
|---------------------------------------------------------------------------|
                              

Breakdown II

|---------------------------------------------------------------------------|
|--------------------------------------------T------------------------------|
|---------------------------------------------W-----------------------------|
|----------------------------------------------I----------------------------|
|----------------------------------8~--7~-------C---------------------------|
|--000000-000000---000000-000000-0---0---2-3-----E------000000-000000-------|
   ...... ......   ...... ......                        ...... ......


|---------------------------------------------------------------------------|
|---------------------------------------------------------------------------|
|---------------------------------------------------------------------------|
|---------------------------------------------------------------------------|
|---------------------------------------------------------------------------|
|-000000-000000---0-0--0-0--0-0--0-0---000000-000000----000000-000000-------|
  ...... ......   . .  . .  . .  . .   ...... ......    ...... ......


|---------------------------------------------------------------------------|
|---------------------------------------------------------------------------|
|---------------------------------------------------------------------------|
|---------------------------------------------------------------------------|
|--------SLOWER-TEMPO-------------------------------------------------------|
|--0--0---0--0---0--0---0--0------------------------------------------------|
   .  .   .  .   .  .   .  .

Outro

|---------------------------------------------------------------------------|
|---------------------------------------------------------------------------|
|---------------------------------------------------------------------------|
|---------------------7p5p0-------------------------------------------------|
|---------------------------8p7p0-5p3p0-------------------8-7---7-5---------|
|--0-00-0-00-0-0-0-0---------------------0-00-0-00-0-0--5-----3-----2-3-----|
     ..   ..   .   .                       ..   ..   .

|---------------------------------------------------------------------------|
|---------------------------------------------------------------------------|
|---------------------------------------------------------------------------|
|-----------------7-5-0-----------777---------------------------------------|
|-----------------------8-7-0-5-3-----888-101010-7777-----------8h12p8h12---|
|--0-00-0-00-0-0--------------------------------------8h12p8h12-------------|
   . .. . ..   .  . . . . . . . .                 

|--------------------------------------12h15p12------------12h15p12---------|
|---------------------- T------------13--------13--------13--------13-------|
|------------------------W---------12------------12----12------------12-----|
|-------------------------I------14------------------14-----------------12\-|
|------------7h10p7h10-----C---15------------------15-------------------12\-|
|--7h10p7h10----------------E-------------------------------------------12\-|

10 - Dead Man's Chest

Intro

   C |--------------------------------------------|
   G |--------------------------------------------|
   D#|--------------------------------------------|
   A#|--------------------------------------------|
   F |-0-1-0-4-0-3-1-3----------------------------|
   A#|-0-1-0-4-0-3-1-3----------------------------|

Chorus (x2)

   C |--------------------------------------------------------------------|
   G |--------------------------------------------------------------------|
   D#|--------------------------------------------------------------------|
   A#|--------------------------------------------------------------------|
   F |-0-0-0-0----------0-0-0-0----------0-0-0-0----------0-1-0-4-0-3-1-3-|
   A#|-0-0-0-0-00-00-0--0-0-0-0-00-00-0--0-0-0-0-00-00-0--0-1-0-4-0-3-1-3-|
       * * * *          * * * *          * * * *


   C |-------------------|
   G |-------------------|
   D#|-------------------|
   A#|-------------------|
   F |-0-0-0-0-----------|
   A#|-0-0-0-0-----------|
       * * * *
Chorus (Slightly changed) x 2

   C |--------------------------------------------------------------------|
   G |--------------------------------------------------------------------|
   D#|--------------------------------------------------------------------|
   A#|-------------------------11-11-1------------------------------------|
   F |-0-0-0-0-----------0-0-0-33-33-3--0-0-0-0---------0-1-0-4-0-3-1-3---|
   A#|-0-0-0-0-00-00-0---0-0-0----------0-0-0-0-00-00-0-0-1-0-4-0-3-1-3---|
       * * * *           * * *          * * * *

   C |--------------------------------|
   G |--------------------------------|
   D#|--------------------------------|
   A#|-0~-----------0~----------------|
   F |-0~-----------0~----------------|
   A#|-0~-----------0~------Pickscrape|


Fast Hammer ons and pull offs (verse)


   C |-----------------------------------------------------|
   G |-----------------------------------------------------|
   D#|-----------------------------------------------------|
   A#|-----------------------------------------------------|
   F |-0--5h8p5h8p5----7h10p7h10p7---3h7p3h7p3---5h8p5h8p5-|
   A#|-0------------0-0------------0-----------0-----------|
                    * *            *           *
   C |-----------------------------------------------------|
   G |-----------------------------------------------------|
   D#|-----------------------------------------------------|
   A#|-----------------------------------------------------|
   F |-0--5h8p5h8p5----7h10p7h10p7---3h7p3h7p3---5h8p5h8p5-|
   A#|-0------------0-0------------0-----------0-----------|
                    * *            *           *
   C |--------------------------------------------------------|
   G |--------------------------------------------------------|
   D#|--------------------------------------------------------|
   A#|--------------------------------------------------------|
   F |-5~--5h8p5h8p5----7h10p7h10p7---3h7p3h7p3---5h8p5h8p5---|
   A#|-5~------------0-0------------0-----------0-------------|
                    * *            *           *
   C |--------------------------------------------------------|
   G |--------------------------------------------------------|
   D#|--------------------------------------------------------|
   A#|--------------------------------------------------------|
   F |-8~--5h8p5h8p5----7h10p7h10p7---3h7p3h7p3---5h8p5h8p5---|
   A#|-8~------------0-0------------0-----------0-------------|
                    * *            *           *

Verse 2

                                  Strum chords losely, Up/down strum rhythm
 C |------------------------------|  |------------------------------------|
 G |------------------------------|  |------------------------------------|
 D#|3-----------------------------|  |3-----------------------------------|
 A#|--5-------5-------000-000-0000|  |--5-------5----------8-------10-----|
 F |------------------000-000-0000|  |---------------------8-------10-----|
 A#|-----8-7v----8-5v-000-000-0000|x3|-----8-7v----8/10---10-(x3)--12-(x3-|
                        *** *** ****
                                            Change in tempo for this bar.
   C |------------------------------|   |-----------------------------|
   G |------------------------------|   |-----------------------------|
   D#|3-----------------------------|   |3----------------------------|
   A#|--5-------5-------0-0-0--0-0-0|   |--5---------5----------------|
   F |------------------0-0-0--0-0-0|   |-------------------5~-3~--0~-|
   A#|-----8-7v----8-5v-0-0-0--0-0-0|x3 |------8--7v-----8--5~-3~--0~-|
                        * * *  * * *

Verse ending

   C |------------------------------------------|
   G |------------------------------------------|
   D#|------------------------------------------|
   A#|------------------------------------------|
   F |-0-0-0-0----------------------------------|
   A#|-0-0-0-0-00-00-0--------------------------|
       * * * *

Chorus x 1

   C |--------------------------------------------------------------------|
   G |--------------------------------------------------------------------|
   D#|--------------------------------------------------------------------|
   A#|--------------------------------------------------------------------|
   F |-0-0-0-0----------0-0-0-0----------0-0-0-0----------0-1-0-4-0-3-1-3-|
   A#|-0-0-0-0-00-00-0--0-0-0-0-00-00-0--0-0-0-0-00-00-0--0-1-0-4-0-3-1-3-|
       * * * *          * * * *          * * * *

Chorus (Slightly changed) x 1

   C |--------------------------------------------------------------------|
   G |--------------------------------------------------------------------|
   D#|--------------------------------------------------------------------|
   A#|--------------------------11-11-1-----------------------------------|
   F |-0-0-0-0------------0-0-0-33-33-3--0-0-0-0----------0-1-0-4-0-3-1-3-|
   A#|-0-0-0-0-00-00-0----0-0-0----------0-0-0-0-00-00-0--0-1-0-4-0-3-1-3-|
       * * * *            * * *          * * * *
Breakdown

   C |-------------------------------------------------------|
   G |-------------------------------------------------------|
   D#|-------------------------------------------------------|
   A#|--------------------------------------------1~---------|
   F |-0-0-0-0-----00-00-00-----0000000-----0-0-0-1~---------|
   A#|-0-0-0-0-----00-00-00-----0000000-----0-0-0-1~---------|x2
       * * * *     ** ** **     *******     * * *
   C |-------------------------|
   G |-------------------------|
   D#|-------------------------|
   A#|--1~---------------------|
   F |--1~---------------------|
   A#|--1~---------------------|

Outro x 6

   C |---------------------------------------------------------------------|
   G |---------------------------------------------------------------------|
   D#|---------------------------------------------------------------------|
   A#|---------------------------11-11-1---------------------------11-11-1-|
   F |-0-0-0-0-0-0-0-0-0-0-0-0-0-33-33-3--0-0-0-0----------0-0-0-0-33-33-3-|
   A#|-0-0-0-0-0-0-0-0-0-0-0-0-0----------0-0-0-0-00-00-0--0-0-0-0---------|
       * * * * * * * * * * * * *          * * * *          * * * *

Other Guitarist in the background on 2nd set of outro (let each note ring out)

      C |-----------------------------------------|
      G |-----4-------6---4----6--4-----------4---|
      D#|-7-------7---------7---------7---------7-|
      A#|-----------------------------------------|
      F |-----------------------------------------|
      A#|-----------------------------------------|

11 - Frostbite - No Tab :( Sorry :(

12 - Horizons

0.00 - 0.22 (rhythm continues)
|--7-----7-----10-----2-----2-----5-----3-----3-----7----5-----7-----2--|
|----0-----0------------0-----0-----0-----0-----0-----0----0-----0------|
|------0-----0------------0-----0-----0-----0-----0----------0-----0----|
|-----------------------------------------------------------------------|
|-----------------------------------------------------------------------|
|-----------------------------------------------------------------------|


0.22 - 0.51
|------------------------------------------------------|
|------------------------------------------------------|
|-----------------------------4--5--7--------4--5--7---|
|--2-----2-----\-slide----2---4--3--7----2---4--5--7---|
|--2-----2-----\----------2---2--3--5----2---2--3--5---|
|--2-----2-----\----------2--------------2-------------|

0.52 - 1.04
|--------------------------------------------------------------------|
|--------------------------------------------------------------------|
|-5555555555555555---7777777777777777---5555555555555555---77777777--|
|-5555555555555555---7777777777777777---5555555555555555---55555555--|
|-3333333333333333---5555555555555555---3333333333333333---55555555--|
|--------------------------------------------------------------------|
  ****************   ****************   ****************   ********


1.05 - 1.10
Fill:
|---------|
|---------|
|---------|
|-5--4--2-|
|-5--4--2-|
|-5--4--2-|


1.11 - 1.17
|-------------------------------------------|
|-------------------------------------------|
|-------------------------------------------|
|-------------------------------------------|
|-----5h7h8-----7h8h10-----3----8---7p5p3---|
|-000-------000--------000---0----0---------|
  ***       ***        ***   *    *


1.18 - 1.30
|----------------------------------------------|
|----------------------------------------------|
|----------------------------------------------|
|----------------------------------------------|
|-----7h8h10------8h10h12-----12---10---8p7p5--|
|-555---------777---------888----8----8--------|
  ***         ***         ***    *    *


1.31 - 1.37
|-------------------------------------------|
|-------------------------------------------|
|-------------------------------------------|
|-------------------------------------------|
|-----5h7h8-----7h8h10-----3----8----7p5p3--|
|-000-------000--------000---0----0---------|
  ***       ***        ***   *    *


1.38 - 1.34
|----------------------------------------------|
|----------------------------------------------|
|-----------------------------10---8----7p5p3--|
|-----7h8h10------8h10h12----------------------|
|----------------------------------------------|
|-555---------777---------888----8---8---------|
  ***         ***         ***    *   *


1.35 - 2.04
|------------------------------------------------------------|
|------------------------------------------------------------|
|------------------------------------------------------------|
|-0-0--0000--0000-0000--0-0--0000------3---(3)---------------|
|-0-0--0000--0000-0000--0-0--0000--------7----------3p2(h3)--|
|-0-0--0000--0000-0000--0-0--0000--000----------000----------|
  * *  ****  **** ****  * *  ****  ***          ***


2.04 - 2.11
|---------------------------------------------------|
|---------------------------------------------------|
|---------------------------------------------------|
|-0-0--0000--0000-0000--0-0--0000--777-555----------|
|-0-0--0000--0000-0000--0-0--0000----------333------|
|-0-0--0000--0000-0000--0-0--0000--------------555--|
  * *  ****  **** ****  * *  ****



2.12 - 2.37
|-----------------------------------------------------------------------|
|-----------------------------------------------------------------------|
|-----------------------------------------------------------------------|
|-----------------------------------------------------------------------|
|------7---8---7-8------7---8---7-8-------8---8p7-5-7------5---5p3---3--|
|--888---8---8------555---5---5-------000---0----------333---3-----3----|
   ***   *   *      ***   *   *       ***   *          ***   *     *

2.38 - 2.40
Fill:
|-------|
|-------|
|-------|
|--0----|
|--0----|
|--0----|

2.41 - 2.43
|-------------------------------------------|
|-------------------------------------------|
|-------------------------------------------|
|-------------------------------------------|
|-----5h7h8-----7h8h10-----3---8----7p5p3---|
|-000-------000--------000---0----0---------|
  ***       ***        ***   *    *


2.44 - 2.57
|----------------------------------------------|
|----------------------------------------------|
|----------------------------------------------|
|----------------------------------------------|
|-----7h8h10------8h10h12-----12---10---8p7p5--|
|-555---------777---------888----8----8--------|
  ***         ***         ***    *    *


2.58 - 3.03
Fill:
|------------------------|
|------------------------|
|------------7-----------|
|--0-----0---7-----------|
|--0-----0---5---0000----|
|--0-----0-------0000----|
                 ****


3.04 - 3.16
|------------------------------------------|
|------------------------------------------|
|------------------------------------------|
|-0--------0--------0------0------0--------|
|-0-00000--0-00000--0-000--0-000--0-00000--|
|-0-00000--0-00000--0-000--0-000--0-00000--|
    *****    *****    ***    ***    *****


3.17 - 3.28
|--------------------------------------------------------------------------|
|--------3----------3-------------------3----------3-------------------3---|
|--------2----------2-------------------2----------2-------------------2---|
|--------0----------0-------------------0----------0-------------------0---|
|-000-0--0---000-0--0---000-000--000-0--0---000-0--0---000-000--000-0--0---|
|-000-0--0---000-0--0---000-000--000-0--0---000-0--0---000-000--000-0--0---|
  *** *      *** *      *** ***  *** *      *** *      *** ***  *** *

|-----------------------------------------------------|
|--------3----------3-------------------3----------3--|
|--------2----------2-------------------2----------2--|
|--------0----------0-------------------0----------0--|
|-000-0--0---000-0--0---000-000--000-0--0---000-0--0--|
|-000-0--0---000-0--0---000-000--000-0--0---000-0--0--|
  *** *      *** *      *** ***  *** *      *** *


3.29 - 3.32
|-------------------|
|-------------------|
|-------------------|
|----------------7--|
|-------3--------3--|
|-0h3h7---7-5----3--|


3.33 - 3.55
|-------------------------------------------------------|
|-------------------------------------------------------|
|------------------9s10s9--7------------------7s9-9-9---|
|--------------10--------------------------7------------|
|-------3-------7--7s8s-7--5--------3------3--5s7-7-7---|
|-0h3h7----7-5--7-------------0h3h7---7-5--3------------|

|-----------------------------|
|-----------------------------|
|------------------7s9s7-5-4--|
|--------------10-------------|
|-------3------7---5s7s5-3-2--|
|-0h3h7---7-5--7--------------|


3.56 - 4.20
|----------------------------------------------------------------------------|
|----------------------------------------------------------------------------|
|------12s14-14-14-16-17-------12s14-14-14--14s12-12-------12s14-14-14-16-17-|
|--3-----------------------7---------------------------3---------------------|
|--3---10s12-12-12-14-15---7---10s12-12-12--12s10-10---3---10s12-12-12-14-15-|
|--3-----------------------7---------------------------3---------------------|

|-------------------------------------------|
|-------------------------------------------|
|------12s14-14-14---9-10-9h10-0-7-5-4h5p4--|
|--7----------------------------------------|
|--7---10s12-12-12--------------------------|
|--7----------------------------------------|

Rhythm Fill (can be played instead of the second half of the above tab).
|------------------------------|
|------------------------------|
|-12-14-12h14-0--------------0-|
|----------------12-14-12h14---|
|------------------------------|
|------------------------------|


4.21 - 4.33
Sweep picked:
|----------17h19p17--------------------17h19p17----------------------17h19p17-----------|
|-------17----------17--------------17----------17---------------17-----------17--------|
|----17----------------17--------17----------------17---------17-----------------17-----|
|-19---------------------19---19----------------------19---19-----------------------19--|
|---------------------------------------------------------------------------------------|
|---------------------------------------------------------------------------------------|

|----------17h19h17---------------------19h20p19-17--------------------19h20p19-17-----------|
|-------17----------17---------------17-------------17--------------17-------------17--------|
|----17----------------17---------17------------------17---------17-------------------17-----|
|-19----------------------19---19------------------------19---19-------------------------19--|
|--------------------------------------------------------------------------------------------|
|--------------------------------------------------------------------------------------------|

|----------19h20p19-17---------------------20h22p19-17---------------------17h19p17-----------|
|-------17-------------17---------------17-------------17---------------17----------17--------|
|----17-------------------17---------17-------------------17---------17----------------17-----|
|-19-------------------------19---19-------------------------19---19----------------------19--|
|---------------------------------------------------------------------------------------------|
|---------------------------------------------------------------------------------------------|

|----------17h19p17--------------------17h19p17----------------------17h19p17-----------|
|-------17----------17--------------17----------17---------------17-----------17--------|
|----17----------------17--------17----------------17---------17-----------------17-----|
|-19---------------------19---19----------------------19---19-----------------------19--|
|---------------------------------------------------------------------------------------|
|---------------------------------------------------------------------------------------|

|----------19h20p19-17--------------------19h20p19-17------------------------|
|-------17-------------17---------------17-------------17-------------17-----|
|----17-------------------17---------17------------------17---------17-------|
|-19-------------------------19---19-----------------------19----19----------|
|----------------------------------------------------------------------------|
|----------------------------------------------------------------------------|


Lead Fill:
|------------------------|
|------------------------|
|-9-10-9h10-0-7-5-4h5p4--|
|------------------------|
|------------------------|
|------------------------|

Rhythm Fill:
|------------------------------|
|------------------------------|
|-12-14-12h14-0--------------0-|
|----------------12-14-12h14---|
|------------------------------|
|------------------------------|


4.34 - 4.45
|-t12p8p5h8-x6---10p7p3h7-x2--|
|-----------------------------|
|-----------------------------|
|-----------------------------|
|-----------------------------|
|-----------------------------|

Lead Fill:
|------------------------|
|------------------------|
|-9-10-9h10-0-7-5-4h5p4--|
|------------------------|
|------------------------|
|------------------------|

Rhythm Fill:
|------------------------------|
|------------------------------|
|-12-14-12h14-0--------------0-|
|----------------12-14-12h14---|
|------------------------------|
|------------------------------|



4.46 - 4.58
|----------------------------------------------------------------------------|
|----------------------------------------------------------------------------|
|------12s14-14-14-16-17-------12s14-14-14--14s12-12-------12s14-14-14-16-17-|
|--3-----------------------7---------------------------3---------------------|
|--3---10s12-12-12-14-15---7---10s12-12-12--12s10-10---3---10s12-12-12-14-15-|
|--3-----------------------7---------------------------3---------------------|

|-------------------------------------------|
|-------------------------------------------|
|------12s14-14-14---9-10-9h10-0-7-5-4h5p4--|
|--7----------------------------------------|
|--7---10s12-12-12--------------------------|
|--7----------------------------------------|

Rhythm Fill (can be played instead of the second half of the above tab).
|------------------------------|
|------------------------------|
|-12-14-12h14-0--------------0-|
|----------------12-14-12h14---|
|------------------------------|
|------------------------------|


4.49 - End.
|-t12p8p5h8-x6---10p7p3h7-x2--|
|-----------------------------|
|-----------------------------|
|-----------------------------|
|-----------------------------|
|-----------------------------|

welp there ya go!
thanks to all those whos tabs these be!
have fun! :D
PARKWAY!!!!!!
comments
We did not receive enough feedback on this tab! Please rate:
print report bad tab
1 2 3 4 5
2 comments total.
0 reply
surgikal wrote on February 3 2011, 11:32 am

you didnt do any of it..but it is all correct..so.. 5 stars !

0 reply
jjkkllmmnn wrote on February 7 2011, 06:01 pm

ha i know. i just hated jumping tabs. ill probably do the other albums too. but yea, i take no credit for this.

I want to post or [tab]
guest
You may want to rate the tab now too:
select rating
Please do not post tabs as comments. Select "correction" instead!