Oops, an error
Loading. Please wait.

Horizons Tab

ver2
ver2

Album

Whole song

Interactive

More versions @911Tabs.com
1,750 views 12 this week
no commentswrite comment
1 2 3 4 5
excellent!
x 3
Autoscroll
+/-
esc
set tempo
stop
Contributor
Hey! There's an official Ultimate Guitar app which is ideal
for learning songs when you're away from computer. Get the app
WARNING: You are trying to view
                                    content from Ultimate-Guitar.com
                                    in an unauthorized application,
                                    which is prohibited.

                                    Please use an official Ultimate
                                    Guitar Tabs application for iPhone,
                                    iPad or Android to access legitimate
                                    chords, guitar, bass, and drum tabs
                                    from Ultimate-Guitar.com database.

                                    Type "ultimate guitar tabs" in Apple
                                    App Store's or Android Market's
                                    search to find the application.

PARKWAY DRIVE 

HORIZONS ALBUM

ALL SONGS TABBED BY andherembrace



BEGIN 

B-F#-B-E-G#-C#



fades in

------7----------7----------8----------12-----|
---10---10----10---10----12---12----10----10--|
-9---------10---------12---------12-----------|
----------------------------------------------|
----------------------------------------------|
----------------------------------------------|


------7----------7----------8----------12-----|
---10---10----10---10----12---12----10----10--|
-9---------10---------12---------12-----------|
----------------------------------------------|
----------------------------------------------|
----------------------------------------------|


------7----------7----------8----------12-----|
---10---10----10---10----12---12----10----10--|
-9---------10---------12---------12-----------|
----------------------------------------------|
----------------------------------------------|
----------------------------------------------|


------7----------7----------8----------12-----|
---10---10----10---10----12---12----10----10--|
-9---------10---------12---------12-----------|
----------------------------------------------|
----------------------------------------------|
----------------------------------------------|


0:23

1
------7----------7----------8----------12-----|
---10---10----10---10----12---12----10----10--|
-9---------10---------12---------12-----------|
----------------------------------------------|
----------------------------------------------|
----------------------------------------------|
2
-12----12----10----10----8----8-10-------12----|
----10----10----13----13---12------13-12----12-|
-----------------------------------------------|
-----------------------------------------------|
-----------------------------------------------|
-----------------------------------------------|



1
------7----------7----------8----------12-----|
---10---10----10---10----12---12----10----10--|
-9---------10---------12---------12-----------|
----------------------------------------------|
----------------------------------------------|
----------------------------------------------|
2
-12----12----10----10----8----8-10-------12----|
----10----10----13----13---12------13-12----12-|
-----------------------------------------------|
-----------------------------------------------|
-----------------------------------------------|
-----------------------------------------------|


1
------7----------7----------8----------12-----|
---10---10----10---10----12---12----10----10--|
-9---------10---------12---------12-----------|
----------------------------------------------|
----------------------------------------------|
----------------------------------------------|
2
-12----12----10----10----8----8-10-------12----|
----10----10----13----13---12------13-12----12-|
-----------------------------------------------|
-----------------------------------------------|
-----------------------------------------------|
-----------------------------------------------|

1
------7----------7----------8----------12-----|
---10---10----10---10----12---12----10----10--|
-9---------10---------12---------12-----------|
----------------------------------------------|
----------------------------------------------|
----------------------------------------------|
2
-12----12----10----10----8----8-10-------12----|
----10----10----13----13---12------13-12----12-|
-----------------------------------------------|
-----------------------------------------------|
-----------------------------------------------|
-----------------------------------------------|



||||||||||||||||||||||||||||||||||||||||||||||||||||
||||||||||||||||||||||||||||||||||||||||||||||||||||
||||||||||||||||||||||||||||||||||||||||||||||||||||
||||||||||||||||||||||||||||||||||||||||||||||||||||








THE SIREN'S SONG

B-F#-B-E-G#-C#



1
-202015151515-----------------------------------------------------|
-------------151520201515-----------------------------------------|
-------------------------20201515202015151515------------19191515-|
---------------------------------------------151519191515---------|
------------------------------------------------------------------|
------------------------------------------------------------------|
2
----------------------------------------------------------------|
----------------------------------------------------------------|
----------------------------------------------------------------|
-0--------------------------------------------------------------|
-0--------------------------------------------------------------|
-0--------------------------------------------------------------|

1
-202015151515-----------------------------------------------------|
-------------151520201515-----------------------------------------|
-------------------------20201515202015151515------------19191515-|
---------------------------------------------151519191515---------|
------------------------------------------------------------------|
------------------------------------------------------------------|
2
----------------------------------------------------------------|
----------------------------------------------------------------|
----------------------------------------------------------------|
-0--------------------------------------------------------------|
-0--------------------------------------------------------------|
-0--------------------------------------------------------------|


1
-202015151515-----------------------------------------------------|
-------------151520201515-----------------------------------------|
-------------------------20201515202015151515------------19191515-|
---------------------------------------------151519191515---------|
------------------------------------------------------------------|
------------------------------------------------------------------|
2
----------------------------------------------------------------|
----------------------------------------------------------------|
----------------------------------------------------------------|
-0--------------------------------------------------------------|
-0--------------------------------------------------------------|
-0--------------------------------------------------------------|

1
-202015151515-----------------------------------------------------|
-------------151520201515-----------------------------------------|
-------------------------20201515202015151515------------19191515-|
---------------------------------------------151519191515---------|
------------------------------------------------------------------|
------------------------------------------------------------------|
2
----------------------------------------------------------------|
----------------------------------------------------------------|
----------------------------------------------------------------|
-0------------------------------------------------P-------------|
-0-------------------------------------------------S------------|
-0--------------------------------------------------\-----------|



0:09

1
-202015151515-----------------------------------------------------|
-------------151520201515-----------------------------------------|
-------------------------20201515202015151515------------19191515-|
---------------------------------------------151519191515---------|
------------------------------------------------------------------|
------------------------------------------------------------------|

HARMONY
-151510101010-----------------------------------------------------|
-------------101015151010-----------------------------------------|
-------------------------15151010151510101010------------14141010-|
---------------------------------------------101014141010---------|
------------------------------------------------------------------|
------------------------------------------------------------------|

RYTHM
------------------------------------------------------------|
------------------------------------------------------------|
------------------------------------------------------------|
------------------------------------------------------------|
-0----------------------------0-----------------------------|
-0-|--0-0-0-0-0-0-0-0-0-0-0-0-0---0-0-0-0-0-0-0-0-0-0-0-0---|
 *    * * * * * * * * * * * * *   * * * * * * * * * * * *

1
-202015151515-----------------------------------------------------|
-------------151520201515-----------------------------------------|
-------------------------20201515202015151515------------19191515-|
---------------------------------------------151519191515---------|
------------------------------------------------------------------|
------------------------------------------------------------------|

HARMONY
-151510101010-----------------------------------------------------|
-------------101015151010-----------------------------------------|
-------------------------15151010151510101010------------14141010-|
---------------------------------------------101014141010---------|
------------------------------------------------------------------|
------------------------------------------------------------------|

RYTHM
------------------------------------------------------------|
------------------------------------------------------------|
------------------------------------------------------------|
------------------------------------------------------------|
-0----------------------------0-----------------------------|
-0-|--0-0-0-0-0-0-0-0-0-0-0-0-0---0-0-0-0-0-0-0-0-0-0-0-0---|
 *    * * * * * * * * * * * * *   * * * * * * * * * * * *
1
-202015151515-----------------------------------------------------|
-------------151520201515-----------------------------------------|
-------------------------20201515202015151515------------19191515-|
---------------------------------------------151519191515---------|
------------------------------------------------------------------|
------------------------------------------------------------------|

HARMONY
-151510101010-----------------------------------------------------|
-------------101015151010-----------------------------------------|
-------------------------15151010151510101010------------14141010-|
---------------------------------------------101014141010---------|
------------------------------------------------------------------|
------------------------------------------------------------------|

RYTHM
------------------------------------------------------------|
------------------------------------------------------------|
------------------------------------------------------------|
------------------------------------------------------------|
-0----------------------------0-----------------------------|
-0-|--0-0-0-0-0-0-0-0-0-0-0-0-0---0-0-0-0-0-0-0-0-0-0-0-0---|
 *    * * * * * * * * * * * * *   * * * * * * * * * * * *

1
-202015151515-----------------------------------------------------|
-------------151520201515-----------------------------------------|
-------------------------20201515202015151515------------19191515-|
---------------------------------------------151519191515---------|
------------------------------------------------------------------|
------------------------------------------------------------------|

HARMONY
-151510101010-----------------------------------------------------|
-------------101015151010-----------------------------------------|
-------------------------15151010151510101010------------14141010-|
---------------------------------------------101014141010---------|
------------------------------------------------------------------|
------------------------------------------------------------------|

RYTHM
------------------------------------------------------------|
------------------------------------------------------------|
------------------------------------------------------------|
------------------------------------------------------------|
-0----------------------------0-----------------------------|
-0-|--0-0-0-0-0-0-0-0-0-0-0-0-0---0-0-0-0-0-0-0-0-0-0-0-0---|
 *    * * * * * * * * * * * * *   * * * * * * * * * * * *

1
-17------------------------------------------------------------|
---------------------------------------------------------------|
---------------------------------------------------------------|
---------------------------------------------------------------|
-------------------------------------------------0---0---0---0-|
-------------------------------------------------0-|-0-|-0-|-0-|

HARMONY
---------------------------------------------------------------|
-15------------------------------------------------------------|
---------------------------------------------------------------|
---------------------------------------------------------------|
---------------------------------------------------------------|
---------------------------------------------------------------|

RYTHM
---------------------------------------------------------------|
---------------------------------------------------------------|
---------------------------------------------------------------|
-0-------------------------------------------------------------|
-0-----------------------------------------------0---0---0---0-|
-0-----------------------------------------------0-|-0-|-0-|-0-|



0:20

L
------------------------------------------------------------------|
------------------------------------------------------------------|
------------------------------------------------------------------|
-------------------------------------------------5-------7--------|
-----5---7-8-----3---5-7-----3-5-----5---7-8-------8-7-5---10-8-7-|
-0-0---0-----0-0---0-----0-0-----0-0---0-----0-0------------------|
 * *   *     * *   *     * *     * *   *     * *
R
--------------------------------------------------------------------|
--------------------------------------------------------------------|
--------------------------------------------------------------------|
-------------------------------------------------8--------10--------|
-----5---7-8-----3---5-7-----3-5-----5---7-8------12-10-8---13-12-10|
-0-0---0-----0-0---0-----0-0-----0-0---0-----0-0--------------------|
 * *   *     * *   *     * *     * *   *     * *

L
------------------------------------------------------------------|
------------------------------------------------------------------|
------------------------------------------------------------------|
-------------------------------------------------5-------7--------|
-----5---7-8-----3---5-7-----3-5-----5---7-8-------8-7-5---10-8-7-|
-0-0---0-----0-0---0-----0-0-----0-0---0-----0-0------------------|
 * *   *     * *   *     * *     * *   *     * *
R
--------------------------------------------------------------------|
--------------------------------------------------------------------|
--------------------------------------------------------------------|
-------------------------------------------------8--------10--------|
-----5---7-8-----3---5-7-----3-5-----5---7-8------12-10-8---13-12-10|
-0-0---0-----0-0---0-----0-0-----0-0---0-----0-0--------------------|
 * *   *     * *   *     * *     * *   *     * *

L
------------------------------------------------------------------|
------------------------------------------------------------------|
------------------------------------------------------------------|
-------------------------------------------------5-------7--------|
-----5---7-8-----3---5-7-----3-5-----5---7-8-------8-7-5---10-8-7-|
-0-0---0-----0-0---0-----0-0-----0-0---0-----0-0------------------|
 * *   *     * *   *     * *     * *   *     * *
R
--------------------------------------------------------------------|
--------------------------------------------------------------------|
--------------------------------------------------------------------|
-------------------------------------------------8--------10--------|
-----5---7-8-----3---5-7-----3-5-----5---7-8------12-10-8---13-12-10|
-0-0---0-----0-0---0-----0-0-----0-0---0-----0-0--------------------|
 * *   *     * *   *     * *     * *   *     * *

L
------------------------------------------------------------------|
------------------------------------------------------------------|
------------------------------------------------------------------|
-------------------------------------------------5-------7--------|
-----5---7-8-----3---5-7-----3-5-----5---7-8-------8-7-5---10-8-7-|
-0-0---0-----0-0---0-----0-0-----0-0---0-----0-0------------------|
 * *   *     * *   *     * *     * *   *     * *
R
--------------------------------------------------------------------|
--------------------------------------------------------------------|
--------------------------------------------------------------------|
-------------------------------------------------8--------10--------|
-----5---7-8-----3---5-7-----3-5-----5---7-8------12-10-8---13-12-10|
-0-0---0-----0-0---0-----0-0-----0-0---0-----0-0--------------------|
 * *   *     * *   *     * *     * *   *     * *



0:39


B            R                  B            R   B               
----------------------------------------------------------------------|
----------------------------------------------------------------------|
-----------------------------------------------------------------_----|
------------------------------------------------------/\--------/ \---|
-8-5-----------------------------8-5--------------^--5858--^---710710-|
-----7-8-5-0-0-0-000-000-000-000-----7-8-5-0-0-0-5-8------7-10--------|
             * * *** *** *** ***             * *
B            L                   B
----------------------------------------------------------------------|
----------------------------------------------------------------------|
----------------------------------------------------------------------|
----------------------------------------------------------------------|
-8-5-----------------------------8-5--------------/\--5----/\---8-7---|
-----7-8-5-0-0-0-000-000-000-000-----7-8-5-0-----0578-----07810-------|
             * * *** *** *** ***             



----------------------------------------------------------------------|
----------------------------------------------------------------------|
-----------------------------------------------------------------_----|
------------------------------------------------------/\--------/ \---|
-8-5-----------------------------8-5--------------^--5858--^---710710-|
-----7-8-5-0-0-0-000-000-000-000-----7-8-5-0-0-0-5-8------7-10--------|
             * * *** *** *** ***             * *
----------------------------------------------------------------------|
----------------------------------------------------------------------|
----------------------------------------------------------------------|
----------------------------------------------------------------------|
-8-5-----------------------------8-5--------------/\--5----/\---8-7---|
-----7-8-5-0-0-0-000-000-000-000-----7-8-5-0-----0578-----07810-------|
             * * *** *** *** ***            


0:58

L
-----------------------------------------------------------------------|
-----------------------------------------------------------------------|
-----------------------------------------------------------------_-----|
------------------------------------------------------/\--------/ \----|
12-8----------------------------12-8--------------^--5858--^---710710--|
----1012-8-0-0-0-000-000-000-000----1012-8-0-0-0-5-8------7-10---------|
             * * *** *** *** ***             * *
R
-----------------------------------------------------------------------|
-----------------------------------------------------------------------|
------------------------------------------------------------------_----|
-------------------------------------------------------/\--------/ \---|
--8-5-----------------------------8-5--------------^--5858--^---710710-|
------7-8-5-0-0-0-000-000-000-000-----7-8-5-0-0-0-5-8------7-10--------|
              * * *** *** *** ***             * *

----------------------------------------------------------------------|
----------------------------------------------------------------------|
----------------------------------------------------------------------|
----------------------------------------------------------------------|
12-8----------------------------12-8---------------/\--5----/\---8-7--|
----1012-8-0-0-0-000-000-000-000----1012-8-0------0578-----07810------|
             * * *** *** *** ***   
----------------------------------------------------------------------|
----------------------------------------------------------------------|
----------------------------------------------------------------------|
----------------------------------------------------------------------|
--8-5-----------------------------8-5--------------/\--5----/\---8-7--|
------7-8-5-0-0-0-000-000-000-000-----7-8-5-0-----0578-----07810------|
              * * *** *** *** ***        


1:08

L
---------------------------------------------------------------|
---------------------------------------------------------------|
---------------------------------------------------------------|
---------------------------------------------------------------|
-8------------------------------10--------------------15-------|
-8-|----------------------------10-|------------------15\------|

R
---------------------------------------------------------------|
---------------------------------------------------------------|
---------------------------------------------------------------|
---___-----___-----___-----___-----____------____--------------|
--/   \---/   \---/   \---/   \---/    \----/    \----15-------|
-5-8-5-8-5-8-5-8-5-8-5-8-5-8-5-8-7-10-7-10-7-10-7-10--15\------|


----------------------------------------|
----------------------------------------|
----------------------------------------|
----------------------------------------|
0--0----0-0--0-0----0--0----0-0--0-0----|
0--0----0-0--0-0----0--0----0-0--0-0----|
*  *    * *  * *    *  *    * *  * *

------------------------------------------------------------------------|
------------------------------------------------------------------------|
------------------------------------------------------------------------|
--___-----___-----___-----___-----____------____------____------____----|
-/   \---/   \---/   \---/   \---/    \----/    \----/    \----/    \---|
5-8-5-8-5-8-5-8-5-8-5-8-5-8-5-8-8-12-8-12-8-12-8-12-7-10-7-10-7-10-7-10-|

------------------------------|
------------------------------|
------------------------------|
------------------------------|
0--0---0--0---0--0---0--0-----|
0--0---0--0---0--0---0--0-----|
*  *   *  *   *  *   *  *    

---------------------------------------------------------------------|
---------------------------------------------------------------------|
---------------------------------------------------------------------|
---___-----___-----___-----___-----____------____------___-----___---|
--/   \---/   \---/   \---/   \---/    \----/    \----/   \---/   \--|
-5-8-5-8-5-8-5-8-5-8-5-8-5-8-5-8-7-10-7-10-7-10-7-10-3-7-3-7-3-7-3-7-|

----------------------------------------|
----------------------------------------|
----------------------------------------|
----------------------------------------|
0--0----0-0--0-0----0--0----0-0--0-0----|
0--0----0-0--0-0----0--0----0-0--0-0----|
*  *    * *  * *    *  *    * *  * *

------------------------------------------------------------------------|
------------------------------------------------------------------------|
------------------------------------------------------------------------|
--___-----___-----___-----___-----____------____------____------____----|
-/   \---/   \---/   \---/   \---/    \----/    \----/    \----/    \---|
5-8-5-8-5-8-5-8-5-8-5-8-5-8-5-8-8-12-8-12-8-12-8-12-7-10-7-10-7-10-7-10-|

----------------------------------------------------|
----------------------------------------------------|
----------------------------------------------------|
----------------------------------------------------|
0--0---0--0--0--0---0-0---0--0---0--0---0--0---0--0-|
0--0---0--0--0--0---0-0-|-0--0---0--0---0--0---0--0-|
*  *   *  *  *  *   * *   *  *   *  *   *  *   *  *


1:38

L
------------------------------------------------------------------|
------------------------------------------------------------------|
------------------------------------------------------------------|
-------------------------------------------------5-------7--------|
-----5---7-8-----3---5-7-----3-5-----5---7-8-------8-7-5---10-8-7-|
-0-0---0-----0-0---0-----0-0-----0-0---0-----0-0------------------|
 * *   *     * *   *     * *     * *   *     * *
R
--------------------------------------------------------------------|
--------------------------------------------------------------------|
--------------------------------------------------------------------|
-------------------------------------------------8--------10--------|
-0-0---------0-0---------0-0-----0-0--------------12-10-8---13-12-10|
-0-0---------0-0---------0-0-----0-0--------------------------------|
 * *         * *         * *     * *        

L
------------------------------------------------------------------|
------------------------------------------------------------------|
------------------------------------------------------------------|
-------------------------------------------------5-------7--------|
-----5---7-8-----3---5-7-----3-5-----5---7-8-------8-7-5---10-8-7-|
-0-0---0-----0-0---0-----0-0-----0-0---0-----0-0------------------|
 * *   *     * *   *     * *     * *   *     * *
R
--------------------------------------------------------------------|
--------------------------------------------------------------------|
--------------------------------------------------------------------|
-------------------------------------------------8--------10--------|
-----5---7-8-----3---5-7-----3-5-----5---7-8------12-10-8---13-12-10|
-0-0---0-----0-0---0-----0-0-----0-0---0-----0-0--------------------|
 * *   *     * *   *     * *     * *   *     * *
B
------------------|
------------------|
------------------|
------------------|
-0---0---0---0----|
-0-|-0-|-0-|-0----|


1:48

L
------------------------------------------------------------------|
------------------------------------------------------------------|
------------------------------------------------------------------|
-------------------------------------------------5-------7--------|
-----5---7-8-----3---5-7-----3-5-----5---7-8-------8-7-5---10-8-7-|
-0-0---0-----0-0---0-----0-0-----0-0---0-----0-0------------------|
 * *   *     * *   *     * *     * *   *     * *

R
--------------------------------------------------------------------|
--------------------------------------------------------------------|
--------------------------------------------------------------------|
-------------------------------------------------8--------10--------|
-----8---1012----7---810-----7-8-----8---1012-----12-10-8---13-12-10|
-0-0---0-----0-0---0-----0-0-----0-0---0-----0-0--------------------|
 * *   *     * *   *     * *     * *   *     * *

L
------------------------------------------------------------------|
------------------------------------------------------------------|
------------------------------------------------------------------|
-------------------------------------------------5-------7--------|
-----5---7-8-----3---5-7-----3-5-----5---7-8-------8-7-5---10-8-7-|
-0-0---0-----0-0---0-----0-0-----0-0---0-----0-0------------------|
 * *   *     * *   *     * *     * *   *     * *

R
--------------------------------------------------------------------|
--------------------------------------------------------------------|
--------------------------------------------------------------------|
-------------------------------------------------8--------10--------|
-----8---1012----7---810-----7-8-----8---1012-----12-10-8---13-12-10|
-0-0---0-----0-0---0-----0-0-----0-0---0-----0-0--------------------|
 * *   *     * *   *     * *     * *   *     * *

1:58

L
-----------------------------------------------------------------|
-----------------------------------------------------------------|
-----------------------------------------------------------------|
-----------------------5------------------------7\5--------------|
-----5---5-------8\7---------7/8-----3---3-------------8-----7/8-|
-0-0---0-----0-0-----0---0-0-----0-0---0-----0-0-----0---0-0-----|
 * *   *     * *     *   * *     * *   *     * *     *   * * 

R
-----------------------------------------------------------------|
-----------------------------------------------------------------|
-----------------------------------------------------------------|
-----------------------5-------------------------3\2-------------|
-----5---5-------8\7---------7/8-----3---3-------------5----3/5--|
-0-0---0-----0-0-----0---0-0-----0-0---0-----0-0-----0---0-0-----|
 * *   *     * *     *   * *     * *   *     * *     *   * * 

L
-------------------------------------------------------------------------|
-------------------------------------------------------------------------|
-------------------------------------------------------------------------|
-----------------5/7---7/8---8/10----_---------_-------------------------|
-----5---5--------------------------/ \---12--/ \---8--/\---10--/\---8-7-|
-0-0---0-----0-0-----0-----0-------081012----081012---07810----07810-----|
 * *   *     * *     *     *       

R
-------------------------------------------------------------------------|
-------------------------------------------------------------------------|
-------------------------------------------------------------------------|
------------------------^------^-----_---------_-------------------------|
-----5---5-------7/8---8-10--10-12--/ \---12--/ \---8--/\---10--/\---8-7-|
-0-0---0-----0-0-----0-----0-------081012----081012---07810----07810-----|
 * *   *     * *     *     *        

L
-----------------------------------------------------------------|
-----------------------------------------------------------------|
-----------------------------------------------------------------|
-----------------------5------------------------7\5--------------|
-----5---5-------8\7---------7/8-----3---3-------------8-----7/8-|
-0-0---0-----0-0-----0---0-0-----0-0---0-----0-0-----0---0-0-----|
 * *   *     * *     *   * *     * *   *     * *     *   * * 

R
-----------------------------------------------------------------|
-----------------------------------------------------------------|
-----------------------------------------------------------------|
-----------------------5-------------------------3\2-------------|
-----5---5-------8\7---------7/8-----3---3-------------5----3/5--|
-0-0---0-----0-0-----0---0-0-----0-0---0-----0-0-----0---0-0-----|
 * *   *     * *     *   * *     * *   *     * *     *   * * 

L
-------------------------------------------------------------------------|
-------------------------------------------------------------------------|
-------------------------------------------------------------------------|
-----------------5/7---7/8---8/10----_---------_-------------------------|
-----5---5--------------------------/ \---12--/ \---8--/\---10--/\---8-7-|
-0-0---0-----0-0-----0-----0-------081012----081012---07810----07810-----|
 * *   *     * *     *     *       

R
-------------------------------------------------------------------------|
-------------------------------------------------------------------------|
-------------------------------------------------------------------------|
------------------------^------^-----_---------_-------------------------|
-----5---5-------7/8---8-10--10-12--/ \---12--/ \---8--/\---10--/\---8-7-|
-0-0---0-----0-0-----0-----0-------081012----081012---07810----07810-----|
 * *   *     * *     *     *        



2:17

--------------------------------------------------------------------|
--------------------------------------------------------------------|
--------------------------------------------------------------------|
-0-------------------1--0-------------------------------------------|
-0-------------------1--0---------------------------4-3-1---4-1-3-1-|
-0-------------------1--0---------------------------4-3-1---4-1-3-1-|
                                                    * *     * * * *


-------------------------------------------------------------------|
-------------------------------------------------------------------|
-------------------------------------------------------------------|
-------------------------------------------------------------------|
-0--0-0-------------0-0-------------0--0-0-------------0-0--0--1---|
-0--0-0--0-0-0-|----0-0--0-0-0-|----0--0-0--0-0-0-|----0-0--0--1---|
    * *    *        * *    *           * *    *        * * 

--------------------------------------------------------------------------|
--------------------------------------------------------------------------|
--------------------------------------------------------------------------|
--------------------------------------------------------------------------|
-0--0-0-------------0-0-------------0--0-0-------------4-3-1---4-1-3-1----|
-0--0-0--0-0-0-|----0-0--0-0-0-|----0--0-0--0-0-0-|----4-3-1---4-1-3-1-0-V|
    * *    *        * *    *           * *    *        * *     * * * *   

SLOWER
-------------------------------------------------------------------|
-------------------------------------------------------------------|
-------------------------------------------------------------------|
-------------------------------------------------------------------|
-0--0-0-------------0-0-------------0--0-0-------------0-0--0-PH---|
-0--0-0--0-0-0-|----0-0--0-0-0-|----0--0-0--0-0-0-|----0-0--0-3~~--|
    * *    *        * *    *           * *    *        * * 

--------------------------------------------------------------------------|
--------------------------------------------------------------------------|
--------------------------------------------------------------------------|
--------------------------------------------------------------------------|
-0--0-0-------------0-0-------------0--0-0-------------4-3-1---4-1-3-1----|
-0--0-0--0-0-0-|----0-0--0-0-0-|----0--0-0--0-0-0-|----4-3-1---4-1-3-1----|
    * *    *        * *    *           * *    *        * *     * * * *  


||||||||||||||||||||||||||||||||||||||||||||||||||||||||||||
||||||||||||||||||||||||||||||||||||||||||||||||||||||||||||
||||||||||||||||||||||||||||||||||||||||||||||||||||||||||||
||||||||||||||||||||||||||||||||||||||||||||||||||||||||||||











FEED THEM TO THE PIGS

A#-F-A#-D#-G-C






-----__-------------------------------__---------------------------------|
----/  \-----------------------------/  \--------------------------------|
---9-10-9--7------------------------9-10-9--7----------------------------|
P--X--X-X--X------------------------X--X-X--X-------------------_--------|
S--7/-8\7--5------------------------7/-8\7--5--------/\---/\---/ \----/\-|
-\-------0---0-000-0-000-0-000-000--------0---0-000-5858-5757-710710-7878|
         *   * *** * *** * *** ***        *   * ***   

----__-------------------------------__----------------------------------|
---/  \-----------------------------/  \---------------------------------|
--9-10-9--7------------------------9-10-9--7-----------------------------|
--X--X-X--X------------------------X--X-X--X-------------------_---------|
--7/-8\7--5------------------------7/-8\7--5--------/\---/\---/ \----/\--|
--------0---0-000-0-000-0-000-000--------0---0-000-5858-5757-710710-7878-|
        *   * *** * *** * *** ***        *   * ***   

----__-------------------------------__----------------------------------|
---/  \-----------------------------/  \---------------------------------|
--9-10-9--7------------------------9-10-9--7-----------------------------|
--X--X-X--X------------------------X--X-X--X-------------------_---------|
--7/-8\7--5------------------------7/-8\7--5--------/\---/\---/ \----/\--|
--------0---0-000-0-000-0-000-000--------0---0-000-5858-5757-710710-7878-|
        *   * *** * *** * *** ***        *   * ***   
----__-------------------------------__-------------|
---/  \-----------------------------/  \------------|
--9-10-9--7------------------------9-10-9--7--------|
--X--X-X--X------------------------X--X-X--X--------|
--7/-8\7--5------------------------7/-8\7--5--------|
--------0---0-000-0-000-0-000-000--------0---0-000--|
        *   * *** * *** * *** ***        *   * ***   

-------------------------------------------------------|
-------------------------------------------------------|
-------------------------------------------------------|
-------------_-----------_------_-------__-------__----|
--/\---/\---/ \----/\---/ \----/ \-----/  \-----/  \---|
-5858-5757-710710-7878-812812-810810-10141014-10121012-|

-------------------------------------------------------|
-------------------------------------------------------|
-------------------------------------------------------|
-------------_-----------_------_-------__-------__----|
--/\---/\---/ \----/\---/ \----/ \-----/  \-----/  \---|
-5858-5757-710710-7878-812812-810810-10141014-10121012-|

---------------------------------------|
---------------------------------------|
---------------------------------------|
---------------------------------------|
---------------------------------------|
5-8-5-7-7-10-7-8-8-12-8-10-10-14-10-12-|

----------------------------------------|
----------------------------------------|
----------------------------------------|
----------------------------------------|
-5-8-5-7-7-10-7-8-8-12-8-10-10-14-10-12-|
-5-8-5-7-7-10-7-8-8-12-8-10-10-14-10-12-|
 * * * * *  * * * *  * *  *  *  *  *  *



0:30

------------------------------------------------------|
------------------------------------------------------|
------------------------------------------------------|
-0----0-00-00--0----00-00-00-0----0-00-00-7-3-2-5-3-2-|
-0----0-00-00--0----00-00-00-0----0-00-00-7-3-2-5-3-2-|
-0----0-00-00--0----00-00-00-0----0-00-00-7-3-2-5-3-2-|
      * ** **       ** ** **      * ** **
------------------------------------------------------|
------------------------------------------------------|
------------------------------------------------------|
-0----0-00-00--0----00-00-00-0----0-00-00-7-3-2-5-3-2-|
-0----0-00-00--0----00-00-00-0----0-00-00-7-3-2-5-3-2-|
-0----0-00-00--0----00-00-00-0----0-00-00-7-3-2-5-3-2-|
      * ** **       ** ** **      * ** **
------------------------------------------------------|
------------------------------------------------------|
------------------------------------------------------|
-0----0-00-00--0----00-00-00-0----0-00-00-7-3-2-5-3-2-|
-0----0-00-00--0----00-00-00-0----0-00-00-7-3-2-5-3-2-|
-0----0-00-00--0----00-00-00-0----0-00-00-7-3-2-5-3-2-|
      * ** **       ** ** **      * ** **

------------------------------------------------------|
------------------------------------------------------|
------------------------------------------------------|
-0----0-00-00-------00-00-00------0-00-00-7-3-2-5-3-2-|
-0----0-00-00-------00-00-00------0-00-00-7-3-2-5-3-2-|
-0----0-00-00-------00-00-00------0-00-00-7-3-2-5-3-2-|
      * ** **       ** ** **      * ** **
------------------------------------------------|
----------------------3-------------------------|
----------------------2-------------------------|
--0-------------------0--------------P----------|
--0-------------------0---------------S---------|
--0-------------------0----------------\--------|



1:02

------------------------------------------------------------------|
------------------------------------------------------------------|
------------------------------------------------------------_-----|
---------------------------------------------5-------------/ \----|
-----5---5---8---8---7---7---3--------5---5-------8---7---5-7-5-3-|
-0-0---0---0---0---0---0---0------0-0---0---0---0---0---0---------|
 * *   *   *   *   *   *   *      * *   *   *   *   *   *  

------------------------------------------------------------------|
------------------------------------------------------------------|
------------------------------------------------------------------|
---------------------------------------------7----5---------------|
-----5---5---8---8---7---7---3--------5---5-----------8---7-8-10--|
-0-0---0---0---0---0---0---0------0-0---0---0---0---0---0---------|
 * *   *   *   *   *   *   *      * *   *   *   *   *   *  

1:11

L
------------------------------------------------------------------|
------------------------------------------------------------------|
------------------------------------------------------------_-----|
---------------------------------------------5-------------/ \----|
-----5---5---8---8---7---7---3--------5---5-------8---7---5-7-5-3-|
-0-0---0---0---0---0---0---0------0-0---0---0---0---0---0---------|
 * *   *   *   *   *   *   *      * *   *   *   *   *   *  
R
-------------------------------------------------------------------|
-------------------------------------------------------------------|
------------------------------------------------------------__-----|
-------------7---7----------------------------8---7--------/  \----|
-----8---8-----------10--10--7--------8---8-----------10--8-10-8-7-|
-0-0---0---0---0---0---0---0------0-0---0---0---0---0---0----------|
 * *   *   *   *   *   *   *      * *   *   *   *   *   *

L
------------------------------------------------------------------|
------------------------------------------------------------------|
------------------------------------------------------------_-----|
-----------------------------------------------------------/ \----|
-----5---5---8---8---7---7---3--------5---5---8---3---5---7-8-7-3-|
-0-0---0---0---0---0---0---0------0-0---0---0---0---0---0---------|
 * *   *   *   *   *   *   *      * *   *   *   *   *   *  
R
-------------------------------------------------------------------|
-------------------------------------------------------------------|
------------------------------------------------------------__-----|
-------------7---7----------------------------7------------/  \----|
-----8---8-----------10--10--7--------8---8-------7---8---8-10-8-7-|
-0-0---0---0---0---0---0---0------0-0---0---0---0---0---0----------|
 * *   *   *   *   *   *   *      * *   *   *   *   *   *


1:20

            L                     B           L    B
----__-------------------------------__----------------------------------|
---/  \-----------------------------/  \---------------------------------|
--9-10-9--7------------------------9-10-9--7-----------------------------|
--X--X-X--X------------------------X--X-X--X-------------------_---------|
--7/-8\7--5------------------------7/-8\7--5--------/\---/\---/ \----/\--|
--------0---0-000-0-000-0-000-000--------0---0-000-5858-5757-710710-7878-|
        *   * *** * *** * *** ***        *   * ***  
            R                     B
----__-------------------------------__----------------------------------|
---/  \-----------------------------/  \---------------------------------|
--9-10-9--7------------------------9-10-9--7-----------------------------|
--X--X-X--X------------------------X--X-X--X--------------P--------------|
--7/-8\7--5------------------------7/-8\7--5\--------------S-------------|
--------0---0-000-0-000-0-000-000--------0------------------\------------|
        *   * *** * *** * *** ***        *   


1:30

----__-------------------------------__----------------------------------|
---/  \-----------------------------/  \---------------------------------|
--9-10-9--7------------------------9-10-9--7-----------------------------|
--X--X-X--X------------------------X--X-X--X-------------------_---------|
--7/-8\7--5------------------------7/-8\7--5--------/\---/\---/ \----/\--|
--------0---0-000-0-000-0-000-000--------0---0-000-5858-5757-710710-7878-|
        *   * *** * *** * *** ***        *   * ***  

----__-------------------------------__----------------------------------|
---/  \-----------------------------/  \---------------------------------|
--9-10-9--7------------------------9-10-9--7-----------------------------|
--X--X-X--X------------------------X--X-X--X-------------------_---------|
--7/-8\7--5------------------------7/-8\7--5--------/\---/\---/ \----/\--|
--------0---0-000-0-000-0-000-000--------0---0-000-5858-5757-710710-7878-|
        *   * *** * *** * *** ***        *   * ***  

1:39

L
---__--------------------------------__----------------------------------|
--/  \------------------------------/  \---------------------------------|
12-14-12-10-----------------------12-14-12--10---------------------------|
--X--X-X--X------------------------X--X-X---X-------------------_--------|
10/12\10--8-----------------------10/12\10--8--------/\---/\---/ \----/\-|
--------0---0-000-0-000-0-000-000---------0---0-000-5858-5757-710710-7878|
        *   * *** * *** * *** ***         *   * ***  
R
----__-------------------------------__----------------------------------|
---/  \-----------------------------/  \---------------------------------|
--9-10-9--7------------------------9-10-9--7-----------------------------|
--X--X-X--X------------------------X--X-X--X-------------------_---------|
--7/-8\7--5------------------------7/-8\7--5--------/\---/\---/ \----/\--|
--------0---0-000-0-000-0-000-000--------0---0-000-5858-5757-710710-7878-|
        *   * *** * *** * *** ***        *   * ***  
L
---__--------------------------------__-------------|
--/  \------------------------------/  \------------|
12-14-12-10-----------------------12-14-12--10------|
--X--X-X--X------------------------X--X-X---X-------|
10/12\10--8-----------------------10/12\10--8-------|
--------0---0-000-0-000-0-000-000---------0---0-000-|
        *   * *** * *** * *** ***         *   * ***  
R
----__-------------------------------__-------------|
---/  \-----------------------------/  \------------|
--9-10-9--7------------------------9-10-9--7--------|
--X--X-X--X------------------------X--X-X--X--------|
--7/-8\7--5------------------------7/-8\7--5--------|
--------0---0-000-0-000-0-000-000--------0---0-000--|
        *   * *** * *** * *** ***        *   * ***  

-------------------------------------------------------|
-------------------------------------------------------|
-------------------------------------------------------|
-------------_-----------_------_-------__-------__----|
--/\---/\---/ \----/\---/ \----/ \-----/  \-----/  \---|
-5858-5757-710710-7878-812812-810810-10141014-10121012-|

---------------------------------------|
---------------------------------------|
---------------------------------------|
---------------------------------------|
---------------------------------------|
5-8-5-7-7-10-7-8-8-12-8-10-10-14-10-12-|

-------------------------------------------------------|
-------------------------------------------------------|
-------------------------------------------------------|
-------------_-----------_------_-------__-------__----|
--/\---/\---/ \----/\---/ \----/ \-----/  \-----/  \---|
-5858-5757-710710-7878-812812-810810-10141014-10121012-|

----------------------------------|
----------------------------------|
----------------------------------|
----------------------------------|
-5-8-5-7-7-10-7-8-8-12-8-10-14----|
-5-8-5-7-7-10-7-8-8-12-8-10-14\---|
 * * * * *  * * * *  * *  * 


      R                                   B
------------------------------------------------------|
------------------------------------------------------|
------------------------------------------------------|
-0----0-00-00-------00-00-00------0-00-00-7-3-2-5-3-2-|
-0----0-00-00-------00-00-00------0-00-00-7-3-2-5-3-2-|
-0----0-00-00-------00-00-00------0-00-00-7-3-2-5-3-2-|
      * ** **       ** ** **      * ** **
        1                                 B
------------------------------------------------------|
------------------------------------------------------|
------------------------------------------------------|
-0----0-00-00-------00-00-00------0-00-00-7-3-2-5-3-2-|
-0----0-00-00-------00-00-00------0-00-00-7-3-2-5-3-2-|
-0----0-00-00-------00-00-00------0-00-00-7-3-2-5-3-2-|
      * ** **       ** ** **      * ** **

------------------------------------------------------|
------------------------------------------------------|
------------------------------------------------------|
-0----0-00-00-------00-00-00------0-00-00-7-3-2-5-3-2-|
-0----0-00-00-------00-00-00------0-00-00-7-3-2-5-3-2-|
-0----0-00-00-------00-00-00------0-00-00-7-3-2-5-3-2-|
      * ** **       ** ** **      * ** **

------------------------------------------------------|
------------------------------------------------------|
------------------------------------------------------|
-0----0-00-00-------00-00-00------0-00-00-7-3-2-5-3-2-|
-0----0-00-00-------00-00-00------0-00-00-7-3-2-5-3-2-|
-0----0-00-00-------00-00-00------0-00-00-7-3-2-5-3-2-|
      * ** **       ** ** **      * ** **

------------------------|
------------------------|
------------------------|
-0-----0----------------|
-0-----0----------------|
-0-----0--|-------------|



||||||||||||||||||||||||||||||||||||||||||||||||||||||
||||||||||||||||||||||||||||||||||||||||||||||||||||||
||||||||||||||||||||||||||||||||||||||||||||||||||||||
||||||||||||||||||||||||||||||||||||||||||||||||||||||











CARRION

B-F#-B-E-G#-C#





-----------------------------------------------------|
------5----------------------------------------------|
------5-----------4----------9-----------9---9---7---|
-3--------0-------5-----7----7-----5-------5---5-----|
-3--------0-------------7----------5-----------------|
-3--------0-------------7----------5-----lightly-----|
                                         * * * * *   

----------------------------------------------------|
------5---------------------------------------------|
------5-----------4----------9-----------9----------|
-3--------0-------5-----7----7-----5-------5--------|
-3--------0-------------7----------5----------------|
-3--------0-------------7----------5----lightly-----|
                                         * *     

0:12

1
--------_----------------------------_-------------------|
-------/ \--------------------------/ \------------------|
----5-4-5-4------4---5---4-------9-7-9-7------5---9---7~-|
-3----------0--5---5---5------7-----------5-9---9---9----|
-3----------0-----------------7-----------5--------------|
-3----------0---------------/-7-----------5--------------|
               *   *   *                    *   *   * 
2
---------------------------------------------------------|
---------------------------------------------------------|
---------------------------------------------------------|
-3----------0-----------------7-----------5--------------|
-3----------0-----------------7-----------5--------------|
-3----------0-|-------------/-7-----------5-|------------|


1
--------_----------------------------_-------------------|
-------/ \--------------------------/ \------------------|
----5-4-5-4------4---5---4-------9-7-9-7------5---9---7~-|
-3----------0--5---5---5------7-----------5-9---9---9----|
-3----------0-----------------7-----------5--------------|
-3----------0-----------------7-----------5--------------|
               *   *   *                    *   *   * 
2
---------------------------------------------------------|
---------------------------------------------------------|
---------------------------------------------------------|
-3----------0-----------------7-----------5--------------|
-3----------0-----------------7-----------5-----------15-|
-3----------0-|-------------/-7-----------5-|---------15\|


0:25

L
-----------------------------------------|
-----------------------------------------|
----------------------------------_------|
---------------------------------/ \-----|
-8-0-0-7-0-8-5-0-0-8-0-3-0--^---7-8-7----|
-7-0-0-5-0-7-3-0-0-7-0-2-0-8-10-------10-|
   * *   *     * *   *   *
R
-----------------------------------------|
-----------------------------------------|
-----------------------------------------|
-----------------------------------------|
-0-----0-----0---------------------------|
-0-----0-----0---------------------------|
 *     *     *

B
-----------------------------------------|
-----------------------------------------|
----------------------------------_------|
---------------------------------/ \-----|
-8-0-0-7-0-8-5-0-0-8-0-3-0--^---7-8-7----|
-7-0-0-5-0-7-3-0-0-7-0-2-0-8-10-------10-|
   * *   *     * *   *   *
-----------------------------------------|
-----------------------------------------|
----------------------------------_------|
---------------------------------/ \-----|
-8-0-0-7-0-8-5-0-0-8-0-3-0--^---7-8-7----|
-7-0-0-5-0-7-3-0-0-7-0-2-0-8-10-------10-|
   * *   *     * *   *   *
-----------------------------------------|
-----------------------------------------|
----------------------------------_------|
---------------------------------/ \-----|
-8-0-0-7-0-8-5-0-0-8-0-3-0--^---7-8-7----|
-7-0-0-5-0-7-3-0-0-7-0-2-0-8-10-------10-|
   * *   *     * *   *   *


0:37

----------------------------------------------------------|
----------------------------------------------------------|
----------------------------------------------------------|
----------------------------------------------------------|
-8-0-0-8-0-8-5----0-000-10-----8-0-0-8-0-8-5---0-000-10---|
-7-0-0-7-0-7-3----0-000--8\----7-0-0-7-0-7-3---0-000--8\--|
   * *   *        * ***          * *   *       * *** 

------------------------------------------------------------|
------------------------------------------------------------|
------------------------------------------------------------|
------------------------------------------------------------|
-8-0-0-8-0-8-5----0-000-10-----8-0-0-8-0-8-5---0-000--PH----|
-7-0-0-7-0-7-3----0-000--8\----7-0-0-7-0-7-3---0-000--3-~~~~|
   * *   *        * ***          * *   *       * *** 


0:49

-----------------------------------------|
-----------------------------------------|
----------------------------------_------|
---------------------------------/ \-----|
-8-0-0-7-0-8-5-0-0-8-0-3-0--^---7-8-7----|
-7-0-0-5-0-7-3-0-0-7-0-2-0-8-10-------10-|
   * *   *     * *   *   *
-----------------------------------------|
-----------------------------------------|
----------------------------------_------|
---------------------------------/ \-----|
-8-0-0-7-0-8-5-0-0-8-0-3-0--^---7-8-7----|
-7-0-0-5-0-7-3-0-0-7-0-2-0-8-10-------10-|
   * *   *     * *   *   *
-----------------------------------------|
-----------------------------------------|
----------------------------------_------|
---------------------------------/ \-----|
-8-0-0-7-0-8-5-0-0-8-0-3-0--^---7-8-7----|
-7-0-0-5-0-7-3-0-0-7-0-2-0-8-10-------10-|
   * *   *     * *   *   *
-----------------------------------------|
-----------------------------------------|
----------------------------------_------|
---------------------------------/ \-----|
-8-0-0-7-0-8-5-0-0-8-0-3-0--^---7-8-7----|
-7-0-0-5-0-7-3-0-0-7-0-2-0-8-10-------10-|
   * *   *     * *   *   *


1:01


1
--------_----------------------------_-------------------|
-------/ \--------------------------/ \------------------|
----5-4-5-4------4---5---4-------9-7-9-7------5---9---7~-|
-3----------0--5---5---5------7-----------5-9---9---9----|
-3----------0-----------------7-----------5--------------|
-3----------0---------------/-7-----------5--------------|
               *   *   *                    *   *   * 
2
---------------------------------------------------------|
---------------------------------------------------------|
---------------------------------------------------------|
-3----------0-----------------7-----------5--------------|
-3----------0-----------------7-----------5--------------|
-3----------0-|-------------/-7-----------5-|------------|


1
--------_----------------------------_-------------------|
-------/ \--------------------------/ \------------------|
----5-4-5-4------4---5---4-------9-7-9-7------5---9---7~-|
-3----------0--5---5---5------7-----------5-9---9---9----|
-3----------0-----------------7-----------5--------------|
-3----------0---------------/-7-----------5--------------|
               *   *   *                    *   *   * 
2
---------------------------------------------------------|
---------------------------------------------------------|
---------------------------------------------------------|
-3----------0-----------------7-----------5--------------|
-3----------0-----------------7-----------5-----------15-|
-3----------0-|-------------/-7-----------5-|---------15\|



1:13

----------------------------------------------------------|
----------------------------------------------------------|
----------------------------------------------------------|
----------------------------------------------------------|
-8-0-0-8-0-8-5----0-000-10-----8-0-0-8-0-8-5---0-000-10---|
-7-0-0-7-0-7-3----0-000--8\----7-0-0-7-0-7-3---0-000--8\--|
   * *   *        * ***          * *   *       * *** 
----------------------------------------------------------|
----------------------------------------------------------|
----------------------------------------------------------|
----------------------------------------------------------|
-8-0-0-8-0-8-5----0-000-10-----8-0-0-8-0-8-5---0-000-10---|
-7-0-0-7-0-7-3----0-000--8\----7-0-0-7-0-7-3---0-000--8\--|
   * *   *        * ***          * *   *       * *** 



1:25

-------------------------------------------------|
-------------------------------------------------|
-14-14-14-14-14-14-14-14-12-12-12-12-12-12-12-12-|
-17-17-17-17-15-15-15-15-14-14-14-14-12-12-12-12-|
-------------------------------------------------|
-------------------------------------------------|


L
-------------------------------------------------|
-------------------------------------------------|
-14-14-14-14-14-14-14-14-12-12-12-12-12-12-12-12-|
-17-17-17-17-15-15-15-15-14-14-14-14-12-12-12-12-|
-------------------------------------------------|
-------------------------------------------------|

R
-------------------------------------------------|
-------------------------------------------------|
-12-12-12-12-10-10-10-10--9--9--9--9-12-12-12-12-|
-12-12-12-12-12-12-12-12-10-10-10-10-10-10-10-10-|
-------------------------------------------------|
-------------------------------------------------|



1:31

1
--------------------------------------------------------------|
--------------------------------------------------------------|
-10-1010--910-9--7--7-7--5-5-777-9--9-9-7-9-9-9-12-10-99-777--|
--X--X-X--X-X-X--X--X-X--X-X-XXX-X--X-X-X-X-X-X--X--X-XX-XXX--|
--8--8-8--7/8\7--5--5-5--3-3-555/7--7-7-5/7-7-7/10--8-77-555--|
--------------------------------------------------------------|

2
------------------------------------------------------------------|
------------------------------------------------------------------|
------------------------------------------------------------------|
------------------------------------------------------------------|
-3--3-3-3-3-3----0--0--0-0-0-0-0----7--7-7-7-7-7---5--5--5-5-5-5-5|
-3--3-3-3-3-3----0--0--0-0-0-0-0----7--7-7-7-7-7---5--5--5-5-5-5-5|


1
--------------------------------------------------------------|
--------------------------------------------------------------|
-10-1010--910-9--7--7-7--5-5-777-9--9-9-7-9-9-9-12-10-99-777--|
--X--X-X--X-X-X--X--X-X--X-X-XXX-X--X-X-X-X-X-X--X--X-XX-XXX--|
--8--8-8--7/8\7--5--5-5--3-3-555/7--7-7-5/7-7-7/10--8-77-555--|
--------------------------------------------------------------|

2
----------------------------------------------------------------|
----------------------------------------------------------------|
----------------------------------------------------------------|
----------------------------------------------------------------|
-3--3-3-3-3-3----0--0--0-0-0-0-0----7--7-7-7-7-7---5--5--5--15--|
-3--3-3-3-3-3----0--0--0-0-0-0-0----7--7-7-7-7-7---5--5--5--15\-|



1:44

1
--------_----------------------------_-------------------|
-------/ \--------------------------/ \------------------|
----5-4-5-4------4---5---4-------9-7-9-7------5---9---7~-|
-3----------0--5---5---5------7-----------5-9---9---9----|
-3----------0-----------------7-----------5--------------|
-3----------0---------------/-7-----------5--------------|
               *   *   *                    *   *   * 
HARMONY
-------_-----------------------------_-------------------|
------/ \---------------------------/ \------------------|
---9-7-9-7-------7---9---7-------5-4-5-4------2---5---4~-|
-7----------7--9---9---9------2----------5--5---5---5----|
---------------------------------------------------------|
---------------------------------------------------------|
               *   *   *                    *   *   *
2
---------------------------------------------------------|
---------------------------------------------------------|
---------------------------------------------------------|
-3----------0-----------------7-----------5--------------|
-3----------0-----------------7-----------5--------------|
-3----------0---------------/-7-----------5--------------|


1
--------_----------------------------_-------------------|
-------/ \--------------------------/ \------------------|
----5-4-5-4------4---5---4-------9-7-9-7------5---9------|
-3----------0--5---5---5------7-----------5-9---9---9----|
-3----------0-----------------7-----------5--------------|
-3----------0---------------/-7-----------5--------------|
               *   *   *                    *   *   * 
HARMONY
-------_-----------------------------_-------------------|
------/ \---------------------------/ \------------------|
---9-7-9-7-------7---9---7-------5-4-5-4------2---5------|
-7----------7--9---9---9------2----------5--5---5---5----|
---------------------------------------------------------|
---------------------------------------------------------|
               *   *   *                    *   *   *
2
---------------------------------------------------------|
---------------------------------------------------------|
---------------------------------------------------------|
-3----------0-----------------7-----------5--------------|
-3----------0-----------------7-----------5--------------|
-3----------0---------------/-7-----------5--------------|




1:56

B
----------------------------------------------------------------|
---_-----------------_-----------------_------------------_-----|
--/ \---------------/ \---------------/ \----------------/ \----|
-0-5-8-7-----------0-3-7-5-----------0-7-8-10-----------8-7-5---|
--------------------------------------------------------------8-|
---------0-0-0-0-0---------0-0-0-0-0----------0-0-0-0-0---------|
         * *   * *         * *   * *          * *   * *

----------------------------------------------------------------|
---_-----------------_-----------------_------------------_-----|
--/ \---------------/ \---------------/ \----------------/ \----|
-0-5-8-7-----------0-3-7-5-----------0-7-8-10-----------8-7-5---|
--------------------------------------------------------------8-|
---------0-0-0-0-0---------0-0-0-0-0----------0-0-0-0-0---------|
         * *   * *         * *   * *          * *   * *

----------------------------------|
----------------------------------|
----------------------------------|
-7-7----8---7---5--5----2--2------|
-8-8---10---8---7--7----3--3------|
-----0----0---0------0------------|
     *    *   *      *

----------------------------------------------------------------|
---_-----------------_-----------------_------------------_-----|
--/ \---------------/ \---------------/ \----------------/ \----|
-0-5-8-7-----------0-3-7-5-----------0-7-8-10-----------8-7-5---|
--------------------------------------------------------------8-|
---------0-0-0-0-0---------0-0-0-0-0----------0-0-0-0-0---------|
         * *   * *         * *   * *          * *   * *

----------------------------------------------------------------|
---_-----------------_-----------------_------------------_-----|
--/ \---------------/ \---------------/ \----------------/ \----|
-0-5-8-7-----------0-3-7-5-----------0-7-8-10-----------8-7-5---|
--------------------------------------------------------------8-|
---------0-0-0-0-0---------0-0-0-0-0----------0-0-0-0-0---------|
         * *   * *         * *   * *          * *   * *

----------------------------------|
----------------------------------|
----------------------------------|
-7-7----8---7---5--5----2-2-2-2---|
-8-8---10---8---7--7----3-3-3-3---|
-----0----0---0------0------------|
     *    *   *      *




2:23

1
--------_----------------------------_-------------------|
-------/ \--------------------------/ \------------------|
----5-4-5-4------4---5---4-------9-7-9-7------5---9---7~-|
---------------5---5---5------7-----------5-9---9---9----|
------------------------------7-----------5--------------|
-3----------0---------------/-7-----------5--------------|
               *   *   *                    *   *   * 
HARMONY
-------------------------------------_-------------------|
------------------------------------/ \------------------|
---------------------------------5-4-5-4------2---5---4~-|
------------------------------2----------5--5---5---5----|
---------------------------------------------------------|
---------------------------------------------------------|
               *   *   *                    *   *   *
2
---------------------------------------------------------|
---------------------------------------------------------|
---------------------------------------------------------|
------------------------------7-----------5--------------|
------------------------------7-----------5--------------|
----------------------------/-7-----------5--------------|


1
--------_----------------------------_-------------------|
-------/ \--------------------------/ \------------------|
----5-4-5-4------4---5---4-------9-7-9-7------5---9---7--|
-3----------0--5---5---5------7-----------5-9---9---9----|
-3----------0-----------------7-----------5--------------|
-3----------0---------------/-7-----------5--------------|
               *   *   *                    *   *   * 
HARMONY
-------_-----------------------------_-------------------|
------/ \---------------------------/ \------------------|
---9-7-9-7-------7---9---7-------5-4-5-4------2---5---4--|
-7----------7--9---9---9------2----------5--5---5---5----|
---------------------------------------------------------|
---------------------------------------------------------|
               *   *   *                    *   *   *
2
---------------------------------------------------------|
---------------------------------------------------------|
---------------------------------------------------------|
-3----------0-----------------7-----------5--------------|
-3----------0-----------------7-----------5-----------15-|
-3----------0-|-------------/-7-----------5-|---------15\|



2:36

REPEATS-FADES

L
-------------------------------------------------------------------|
-------------------------------------------------------------------|
----555555557777---777777779999---9999999910101010---777777779999--|
-3---------------5--------------7------------------5---------------|
-3---------------5--------------7------------------5---------------|
-3---------------5--------------7------------------5---------------|

R
-------------------------------------------------------------------|
-------------------------------------------------------------------|
--222222224444----444444445555-----555555557777------444444445555--|
3--------------5----------------7------------------5---------------|
3--------------5----------------7------------------5---------------|
3--------------5----------------7------------------5---------------|


L
----------------------------------------------------------------|
----------------------------------------------------------------|
----555555557777---777777779999----444444445555---222222224444--|
-3---------------5--------------0---------------3---------------|
-3---------------5--------------0---------------3---------------|
-3---------------5--------------0---------------3---------------|

R
----------------------------------------------------------------|
----------------------------------------------------------------|
--222222224444----444444445555----000000002222---222222220000---|
3--------------5----------------0--------------3----------------|
3--------------5----------------0--------------3----------------|
3--------------5----------------0--------------3----------------|




||||||||||||||||||||||||||||||||||||||||||||||||||||||||||
||||||||||||||||||||||||||||||||||||||||||||||||||||||||||
||||||||||||||||||||||||||||||||||||||||||||||||||||||||||
||||||||||||||||||||||||||||||||||||||||||||||||||||||||||










FIVE MONTHS

B-F#-B-E-G#-C#




1
-----------------------------------------------------------------------|
-----------------------------------------------------------------------|
----7-10-9------------7-10-9----7~------7-10-9------14-12-10-----------|
8-8--------10-0-8---8--------10-----8-8--------10-0-15-14-12---14---12~|
-----------------------------------------------------------------------|
-------------------------------------------------------------10---10---|
* *           *               *     * *           *           *    *
2
-------------------------------------------------------------------------|
-------------------------------------------------------------------------|
-------------------------------------------------------------------------|
-----------------8---------------------------------12--12-12-12-14-14-14-|
-8-8-----------8-8-------------------8-8------------8---8--8--8-10-10-10-|
-8-8-----------8-8-------------------8-8------------8---8--8--8-10-10-10-|
 * *           *                     * *



1
------------------------------------------------------------------------|
----------------------------------------------------10------------------|
----7-10-9------------7-10-9----7~------7-10-9------10--9-10---10-10-7-7|
8-8--------10-0-8---8--------10-----8-8--------10-0-12-10-12-0----------|
------------------------------------------------------------------------|
------------------------------------------------------------------------|
* *           *               *     * *           *          *     
2
-------------------------------------------------------------------------|
-------------------------------------------------------------------------|
-------------------------------------------------------------------------|
-----------------8---------------------------------12--12-12-12-14-14-14-|
-8-8-------8-8-8-8-------------------8-8------------8---8--8--8-10-10-10-|
-8-8-------8-8-8-8-------------------8-8------------8---8--8--8-10-10-10-|
 * *       * * * *                   * *



0;11

1
-----------------------------------------------------------------------|
-----------------------------------------------------------------------|
-----7-10-9-----------7-10-9----7-7-----7-10-9------14-12-10-----------|
-8-8--------10-0-8--8--------10-----8-8--------10-0-15-14-12---14---12~|
-----------------------------------------------------------------------|
-------------------------------------------------------------10---10---|
 * *           *                    * *           *           *    *
2
-----------------------------------------------------------------------|
-----------------------------------------------------------------------|
-----7-10-9-----------7-10-9----7-7-----7-10-9------14-12-10-----------|
------------10---8--8--------10----------------10---15-14-12---14--12~-|
-8-8-----------8-8--8---------------8-8----------------------10--10----|
-8-8-----------8-8--8---------------8-8-----------0----------10--10----|
 * *           *                    * *           *           *   *



1
-------------------------------------------------------------------------|
----------------------------------------------------10-------------------|
----7-10-9------------7-10-9----7-7-----7-10-9------10--9-10---10-10-7-7-|
8-8--------10-0-8---8--------10-----8-8--------10-0-12-10-12-0-----------|
-------------------------------------------------------------------------|
-------------------------------------------------------------------------|
* *           *               *     * *           *          * 
2
--------------------------------------------------------------------------|
--------------------------------------------------------------------------|
-----7-10-9-----------7-10-9----7-7-----7-10-9----------------------------|
------------10---8--8--------10----------------10----P--------------------|
-8-8-----------8-8--8---------------8-8---------------S-------------------|
-8-8-----------8-8--8---------------8-8-----------0----\------------------|
 * *           *                    * *           *         


0:22

1 L HARMONY
------------------------------------------------------------------------|
------------------------------------------------------------------------|
-----7-10-9------------7-10-9----7~------7-10-9------14-12-10-----------|
-8-8--------10-0-10-10--------10-----0-0--------10-0-15-14-12---14---12~|
------------------------------------------------------------------------|
--------------------------------------------------------------10---10---|
 * *           *               *     * *           *           *    *
2 R HARMONY
------------------------------------------------------------------------|
------------------------------------------------------------------------|
-----10-14-12-----------10-14-12--10----10-14-12-----17-15-14---12---10~|
12-12--------14-0-14-14---------14---0-0--------14-0-19-17-15-----------|
------------------------------------------------------------------------|
--------------------------------------------------------------10---10---|
 *  *           *                *   * *           *           *    *
3 RYTHM
---------------------------------------------------------------------|
---------------------------------------------------------------------|
---------------------------------------------------------------------|
-8----------------10------------------0------------------------------|
-8----------------10------------------0------------------------------|
-8----------------10------------------0------------------------------|



1 L HARMONY
---------------------------------------------------------------------|
---------------------------------------------------------------------|
----7-10-9------------7-10-9----7~-----7-10-9------------------------|
8-8--------10-0-10-10--------10----0-0--------10-0-------------------|
----------------------------------------------------/10--8-7-/8--7-5-|
---------------------------------------------------------------------|
 * *           *              *     * *          *           
2 R HARMONY
----------------------------------------------------------------------|
----------------------------------------------------------------------|
-----10-14-12----------10-14-12--10---10-14-12-----/15-14-12-/14-12-10|
12-12--------14-0-14-14--------14--0-0--------14-0--------------------|
----------------------------------------------------------------------|
----------------------------------------------------------------------|
 *  *           *               *  * *           *          
3 RYTHM
---------------------------------------------------------------------|
---------------------------------------------------------------------|
---------------------------------------------------------------------|
-8----------------10------------------0------------------------------|
-8----------------10------------------0------0-0-0-------------------|
-8----------------10------------------0------0-0-0-------------------|
                                             * * *


0:33

1L
---------------------------------------------------------------------|
---------------------------------------------------------------------|
---------------------------------------------------------------------|
--------------------------------------------------------------7------|
-5-----8-----------7-----7-8-7----5-----8-----------10-----10---8-10-|
---0-0---0-0-8-0-0---0-0-------10---0-0---0-0-8-0-0----0-0-----------|
   * *   * *   * *   * *            * *   * *   * *    * *
2R
-----------------------------------------------------------------------|
-----------------------------------------------------------------------|
-----------------------------------------------------------------------|
---------------------------------------------------------------7-------|
--------------------7-----7-8-7----5-----8-----------10-----10---8-10--|
--------------8-0-0---0-0-------10---0-0---0-0-8-0-0----0-0------------|
                * *   * *            * *   * *   * *    * *

1L
----------------------------------------------------------------------|
----------------------------------------------------------------------|
----------------------------------------------------------------------|
----------------------------------------------------------------------|
-5-----8-----------7-----7-8-7----5-----8888887777--------7777775555--|
---0-0---0-0-8-0-0---0-0-------10---0-0------------10-0-0-------------|
   * *   * *   * *   * *            * *               * *
2R
----------------------------------------------------------------------|
----------------------------------------------------------------------|
----------------------------------------------------------------------|
----------------------------------------------------------------------|
-5-----8-----------7-----7-8-7----5-----8888887777--------7777775555--|
---0-0---0-0-8-0-0---0-0-------10---0-0------------10-0-0-------------|
   * *   * *   * *   * *            * *               * *


0:44

L
-------------------------------------------------------------------------|
-------------------------------------------------------------------------|
-------------------------------------------------------------------------|
-------------------------------------------------------------------------|
-8-----12------------10-----10-12-10---8-----12------------10-----7-8-5-7|
---0-0----0-0-12-0-0----0-0---------14---0-0----0-0-12-0-0----0-0--------|
   * *    * *    * *    * *              * *    * *    * *    * *
2R
----------------------------------------------------------------------|
----------------------------------------------------------------------|
----------------------------------------------------------------------|
--------------------------------------------------------------7-------|
-5-----8-----------7-----7-8-7----5-----8-----------10-----10---8-10--|
---0-0---0-0-8-0-0---0-0-------10---0-0---0-0-8-0-0----0-0------------|
   * *   * *   * *   * *            * *   * *   * *    * *

L
----------------------------------------------------------------------------|
----------------------------------------------------------------------------|
----------------------------------------------------------------------------|
----------------------------------------------------------------------------|
8---12----------10---10-12-10--8---12121212121210101010-7---1010101010108888|
-0-0--0-0-12-0-0--0-0--------14-0-0----------------------0-0----------------|
 * *  * *    * *  * *           * *                      * *
2R
----------------------------------------------------------------------|
----------------------------------------------------------------------|
----------------------------------------------------------------------|
----------------------------------------------------------------------|
-5-----8-----------7-----7-8-7----5-----8888887777--------7777775555--|
---0-0---0-0-8-0-0---0-0-------10---0-0------------10-0-0-------------|
   * *   * *   * *   * *            * *               * *


0:55

B
-----------------------------------------------------------------|
-----------------------------------------------------------------|
-----------------------------------------------------------------|
-----------------------------------------------------------------|
----555555333----777777333-----8888885555-8-55-10-77-12-88-10-77-|
-000---------333-----------555-----------------------------------|
                                            **    **    **    **

----------------------------------------------------------------|
----------------------------------------------------------------|
----------------------------------------------------------------|
-----------------------------------------------10---------------|
----555555333----777777333-----8888885555---12----12----12---10-|
-000---------333-----------555------------8----------10----7----|
                                          *  *        *    * 


1:05

L
--------------------------------------------------------------------|
--------------------------------------------------------------------|
--------------------------------------------------------------------|
----3333332222---5555553333---7777775555----------------------------|
-----------------------------------------8-555-10-777-12-888-10-777-|
-000----------333----------555--------------------------------------|
R                                          ***    ***    ***    ***
--------------------------------------------------------------------|
--------------------------------------------------------------------|
--------------------------------------------------------------------|
--------------------------------------------------------------------|
----555555333----777777333-----8888885555-8-555-10-777-12-888-10-777|
-000---------333-----------555--------------------------------------|
                                            ***    ***    ***    ***

L
---------------------------------------------------------------|
---------------------------------------------------------------|
---------------------------------------------------------------|
----3333332222---5555553333---7777775555-----------------------|
------------------------------------------8---------10---------|
-000----------333----------555------------8---------10---------|
                                           
R
----------------------------------------------------------------|
----------------------------------------------------------------|
----------------------------------------------------------------|
-----------------------------------------------10---------------|
----555555333----777777333-----8888885555---12----12----12---10-|
-000---------333-----------555------------8----------10----7----|
                                          *  *        *    * 


 H
---------|
-9-------|
-9-------|
-9-------|
---------|
---------|



1:20

L
------------------------------------------------------------------|
------------------------------------------------------------------|
------------------------------------------------------------------|
---------------------7--------------------5-------------------3---|
-0-0-0-------00-00-8---8----------00-00-8---8-0-0-0-------3-7---7-|
-0-0-0-------00-00----------------00-00-------0-0-0-------3-------|
 * * *       ** **                ** **       * * *       *
R
------------------------------------------------------------------|
------------------------------------------------------------------|
------------------------------------------------------------------|
---------5--------------------3-----------------------7-----------|
-0-0-0-8---8-00-00--------3-7---7-00-00-------0-0-0-8---8---------|
-0-0-0-------00-00--------3-------00-00-------0-0-0---------------|
 * * *       ** **        *       ** **       * * *

L
------------------------------------------------------------------|
------------------------------------------------------------------|
------------------------------------------------------------------|
---------------------7--------------------5-------------------3---|
-0-0-0-------00-00-8---8----------00-00-8---8-0-0-0-------3-7---7-|
-0-0-0-------00-00----------------00-00-------0-0-0-------3-------|
 * * *       ** **                ** **       * * *       *
R
------------------------------------------------------------------|
------------------------------------------------------------------|
------------------------------------------------------------------|
---------5--------------------3-----------------------7-----------|
-0-0-0-8---8-00-00--------3-7---7-00-00-------0-0-0-8---8---------|
-0-0-0-------00-00--------3-------00-00-------0-0-0---------------|
 * * *       ** **        *       ** **       * * *



1:34

L
-------------------------------------------------------------------|
-------------------------------------------------------------------|
---------3-----------5--------------------3-----------5------------|
-------7---7-------7---7------3---------7---7-------7---7-----3----|
-0-0-0-------00-00--------3-7---7-00-00-------0-0-0-------3-7---7--|
-0-0-0-------00-00--------3-------00-00-------0-0-0-------3--------|
 * * *       ** **        *       ** **       * * *       *
R
-------------------------------------------------------------------|
-------------------------------------------------------------------|
-------------------------------------------------------------------|
---------5--------------------3-----------------------7-------3----|
-0-0-0-8---8-00-00--------3-7---7-00-00-------0-0-0-8---8-3-7---7--|
-0-0-0-------00-00--------3-------00-00-------0-0-0-------3--------|
 * * *       ** **        *       ** **       * * *       *

L
-------------------------------------------------------------------|
-------------------------------------------------------------------|
---------3-----------5--------------------3-----------5------------|
-------7---7-------7---7------3---------7---7-------7---7-----3----|
-0-0-0-------00-00--------3-7---7-00-00-------0-0-0-------3-7---7--|
-0-0-0-------00-00--------3-------00-00-------0-0-0-------3--------|
 * * *       ** **        *       ** **       * * *       *
R
-------------------------------------------------------------------|
-------------------------------------------------------------------|
-------------------------------------------------------------------|
---------5--------------------3-----------------------7-------3----|
-0-0-0-8---8-00-00--------3-7---7-00-00-------0-0-0-8---8-3-7---7--|
-0-0-0-------00-00--------3-------00-00-------0-0-0-------3--------|
 * * *       ** **        *       ** **       * * *       *


1:48

L
-----------------------------------------------------------------------|
-----------------------------------------------------------------------|
-----------------------------------------------------------------------|
--------10101010------------7777---------------------------------------|
----------------8888------------8888-------------3---5~-----------3-5~-|
88888888------------55555555--------0000-00--000---0----0-00--000------|
                                    **** **  ***   *    * **  ***
R
-----------------------------------------------------------------------|
-----------------------------------------------------------------------|
-----------------------------------------------------------------------|
-----------------------------------------------------------------------|
8-------------------5----------------------------3---5~-----------3-5~-|
8-------------------5------/--\-----0000-00--000---0----0-00--000------|
  |                   |             **** **  ***   *    * **  ***

B
-----------------------------------------------------------------------|
-----------------------------------------------------------------------|
-----------------------------------------------------------------------|
--------10101010------------7777---------------------------------------|
----------------8888------------8888-------------3---5~-----------3-5~-|
88888888------------55555555--------0000-00--000---0----0-00--000------|
                                    **** **  ***   *    * **  ***


L
----------------------------------------------------------------------|
----------------------------------------------------------------------|
--------999910101010--------999910101010------------------------------|
----------------------------------------------------------------------|
-----------------------------------------------------7-8~---------7-8~|
88888888------------55555555-------------0000-00-000--0--0-00-000--0--|
R                                        **** ** ***  *  * ** ***  *
-----------------------------------------------------------------------|
-----------------------------------------------------------------------|
-----------------------------------------------------------------------|
--------10101010------------7777---------------------------------------|
----------------8888------------8888-------------3---5~-----------3--5~|
88888888------------55555555--------0000-00--000---0----0-00--000---0--|
                                    **** **  ***   *    * **  ***   *

L
----------------------------------------------------------------------|
----------------------------------------------------------------------|
--------999910101010--------999910101010------------------------------|
----------------------------------------------------------------------|
-----------------------------------------------------7-8~---------7-8~|
88888888------------55555555-------------0000-00-000--0--0-00-000--0--|
R                                        **** ** ***  *  * ** ***  *
-----------------------------------------------------------------------|
-----------------------------------------------------------------------|
-----------------------------------------------------------------------|
--------10101010------------7777---------------------------------------|
----------------8888------------8888-------------3---5~-----------3--5~|
88888888------------55555555--------0000-00--000---0----0-00--000---0--|
                                    **** **  ***   *    * **  ***   *

----------|
----------|
----------|
-8--------|
-8--------|
-8--------|



2:12


1
---------------------------------------------|
--1----------3-----------5-------------------|
--3----------5-----------7-------------------|
--3----------5-----------7-------------------|
--1----------3-----------5-------------------|
---------------------------------------------|
2
---------------------------------------------|
--6----------5-----------5-------------------|
7----------7-----------5---------------------|
---------------------------------------------|
---------------------------------------------|
---------------------------------------------|

1
---------------------------------------------|
--1----------3-----------5-------------------|
--3----------5-----------7-------7-----------|
--3----------5-----------7---------7---------|
--1----------3-----------5-------------------|
---------------------------------------------|
2
---------------------------------------------|
--6----------5-----------5-------------------|
7----------7-----------5---------7-----------|
-----------------------------------7---------|
---------------------------------------------|
---------------------------------------------|

1
---------------------------------------------|
--1----------3-----------5-------------------|
--3----------5-----------7-------------------|
--3----------5-----------7-------------------|
--1----------3-----------5-------------------|
---------------------------------------------|
2
---------------------------------------------|
--6----------5-----------5-------------------|
7----------7-----------5---------------------|
---------------------------------------------|
---------------------------------------------|
---------------------------------------------|

1
---------------------------------------------|
--1----------3-----------5-------------------|
--3----------5-----------7-------7-----------|
--3----------5-----------7---------7---------|
--1----------3-----------5-------------------|
---------------------------------------------|
2
---------------------------------------------|
--6----------5-----------5-------------------|
7----------7-----------5---------7-----------|
-----------------------------------7---------|
---------------------------------------------|
---------------------------------------------|



2:36

---------------------------------------------------------------|
----10----------------------------------------------)(^--------|
----------10----12----10----10----9----12----9----12---10-12~--|
-12----12----12----12----12----10---10----10---10--------------|
---------------------------------------------------------------|
---------------------------------------------------------------|


-------------------------------------------------------------------|
-13------------------10--------------------------------------------|
----12-10-9/10-------------10----12----10----10----9----12----9----|
---------------12-12----12----12----12----12----10---10----10---10-|
-------------------------------------------------------------------|
-------------------------------------------------------------------|

----------------------------------|
----------------------------------|
----------------------------------|
-0--------------------------------|
-0-0-0-0-0-0-0-0-0-0-0-0-0-0-0-0--|
-0-0-0-0-0-0-0-0-0-0-0-0-0-0-0-0--|
   * * * * * * * * * * * * * * *



2:48

1
-----------------------------------------------------------------------|
-----------------------------------------------------------------------|
-----7-10-9-----------7-10-9----7-7-----7-10-9------14-12-10-----------|
-8-8--------10-0-8--8--------10-----8-8--------10-0-15-14-12---14---12~|
-----------------------------------------------------------------------|
-------------------------------------------------------------10---10---|
 * *           *                    * *           *           *    *
2
-----------------------------------------------------------------------|
-----------------------------------------------------------------------|
-----7-10-9-----------7-10-9----7-7-----7-10-9------14-12-10-----------|
------------10---8--8--------10----------------10---15-14-12---14--12~-|
-8-8-----------8-8--8---------------8-8----------------------10--10----|
-8-8-----------8-8--8---------------8-8-----------0----------10--10----|
 * *           *                    * *           *           *   *

1
-------------------------------------------------------------------------|
----------------------------------------------------10-------------------|
----7-10-9------------7-10-9----7-7-----7-10-9------10--9-10---10-10-7-7-|
8-8--------10-0-8---8--------10-----8-8--------10-0-12-10-12-0-----------|
-------------------------------------------------------------------------|
-------------------------------------------------------------------------|
* *           *               *     * *           *          * 
2
--------------------------------------------------------------------------|
--------------------------------------------------------------------------|
-----7-10-9-----------7-10-9----7-7-----7-10-9----------------------------|
------------10---8--8--------10----------------10----P--------------------|
-8-8-----------8-8--8---------------8-8---------------S-------------------|
-8-8-----------8-8--8---------------8-8-----------0----\------------------|
 * *           *                    * *           *         


1 L HARMONY
------------------------------------------------------------------------|
------------------------------------------------------------------------|
-----7-10-9------------7-10-9----7~------7-10-9------14-12-10-----------|
-8-8--------10-0-10-10--------10-----0-0--------10-0-15-14-12---14---12~|
------------------------------------------------------------------------|
--------------------------------------------------------------10---10---|
 * *           *               *     * *           *           *    *
2 R HARMONY
------------------------------------------------------------------------|
------------------------------------------------------------------------|
-----10-14-12-----------10-14-12--10----10-14-12-----17-15-14---12---10~|
12-12--------14-0-14-14---------14---0-0--------14-0-19-17-15-----------|
------------------------------------------------------------------------|
--------------------------------------------------------------10---10---|
 *  *           *                *   * *           *           *    *
3 RYTHM
---------------------------------------------------------------------|
---------------------------------------------------------------------|
---------------------------------------------------------------------|
10----------------12------------------14-----------------------------|
-8----------------10------------------12-----------------------------|
-8----------------10------------------12-----------------------------|



1 L HARMONY
---------------------------------------------------------------------|
-------------------------------------------------------------^-------|
----7-10-9------------7-10-9----7~-----7-10-9------/12-10-9-9-10-9-7-|
8-8--------10-0-10-10--------10----0-0--------10-0-------------------|
---------------------------------------------------------------------|
---------------------------------------------------------------------|
 * *           *              *     * *          *           
2 R HARMONY
------------------------------------------------------------------------|
---------------------------------------------------------------^--------|
-----10-14-12----------10-14-12--10---10-14-12-----/15-14-12-12-14-12-10|
12-12--------14-0-14-14--------14--0-0--------14-0----------------------|
------------------------------------------------------------------------|
------------------------------------------------------------------------|
 *  *           *               *  * *           *          
3 RYTHM
---------------------------------------------------------------------|
---------------------------------------------------------------------|
---------------------------------------------------------------------|
12----------------14-----------------15------------------------------|
-8----------------10-----------------12------------------------------|
-8----------------10-----------------12------------------------------|
                                           




3:11

1                                      ______       _____
---------------------------------------)    (-------)   (------|
------15--/\---------18--------------22-------22~-20------20~--|
12/14---141514--15/17--17/19-----------------------------------|
--------------17-----------------------------------------------|
---------------------------------------------------------------|
---------------------------------------------------------------|
2
---------------------------------------------------------------|
---------------------------------------------------------------|
---------------------------------------------------------------|
12--------------------14-------------15------------------------|
-8--------------------10-------------12------------------------|
-8--------------------10-------------12------------------------|

    __________________________       __________       __________
1  /                          \     /          \     /          \
-13101310131013101310131013101310-1713171317131713-1512151215121512|
-------------------------------------------------------------------|
-------------------------------------------------------------------|
-------------------------------------------------------------------|
-------------------------------------------------------------------|
-------------------------------------------------------------------|
                                   T   T   T   T   T    T   T   T
2
-------------------------------------------------------------------|
-------------------------------------------------------------------|
-------------------------------------------------------------------|
12--------------------------------14-------------------------------|
-8--------------------------------10-------------------------------|
-8--------------------------------10-------------------------------|

                                       ______
1    __________________       __      /      \
----/                  \-----/  \---131513151315-13-12------|
--171317131713171317131713-13151315-------------------15~---|
------------------------------------------------------------|
------------------------------------------------------------|
------------------------------------------------------------|
------------------------------------------------------------|
   T   T   T   T   T   T
2
------------------------------------------------------------|
------------------------------------------------------------|
------------------------------------------------------------|
--15-----------------------15-------------------------------|
--12-----------------------12-------------------------------|
--12-----------------------12-------------------------------|
                              |


3:23

1
-17-----17-----17----12------12------12----------------------------20------|
---15-----15-----15----13------13------13--18----20----18----20------18----|
-----14-----14-------------------------------1717--1717--1717--1717----1717|
--------------------------15------15---------------------------------------|
---------------------------------------------------------------------------|
---------------------------------------------------------------------------|
2
-20-----20-----20--------------------------17----20----17----20----20------|
---18-----18-----18-20-17----20-17---20-17---1818--1818--1818--1818--181818|
-----17-----17-------------------------------------------------------------|
--------------------------19-------19--------------------------------------|
---------------------------------------------------------------------------|
---------------------------------------------------------------------------|
RYTHM
---------------------------------------------------------------------|
---------------------------------------------------------------------|
---------------------------------------------------------------------|
12----------------------14-----------------15------------------------|
-8----------------------10-----------------12------------------------|
-8----------------------10-----------------12------------------------|



1
-17-----17-----17--------------------------------------------------20------|
---15-----15-----15--17-13---17-13---17-13-18----20----18----20------18----|
-----14-----14-------------------------------1717--1717--1717--1717----1717|
--------------------------15------15---------------------------------------|
---------------------------------------------------------------------------|
---------------------------------------------------------------------------|
2
-20-----20-----20--------------------------17----20----17----20----20------|
---18-----18-----18-20-17----20-17---20-17---1818--1818--1818--1818--181818|
-----17-----17-------------------------------------------------------------|
--------------------------19-------19--------------------------------------|
---------------------------------------------------------------------------|
---------------------------------------------------------------------------|
RYTHM
---------------------------------------------------------------------|
---------------------------------------------------------------------|
---------------------------------------------------------------------|
12----------------------14-----------------15------------------------|
-8----------------------10-----------------12------------------------|
-8----------------------10-----------------12------------------------|




1                                                                 )~~~~
-17-----17-----17---------------------------13-12--15-12--13-12-15-----|
---15-----15-----15--17-13---17-13---17-13-------13-----13-------------|
-----14-----14---------------------------------------------------------|
--------------------------15------15-----------------------------------|
-----------------------------------------------------------------------|
-----------------------------------------------------------------------|
2
-20-----20-----20----------------------------|
---18-----18-----18-20-17----20-17---20-17---|
-----17-----17-------------------------------|
--------------------------19-------19--------|
---------------------------------------------|
---------------------------------------------|
RYTHM
----------------------------------------------------------------------|
----------------------------------------------------------------------|
----------------------------------------------------------------------|
12----------------------14--------------------------------------------|
-8----------------------10-----------------12-12-12-12-12-12-12-12-12-|
-8----------------------10-----------------12-12-12-12-12-12-12-12-12-|
                                            *  *  *  *  *  *  *  *   |



3:35

B
-----------------------------------------------------------------------|
-----------------------------------------------------------------------|
-----------------------------------------------------------------------|
--------10101010------------7777---------------------------------------|
----------------8888------------8888-------------3---5~-----------3-5~-|
88888888------------55555555--------0000-00--000---0----0-00--000------|
                                    **** **  ***   *    * **  ***

-----------------------------------------------------------------------|
-----------------------------------------------------------------------|
-----------------------------------------------------------------------|
--------10101010------------7777---------------------------------------|
----------------8888------------8888-------------3---5~-----------3-5~-|
88888888------------55555555--------0000-00--000---0----0-00--000------|
                                    **** **  ***   *    * **  ***


L
----------------------------------------------------------------------|
----------------------------------------------------------------------|
--------999910101010--------999910101010------------------------------|
----------------------------------------------------------------------|
-----------------------------------------------------7-8~---------7-8~|
88888888------------55555555-------------0000-00-000--0--0-00-000--0--|
R                                        **** ** ***  *  * ** ***  *
-----------------------------------------------------------------------|
-----------------------------------------------------------------------|
-----------------------------------------------------------------------|
--------10101010------------7777---------------------------------------|
----------------8888------------8888-------------3---5~-----------3--5~|
88888888------------55555555--------0000-00--000---0----0-00--000---0--|
                                    **** **  ***   *    * **  ***   *

L
----------------------------------------------------------------------|
----------------------------------------------------------------------|
--------999910101010--------999910101010------------------------------|
----------------------------------------------------------------------|
-----------------------------------------------------7-8~---------7-8~|
88888888------------55555555-------------0000-00-000--0--0-00-000--0--|
R                                        **** ** ***  *  * ** ***  *
-----------------------------------------------------------------------|
-----------------------------------------------------------------------|
-----------------------------------------------------------------------|
--------10101010------------7777---------------------------------------|
----------------8888------------8888-------------3---5~-----------3--5~|
88888888------------55555555--------0000-00--000---0----0-00--000---0--|
                                    **** **  ***   *    * **  ***   *


----------|
----------|
----------|
-0--------|
-0--------|
-0--------|
    |


|||||||||||||||||||||||||||||||||||||||||||||||||
|||||||||||||||||||||||||||||||||||||||||||||||||
|||||||||||||||||||||||||||||||||||||||||||||||||
|||||||||||||||||||||||||||||||||||||||||||||||||










BONEYARDS

B-F#-B-E-G#-C#



---------------------------------------------------------------|
-----------------------------------^---/\---/\-----------------|
----444422224444---444422224444---454-5750-4540---000044440000-|
-2---------------3--------------5---------------3--------------|
-2---------------3--------------5---------------3--------------|
-2---------------3--------------5---------------3--------------|

---------------------------------------------------------------|
-----------------------------------^---/\---/\-----------------|
----444422224444---444422224444---454-5750-4540---000044440000-|
-2---------------3--------------5---------------3--------------|
-2---------------3--------------5---------------3--------------|
-2---------------3--------------5---------------3--------------|

---------------------------------------------------------------|
-----------------------------------^---/\---/\-----------------|
----444422224444---444422224444---454-5750-4540---000044440000-|
-2---------------3--------------5---------------3--------------|
-2---------------3--------------5---------------3--------------|
-2---------------3--------------5---------------3--------------|

---------------------------------------------------------------|
-----------------------------------^---/\---/\-----------------|
----444422224444---444422224444---454-5750-4540---000044440000-|
-2---------------3--------------5---------------3--------------|
-2---------------3--------------5---------------3--------------|
-2---------------3--------------5---------------3--------------|



0:18

-----------------------------------------------------------------|
-----------------------------------------------------------------|
-----------------------------------------------------------------|
-----------------------------------------------------------------|
5-------7-------8--------10--8-------5-------7-------8--10---8---|
--7-0-0---8-0-0---10-0-0---12-10-0-0---7-0-0---8-0-0--10--12--10-|
    * *     * *      * *         * *     * *     * *      

L
------------------------------------|
------------------------------------|
-------------------------5555-------|
-----77775555777788887777----7777---|
------------------------------------|
-8----------------------------------|

R
--------------------------------------|
--------------------------------------|
--------------------------------------|
-----------------------------7777-----|
-----888877778888101010108888----8888-|
-8------------------------------------|



0:26

-------------------------------------------------------------------------|
-------------------------------------------------------------------------|
-------------------------------------------------------------------------|
---------------------------------------------------/\--5-----875---5-----|
-0----0-0000-00--00-0-00--0000-00--0----0-0000-00-0578---875-----8---875-|
-0----0-0000-00--00-0-00--0000-00--0----0-0000-00------------------------|
 *    * **** **  ** * **  **** **  *    * **** **

-------------------------------------------------------------------------|
-------------------------------------------------------------------------|
-------------------------------------------------------------------------|
---------------------------------------------------/\--5-----875---5-----|
-0----0-0000-00--00-0-00--0000-00--0----0-0000-00-0578---875-----8---875-|
-0----0-0000-00--00-0-00--0000-00--0----0-0000-00------------------------|
 *    * **** **  ** * **  **** **  *    * **** **

L
-------------------------------------------------------------------|
-------------------------------------------------------------------|
----------------------------------------------------------5555-----|
--------------------------------------------------88887777----7777-|
-0----0-0000-00--00-0-00--0000-00--0----0-0000-00------------------|
-0----0-0000-00--00-0-00--0000-00--0----0-0000-00------------------|
 *    * **** **  ** * **  **** **  *    * **** **
R
-----------------------------------------------------------------------|
-----------------------------------------------------------------------|
-----------------------------------------------------------------------|
--------------------------------------------------------------7777-----|
-0----0-0000-00--00-0-00--0000-00--0----0-0000-00-101010108888----8888-|
-0----0-0000-00--00-0-00--0000-00--0----0-0000-00----------------------|
 *    * **** **  ** * **  **** **  *    * **** **

L
---------------------------------------------------------------------------|
---------------------------------------------------------------------------|
---------------------------------------------------------------------------|
---------------------------------------------------------------------------|
0--0-0000-00--00-0-00--0000-00--0--0-0000-00-12---10----8--10-----8-----7--|
0--0-0000-00--00-0-00--0000-00--0--0-0000-00---8-0--7-0--12--12-0--10-0--10|
*  * **** **  ** * **  **** **  *  * **** **
R
-----------------------------------------------------------------------|
-----------------------------------------------------------------------|
-----------------------------------------------------------------------|
-----------------------------------------------------------------------|
0---0-0000-00--00-0-00--0000-00--0--0-0000-00--0-------------------12--|
0---0-0000-00--00-0-00--0000-00--0--0-0000-00--0-------------------12\-|
*   * **** **  ** * **  **** **  *  * **** **  *



0:54

---------------------------------------------------------------------|
---------------------------------------------------------------------|
---------------------------------------------------------------------|
---------------------------------------------------------------------|
-8-----8-----7----8-----8-----7---8-----8-----7---10-----10-----8----|
---0-0---0-0---0----0-0---0-0---0---5-5---5-5---5----7-7----7-7---7--|
   * *   * *   *    * *   * *   *   * *   * *   *    * *    * *   *

----------------------------------------------------------------------|
----------------------------------------------------------------------|
-------------------------------------------------------------_--------|
------------------------------------------------------------/ \-------|
-8-----8-----7----8-----8-----7---5-----5-----3---7------7-7-8-7-5-3--|
---0-0---0-0---0----0-0---0-0---0---3-3---3-3---3---5-5---------------|
   * *   * *   *    * *   * *   *   * *   * *   *   * * 

---------------------------------------------------------------------|
---------------------------------------------------------------------|
---------------------------------------------------------------------|
---------------------------------------------------------------------|
-8-----8-----7----8-----8-----7---8-----8-----7---10-----10-----8----|
---0-0---0-0---0----0-0---0-0---0---5-5---5-5---5----7-7----7-7---7--|
   * *   * *   *    * *   * *   *   * *   * *   *    * *    * *   *

----------------------------------------------------------------------|
----------------------------------------------------------------------|
-------------------------------------------------------------_--------|
------------------------------------------------------------/ \-------|
-8-----8-----7----8-----8-----7---5-----5-----3---7------7-7-8-7-5-3--|
---0-0---0-0---0----0-0---0-0---0---3-3---3-3---3---5-5---------------|
   * *   * *   *    * *   * *   *   * *   * *   *   * *


1:13

1
-------------------------------------------------------------------|
-------------------------------------------------------------------|
-------------------------------------------------------------------|
-------------------------------------------------------------------|
-3-5-3-0-0-0-0-0-5-7-5-0-0-0-0-0-5-------7-------8--------10---8---|
-3-5-3-0-0-0-0-0-5-7-5-0-0-0-0-0---7-0-0---8-0-0---10-0-0---12--10-|
         * * * *         * * * *     * *     * *      * *
L
-----------------------------------------------------------------|
-----------------------------------------------------------------|
-----------------------------------------------------------------|
-----------------------------------------------------------------|
-3-5-3-0-----------------------------5-------7-------8--10--8----|
-3-5-3-0-------------------------0-0---7-0-0---8-0-0--10--12-10--|
                                 * *     * *     * *
R
----------------------------------------------------------------|
----------------------------------------------------------------|
----------------------------------------------------------------|
----------------------------------------------------------------|
-3-5-3-0-0-0-0-0-5-7-5-0-0-0-0-0-----5-------7-------8--10--8---|
-3-5-3-0-0-0-0-0-5-7-5-0-0-0-0-0-0-0---7-0-0---8-0-0--10--12-10-|
         * * * *         * * * * * *     * *     * *  


-------------------------------------------------------------------|
-------------------------------------------------------------------|
-------------------------------------------------------------------|
-------------------------------------------------------------------|
-3-5-3-0-0-0-0-0-5-7-5-0-0-0-0-0-5-------7-------8--------10---8---|
-3-5-3-0-0-0-0-0-5-7-5-0-0-0-0-0---7-0-0---8-0-0---10-0-0---12--10-|
         * * * *         * * * *     * *     * *      * *
----------------------------------------------------------------|
----------------------------------------------------------------|
----------------------------------------------------------------|
----------------------------------------------------------------|
-3-5-3-0-0-0-0-0-5-7-5-0-0-0-0-0-----5-------7-------8--10--8---|
-3-5-3-0-0-0-0-0-5-7-5-0-0-0-0-0-0-0---7-0-0---8-0-0--10--12-10-|
         * * * *         * * * * * *     * *     * * 

-----------------------------------------------------------------|
-----------------------------------------------------------------|
-----------------------------------------------------------------|
-----------------------------------------------------------------|
-3-5-3-0-0-0-0-0-0-0-0-0-0-0-0-0-3-5-3-0-0-0-0-0-3-5-3-0-5-7-5-0-|
-3-5-3-0-0-0-0-0-0-0-0-0-0-0-0-0-3-5-3-0-0-0-0-0-3-5-3-0-5-7-5-0-|
         * * * * * * * * * * * *         * * * * * * * * * * * *

-----------------------------------------------------------------|
-----------------------------------------------------------------|
-----------------------------------------------------------------|
-----------------------------------------------------------------|
-3-5-3-0-0-0-0-0-0-0-0-0-0-0-0-0-3-5-3-0-0-0-0-0-3-5-3-0-5-7-5-0-|
-3-5-3-0-0-0-0-0-0-0-0-0-0-0-0-0-3-5-3-0-0-0-0-0-3-5-3-0-5-7-5-0-|
         * * * * * * * * * * * *         * * * * * * * * * * * *

 
1:44

         R        L                    L         R
----------------------------------------------------------------------------|
----------------------------------------------------------------------------|
----------------------------------------------------------------------------|
1--1--1----------------------1--1--1----------------------------------------|
0--0--0---0--0-0---0-0-0-0---0--0--0---0--0-0---0-0-0-0---12-----10-----8---|
1--1--1---0--0-0---0-0-0-0---1--1--1---0--0-0---0-0-0-0-0----8-0----7-0---12|
*  *  *   *  * *   * * * *   *  *  *   *  * *   * * * * *      *      *


----------------------------------------------------------------------------|
----------------------------------------------------------------------------|
----------------------------------------------------------------------------|
1--1--1----1--1-1------1--1--1----1--1-1-----1-1-1-1------------------------|
0--0--0----0--0-0------0--0--0----0--0-0-----0-0-0-0------12-----10-----8---|
1--1--1----1--1-1------1--1--1----1--1-1-----1-1-1-1----0----8-0----7-0---12|
*  *  *    *  * *      *  *  *    *  * *     * * * *    *      *      *

---------------------------------------------------------------------|
---------------------------------------------------------------------|
---------------------------------------------------------------------|
---------------------------------------------------------------------|
0--0--0----0--0-0---0-0-0-0---0000-0-0----0--0--0---0--0-0---0-0-0-0-|
0--0--0----0--0-0---0-0-0-0---0000-0-0----0--0--0---0--0-0---0-0-0-0-|
*  *  *    *  * *   * * * *   **** * *    *  *  *   *  * *   * * * *

------------------------|
------------------------|
------------------------|
------------------------|
--12-----10-----8-------|
0----8-0----7-0---12----|
*      *      *



2:18

1                                  B
---------------------------------------------------------------------|
---------------------------------------------------------------------|
---------------------------------------------------------------------|
---------------------------------------------------------------------|
-8-----8-----7----8-----8-----7---8-----8-----7---10-----10-----8----|
---0-0---0-0---0----0-0---0-0---0---5-5---5-5---5----7-7----7-7---7--|
   * *   * *   *    * *   * *   *   * *   * *   *    * *    * *   *

----------------------------------------------------------------------|
----------------------------------------------------------------------|
-------------------------------------------------------------_--------|
------------------------------------------------------------/ \-------|
-8-----8-----7----8-----8-----7---5-----5-----3---7------7-7-8-7-5-3--|
---0-0---0-0---0----0-0---0-0---0---3-3---3-3---5---5-5---------------|
   * *   * *   *    * *   * *   *   * *   * *   *   * * 

2:27

L
---------------------------------------------------------------------|
---------------------------------------------------------------------|
---------------------------------------------------------------------|
---------------------------------------------------------------------|
-8-----8-----7----8-----8-----7---8-----8-----7---10-----10-----8----|
---0-0---0-0---0----0-0---0-0---0---5-5---5-5---5----7-7----7-7---7--|
   * *   * *   *    * *   * *   *   * *   * *   *    * *    * *   *
R
---------------------------------------------------------------------|
---------------------------------------------------------------------|
---------------------------------------------------------------------|
---------------------------------------------------------------------|
-5-----5-----3----5-----5-----3---5-----5-----3----7------7-----5----|
---0-0---0-0---0----0-0---0-0---0---5-5---5-5---5----7-7----7-7---7--|
   * *   * *   *    * *   * *   *   * *   * *   *    * *    * *   *
L
----------------------------------------------------------------------|
----------------------------------------------------------------------|
-------------------------------------------------------------_--------|
------------------------------------------------------------/ \-------|
-8-----8-----7----8-----8-----7---5-----5-----3---7------7-7-8-7-5-3--|
---0-0---0-0---0----0-0---0-0---0---3-3---3-3---3---5-5---------------|
   * *   * *   *    * *   * *   *   * *   * *   *   * * 
R
----------------------------------------------------------------------|
------------------------------------------------------------_---------|
-----------------------------------------------------------/ \--------|
----------------------------------3-----3-----2---5-----5-5-7-5-3-2---|
-5-----5-----3----5-----5-----3---------------------------------------|
---0-0---0-0---0----0-0---0-0---0---3-3---3-3---3---5-5---------------|
   * *   * *   *    * *   * *   *   * *   * *   *   * * 


2:37

----------------------------------------------------------|
----------------------------------------------------------|
----------------------------------------------------------|
--------------------------------0-------------------------|
-12---10----8--10-----8-----7---0-------------------------|
---8-0--7-0--12--12-0--10-0--10-0-------------------------|

----------------------------------------------------------|
----------------------------------------------------------|
----------------------------------------------------------|
--------------------------------0-------------------------|
-12---10----8--10-----8-----7---0-----------------------0-|
---8-0--7-0--12--12-0--10-0--10-0-----------------------0-|
                                                        *

2:55

-------------------------------------------------------------------------|
-------------------------------------------------------------------------|
-------------------------------------------------------------------------|
---------------------------------------------------/\--5-----875---5-----|
-0----0-0000-00--00-0-00--0000-00--0----0-0000-00-0578---875-----8---875-|
-0----0-0000-00--00-0-00--0000-00--0----0-0000-00------------------------|
 *    * **** **  ** * **  **** **  *    * **** **

-----------------------------------------------------------------------|
-----------------------------------------------------------------------|
-----------------------------------------------------------------------|
--------------------------------------------------------------7777-----|
-0----0-0000-00--00-0-00--0000-00--0----0-0000-00-101010108888----8888-|
-0----0-0000-00--00-0-00--0000-00--0----0-0000-00----------------------|
 *    * **** **  ** * **  **** **  *    * **** **

L
-----------------------------|
-----------------------------|
---------5555----------------|
-88887777----7777------------|
---------------------0-------|
---------------------0--|----|
R
-----------------------------|
-----------------------------|
-----------------------------|
-------------7777------------|
101010108888----8888-0-------|
---------------------0--|----|




|||||||||||||||||||||||||||||||||||||||||||||||||||
||||||||||||||||||||||||||||||||||||||||||||||||||||
||||||||||||||||||||||||||||||||||||||||||||||||||||
||||||||||||||||||||||||||||||||||||||||||||||||||||









IDOLS AND ANCHORS

B-F#-B-E-G#-C#



1
--------------------------------------------------------|
------10----10------------10----10----------------------|
---------12----12------------12----12-------------------|
12----------------12------------------12----------------|
--------------------------------------------------------|
--------------------------------------------------------|
2
--------------------------------------------------------|
--------------------------------------------------------|
--------------------------------------------------------|
--------------------------------------------------------|
-8----------------5--------------------0----------------|
-8----------------5--------------------0----------------|



1
----------------------------------------------------------|
------10----10------------13----13------------------------|
---------12----12------------10----10---------------------|
12----------------12------------------14------------------|
----------------------------------------------------------|
----------------------------------------------------------|
2
----------------------------------------------------------|
----------------------------------------------------------|
----------------------------------------------------------|
----------------------------------------------------------|
-8----------------5--------------------0--------------0---|
-8----------------5--------------------0--000-000-000-0---|
                                          *** *** ***   |




0:12

1
---------------------------------------------------------------------|
------10----10----------10----10-------------------------------------|
---------12----12----------12----12----------------------------------|
12----------------12----------------12-------------------------------|
---------------------------------------------------------------------|
-----------------------------------------000-000-000-000---000-000---|
2                                        *** *** *** ***   *** ***
---------------------------------------------------------------------|
---------------------------------------------------------------------|
---------------------------------------------------------------------|
-----7-----7-------------7-----7-------------------------------------|
-8------3-----3---5---------3-----3--0-------------------------------|
-8----------------5------------------0---000-000-000-000---000-000---|
                                         *** *** *** ***   *** ***


1
--------------------------------------------------------------------------|
------10----10------------13----13----------------------------------------|
---------12----12------------10----10-------------------------------------|
12----------------12------------------14----------------------------------|
---------------------------------------------------------0----------------|
--------------------------------------------0-0-00-00-00-0---0-0-00-00-00-|
2                                           * * ** ** **     * * ** ** **
--------------------------------------------------------------------------|
---------------------------------_----------------------------------------|
--------------------------------/ \---------------------------------------|
-----7-----7-------------7-----7-8-7--------------------------------------|
-8------3-----3---5---------3--------10-0----------------0----------------|
-8----------------5---------------------0---0-0-00-00-00-0---0-0-00-00-00-|
                                            * * ** ** **     * * ** ** **



1
---------------------------------------------------------------------|
------10----10----------10----10-------------------------------------|
---------12----12----------12----12----------------------------------|
12----------------12----------------12-------------------------------|
---------------------------------------------------------------------|
-----------------------------------------000-000-000-000---000-000---|
2                                        *** *** *** ***   *** ***
---------------------------------------------------------------------|
---------------------------------------------------------------------|
---------------------------------------------------------------------|
-----7-----7-------------7-----7-------------------------------------|
-8------3-----3---5---------3-----3--0-------------------------------|
-8----------------5------------------0---000-000-000-000---000-000---|
                                         *** *** *** ***   *** ***


1                                                                L
---------------------------------------------------------------------------|
------10----10------------13----13-----------------------------------------|
---------12----12------------10----10-----------------------------2---2----|
12----------------12------------------14----------------------------5---5--|
---------------------------------------------------------0-----------------|
--------------------------------------------0-0-00-00-00-0---0-0-----------|
2                                           * * ** ** **     * * R
---------------------------------------------------------------------------|
--------------------------------_------------------------------------------|
-------------------------------/ \-----------------------------------------|
-----7-----7-------------7----7-8-7-------------------------------3---3----|
-8------3-----3---5---------3-------10--0----------------0----------7---7--|
-8----------------5---------------------0---0-0-00-00-00-0---0-0-----------|
                                            * * ** ** **     * * 



0:37

L
---------------------------------------------------------------------------|
---------------------------------------------------------------------------|
---------------------------------------------------------------------------|
0------------------------------^---------------^------------------/\-------|
0---------8---8---5---8---8---585---5-----8---787----7-----10---101210---8-|
0-----5-5---5---5---5---5---5-----8---7-7---7-----10---8-8----8--------8---|
      * *   *   *   *   *   *     *   * *   *      *   * *    *        *
R
---------------------------------------------------------------------------|
---------------------------------------------------------------------------|
---------------------------------------------------------------------------|
0--------------------------------------------------------------------------|
0--------------------------------------------------------------------------|
0--------------------------------------------------------------------------|



L
-----------------------------------------------------------------|
-----------------------------------------------------------------|
-----------------------------------------------------------------|
--------------------------^--------------------------------------|
-----8---8---5---8---8---585---5-10---10---8---8---7---7---3-----|
-5-5---5---5---5---5---5-----8------7----7---7---7---7---7-------|
 * *   *   *   *   *   *     *      *    *   *   *   *   *   |

-----------------------------------------------------------------|
-----------------------------------------------------------------|
-----------------------------------------------------------------|
-----------------------------------------------------------------|
-5-5------------------------------7--------7--------3----3---3---|
-5-5------------------------------7--------7--------3----3---3---|
 * *                               |        |        |    |   |



0:48

B
----------------------------------------------------------------------|
----------------------------------------------------------------------|
----------------------------------------------------------------------|
--------------------------^---------------^------------------/\-------|
-----8---8---5---8---8---585---5-----8---787----7-----10---101210---8-|
-5-5---5---5---5---5---5-----8---7-7---7-----10---8-8----8--------8---|
 * *   *   *   *   *   *     *   * *   *      *   * *    *        *

--------------------------------------------------------------------|
--------------------------------------------------------------------|
--------------------------------------------------------------------|
--------------------------^-----------------------------------------|
-----8---8---5---8---8---585---5-10---10---8---8---7---7---3---3-5~-|
-5-5---5---5---5---5---5-----8------7----7---7---7---7---7---3------|
 * *   *   *   *   *   *     *      *    *   *   *   *   *   *





0:58

L
----------------------------------------------------------------------|
----------------------------------------------------------------------|
----------------------------------------------------------------------|
--------------------------^---------------^------------------/\-------|
-----8---8---5---8---8---585---5-----8---787----7-----10---101210---8-|
-5-5---5---5---5---5---5-----8---7-7---7-----10---8-8----8--------8---|
 * *   *   *   *   *   *     *   * *   *      *   * *    *        *
R
----------------------------------------------------------------------|
----------------------------------------------------------------------|
--------------------------------------------^---------------/\--------|
-----7---7-------7---7----/\-----------7---575---5-----8---8108---7---|
-------------8-----------8128----8-------------7----------------8-----|
-5-5---5---5---5---5---5------12---7-7---7---------8-8---8------------|
 * *   *   *   *   *   *       *   * *   *     *   * *   *      *


L
--------------------------------------------------------------------|
--------------------------------------------------------------------|
--------------------------------------------------------------------|
--------------------------^-----------------------------------------|
-----8---8---5---8---8---585---5-10---10---8---8---7---7---3---3----|
-5-5---5---5---5---5---5-----8------7----7---7---7---7---7---3---3--|
 * *   *   *   *   *   *     *      *    *   *   *   *   *   *   *
R
--------------------------------------------------------------------|
--------------------------------------------------------------------|
--------------------------------------------------------------------|
-----7---7-------7---7----/\-------8--8---7---7---5---5---2---2-----|
-------------8-----------8128----8----------------------------------|
-5-5---5---5---5---5---5------12----7---7---7---7---7---7---3---3---|
 * *   *   *   *   *   *       *    *   *   *   *   *   *   *   *




1:07

B
--------------------------------------------------------------------------|
--------------------------------------------------------------------------|
--_----------------_----------------_---------------------------_---------|
-/ \--------------/ \--------------/ \----7--------------------/ \----/\--|
7-8-7------------7-8-7------------7-8-7-------10---8---7---10-710710-7878-|
-----10-0--0-0-0------10-0--0-0-0------10---0----0---0---0----------------|
           * * *            * * *           *    *   *   *

---------------------------------------------------------------------|
---------------------------------------------------------------------|
--_----------------_----------------_--------------------------------|
-/ \--------------/ \--------------/ \-------------------------^-----|
7-8-7------------7-8-7------------7-8-7---8---7-------------8-787-3--|
-----10-0--0-0-0------10-0--0-0-0------10---0----0-10-0-5-0----------|
           * * *            * * *           *    *    *   *



--------------------------------------------------------------------------|
--------------------------------------------------------------------------|
--_----------------_----------------_---------------------------_---------|
-/ \--------------/ \--------------/ \----7--------------------/ \----/\--|
7-8-7------------7-8-7------------7-8-7-------10---8---7---10-710710-7878-|
-----10-0--0-0-0------10-0--0-0-0------10---0----0---0---0----------------|
           * * *            * * *           *    *   *   *

---------------------------------------------------------------------|
---------------------------------------------------------------------|
--_----------------_----------------_--------------------------------|
-/ \--------------/ \--------------/ \-------------------------^-----|
7-8-7------------7-8-7------------7-8-7---8---7-------------8-787-3--|
-----10-0--0-0-0------10-0--0-0-0------10---0----0-10-0-5-0----------|
           * * *            * * *           *    *    *   *


1:28

1                                                            H
-------------------------------------------------------------9-|
------10----10------------10----10---------------------------9-|
---------12----12------------12----12------------------------H-|
12----------------12------------------12-----------------------|
------------------------------------------------------0--------|
------------------------------------------000-000-000-0----0---|
2                                                      |   *
----------------------------------------------------------|
----------------------------------------------------------|
----------------------------------------------------------|
----------------------------------------------------------|
---------------------------------------0--------------0---|
---------------------------------------0--000-000-000-0---|
                                          *** *** ***  |


1
---------------------------------------------------------------------|
------10----10----------10----10-------------------------------------|
---------12----12----------12----12----------------------------------|
12----------------12----------------12-------------------------------|
---------------------------------------------------------------------|
-----------------------------------------000-000-000-000---000-000---|
2                                        *** *** *** ***   *** ***
---------------------------------------------------------------------|
---------------------------------------------------------------------|
---------------------------------------------------------------------|
-----7-----7-------------7-----7-------------------------------------|
-8------3-----3---5---------3-----3--0-------------------------------|
-8----------------5------------------0---000-000-000-000---000-000---|
                                         *** *** *** ***   *** ***


1
--------------------------------------------------------------------------|
------10----10------------13----13----------------------------------------|
---------12----12------------10----10-------------------------------------|
12----------------12------------------14----------------------------------|
---------------------------------------------------------0----------------|
--------------------------------------------0-0-00-00-00-0---0-0-00-00-00-|
2                                           * * ** ** **     * * ** ** **
--------------------------------------------------------------------------|
---------------------------------_----------------------------------------|
--------------------------------/ \---------------------------------------|
-----7-----7-------------7-----7-8-7--------------------------------------|
-8------3-----3---5---------3--------10-0----------------0----------------|
-8----------------5---------------------0---0-0-00-00-00-0---0-0-00-00-00-|
                                            * * ** ** **     * * ** ** **




1:46


1
-----------------------------------------|
-----------------------------------------|
---^----^----^----^----^----^----^----^--|
-12-8-12-8-12-8-12-8-12-8-12-8-12-8-12-8-|
-----------------------------------------|
-----------------------------------------|
  T    T    T    T    T    T    T    T
2
-----------------------------------------|
-----------------------------------------|
-----------------------------------------|
-----------------------------------------|
-8---------------------------------------|
-8---------------------------------------|
  |



1
-------------------------------------------------|
-------------------------------------------------|
---^-----^-----^-----^-----^-----^-----^-----^---|
-14-10-14-10-14-10-14-10-15-10-15-10-15-10-15-10-|
-------------------------------------------------|
-------------------------------------------------|
  T     T     T     T     T     T     T     T


1
-------------------------------------------------|
-------------------------------------------------|
---^-----^-----^-----^-----^-----^-----^-----^---|
-17-12-17-12-17-12-17-12-17-12-17-12-17-12-17-12-|
-------------------------------------------------|
-------------------------------------------------|
  T     T     T     T     T     T     T     T
2
-------------------------------------------------|
-------------------------------------------------|
-------------------------------------------------|
-------------------------------------------------|
-----------------0-------------------------------|
-0-0-0-0-0-0-0-0-0-------------------------------|
 * * * * * * * *

1
-------------------------------------------------|
-------------------------------------------------|
---^-----^-----^-----^-----^-----^-----^-----^---|
-19-12-19-12-19-12-19-12-14-10-14-10-14-10-14-10-|
-------------------------------------------------|
-------------------------------------------------|
  T     T     T     T     T     T     T     T
2
-------------------------------------------------|
-------------------------------------------------|
-------------------------------------------------|
-------------------------------------------------|
-----------------0-------------------------------|
-0-0-0-0-0-0-0-0-0-------------------------------|
 * * * * * * * *



1:52

1
-----------------------------------------|
-----------------------------------------|
---^----^----^----^----^----^----^----^--|
-12-8-12-8-12-8-12-8-12-8-12-8-12-8-12-8-|
-----------------------------------------|
-----------------------------------------|
  T    T    T    T    T    T    T    T
HARMONY
-------------------------------------------------|
---^-----^-----^-----^-----^-----^-----^-----^---|
-14-10-14-10-14-10-14-10-14-10-14-10-14-10-14-10-|
-------------------------------------------------|
-------------------------------------------------|
-------------------------------------------------|
  T     T     T     T     T     T     T     T
3
-----------------------------------------|
-----------------------------------------|
-----------------------------------------|
-----------------------------------------|
-8---------------------------------------|
-8---------------------------------------|
  |


1
-------------------------------------------------|
-------------------------------------------------|
---^-----^-----^-----^-----^-----^-----^-----^---|
-14-10-14-10-14-10-14-10-15-10-15-10-15-10-15-10-|
-------------------------------------------------|
-------------------------------------------------|
  T     T     T     T     T     T     T     T
HARMONY
-----------------------------------------|
---^----^----^----^----^----^----^----^--|
-12-9-12-9-12-9-12-9-14-9-14-9-14-9-14-9-|
-----------------------------------------|
-----------------------------------------|
-----------------------------------------|
  T    T    T    T    T    T    T    T



1
-------------------------------------------------|
-------------------------------------------------|
---^-----^-----^-----^-----^-----^-----^-----^---|
-17-12-17-12-17-12-17-12-17-12-17-12-17-12-17-12-|
-------------------------------------------------|
-------------------------------------------------|
  T     T     T     T     T     T     T     T
HARMONY
-------------------------------------------------|
---^-----^-----^-----^-----^-----^-----^-----^---|
-15-10-15-10-15-10-15-10-15-10-15-10-15-10-15-10-|
-------------------------------------------------|
-------------------------------------------------|
-------------------------------------------------|
  T     T     T     T     T     T     T     T
3
-------------------------------------------------|
-------------------------------------------------|
-------------------------------------------------|
-------------------------------------------------|
-----------------0-------------------------------|
-0-0-0-0-0-0-0-0-0-------------------------------|
 * * * * * * * *

1
-------------------------------------------------|
-------------------------------------------------|
---^-----^-----^-----^-----^-----^-----^-----^---|
-19-12-19-12-19-12-19-12-14-10-14-10-14-10-14-10-|
-------------------------------------------------|
-------------------------------------------------|
  T     T     T     T     T     T     T     T
HARMONY
-------------------------------------------------|
---^-----^-----^-----^-----^-----^-----^-----^---|
-14-10-14-10-14-10-14-10-14-10-14-10-14-10-14-10-|
-------------------------------------------------|
-------------------------------------------------|
-------------------------------------------------|
  T     T     T     T     T     T     T     T
3
-------------------------------------------------|
-------------------------------------------------|
-------------------------------------------------|
-------------------------------------------------|
-----------------0-------------------------------|
-0-0-0-0-0-0-0-0-0-------------------------------|
 * * * * * * * *



1:59

1
-----------------------------------------|
-----------------------------------------|
---^----^----^----^----^----^----^----^--|
-12-8-12-8-12-8-12-8-12-8-12-8-12-8-12-8-|
-----------------------------------------|
-----------------------------------------|
  T    T    T    T    T    T    T    T
HARMONY
-------------------------------------------------|
---^-----^-----^-----^-----^-----^-----^-----^---|
-14-10-14-10-14-10-14-10-14-10-14-10-14-10-14-10-|
-------------------------------------------------|
-------------------------------------------------|
-------------------------------------------------|
  T     T     T     T     T     T     T     T
3
----------------------------------------------|
----------------------------------------------|
----------------------------------------------|
----------------------------------------------|
----------------------------------------------|
-8--8--8--8--8--8--8--8--8--8--8--8--8--8--8--|
 *  *  *  *  *  *  *  *  *  *  *  *  *  *  *

1
-------------------------------------------------|
-------------------------------------------------|
---^-----^-----^-----^-----^-----^-----^-----^---|
-14-10-14-10-14-10-14-10-15-10-15-10-15-10-15-10-|
-------------------------------------------------|
-------------------------------------------------|
  T     T     T     T     T     T     T     T
HARMONY
-----------------------------------------|
---^----^----^----^----^----^----^----^--|
-12-9-12-9-12-9-12-9-14-9-14-9-14-9-14-9-|
-----------------------------------------|
-----------------------------------------|
-----------------------------------------|
  T    T    T    T    T    T    T    T
3
-------------------------------------------------|
-------------------------------------------------|
-------------------------------------------------|
-------------------------------------------------|
-------------------------------------------------|
-10-10-10-10-10-10-10-10-10-10-10-10-10-10-10-10-|
  *  *  *  *  *  *  *  *  *  *  *  *  *  *  *  *


1
-------------------------------------------------|
-------------------------------------------------|
---^-----^-----^-----^-----^-----^-----^-----^---|
-17-12-17-12-17-12-17-12-17-12-17-12-17-12-17-12-|
-------------------------------------------------|
-------------------------------------------------|
  T     T     T     T     T     T     T     T
HARMONY
-------------------------------------------------|
---^-----^-----^-----^-----^-----^-----^-----^---|
-15-10-15-10-15-10-15-10-15-10-15-10-15-10-15-10-|
-------------------------------------------------|
-------------------------------------------------|
-------------------------------------------------|
  T     T     T     T     T     T     T     T
3
--------------------------------------------------|
--------------------------------------------------|
--------------------------------------------------|
--------------------------------------------------|
--------------------------------------------------|
-0--0--0--0--0--0--0--0--0--0--0--0--0--0--0--0---|
 *  *  *  *  *  *  *  *  *  *  *  *  *  *  *  *

1
-------------------------------------------------|
-------------------------------------------------|
---^-----^-----^-----^-----^-----^-----^-----^---|
-19-12-19-12-19-12-19-12-14-10-14-10-14-10-14-10-|
-------------------------------------------------|
-------------------------------------------------|
  T     T     T     T     T     T     T     T
HARMONY
-------------------------------------------------|
---^-----^-----^-----^-----^-----^-----^-----^---|
-14-10-14-10-14-10-14-10-14-10-14-10-14-10-14-10-|
-------------------------------------------------|
-------------------------------------------------|
-------------------------------------------------|
  T     T     T     T     T     T     T     T
3
--------------------------------------------------|
--------------------------------------------------|
--------------------------------------------------|
--------------------------------------------------|
--------------------------------------------------|
-0--0--0--0--0--0--0--0--0--0--0--0--0--0--0--0---|
 *  *  *  *  *  *  *  *  *  *  *  *  *  *  *  *




1
-----------------------------------------|
-----------------------------------------|
---^----^----^----^----^----^----^----^--|
-12-8-12-8-12-8-12-8-12-8-12-8-12-8-12-8-|
-----------------------------------------|
-----------------------------------------|
  T    T    T    T    T    T    T    T
HARMONY
-------------------------------------------------|
---^-----^-----^-----^-----^-----^-----^-----^---|
-14-10-14-10-14-10-14-10-14-10-14-10-14-10-14-10-|
-------------------------------------------------|
-------------------------------------------------|
-------------------------------------------------|
  T     T     T     T     T     T     T     T
3
----------------------------------------------|
----------------------------------------------|
----------------------------------------------|
----------------------------------------------|
----------------------------------------------|
-8--8--8--8--8--8--8--8--8--8--8--8--8--8--8--|
 *  *  *  *  *  *  *  *  *  *  *  *  *  *  *

1
-------------------------------------------------|
-------------------------------------------------|
---^-----^-----^-----^-----^-----^-----^-----^---|
-14-10-14-10-14-10-14-10-15-10-15-10-15-10-15-10-|
-------------------------------------------------|
-------------------------------------------------|
  T     T     T     T     T     T     T     T
HARMONY
-----------------------------------------|
---^----^----^----^----^----^----^----^--|
-12-9-12-9-12-9-12-9-14-9-14-9-14-9-14-9-|
-----------------------------------------|
-----------------------------------------|
-----------------------------------------|
  T    T    T    T    T    T    T    T
3
-------------------------------------------------|
-------------------------------------------------|
-------------------------------------------------|
-------------------------------------------------|
-------------------------------------------------|
-10-10-10-10-10-10-10-10-10-10-10-10-10-10-10-10-|
  *  *  *  *  *  *  *  *  *  *  *  *  *  *  *  *


1
-------------------------------------------------|
-------------------------------------------------|
---^-----^-----^-----^-----^-----^-----^-----^---|
-17-12-17-12-17-12-17-12-17-12-17-12-17-12-17-12-|
-------------------------------------------------|
-------------------------------------------------|
  T     T     T     T     T     T     T     T
HARMONY
-------------------------------------------------|
---^-----^-----^-----^-----^-----^-----^-----^---|
-15-10-15-10-15-10-15-10-15-10-15-10-15-10-15-10-|
-------------------------------------------------|
-------------------------------------------------|
-------------------------------------------------|
  T     T     T     T     T     T     T     T
3
--------------------------------------------------|
--------------------------------------------------|
--------------------------------------------------|
--------------------------------------------------|
--------------------------------------------------|
-0--0--0--0--0--0--0--0--0--0--0--0--0--0--0--0---|
 *  *  *  *  *  *  *  *  *  *  *  *  *  *  *  *

1
----------------------------------|
----------------------------------|
---^-----^-----^-----^------------|
-19-12-19-12-19-12-19-12--12------|
--------------------------10\-----|
----------------------------------|
  T     T     T     T     
HARMONY
--------------------------|
---^-----^-----^-----^----|
-14-10-14-10-14-10-14-10--|
--------------------------|
--------------------------|
--------------------------|
  T     T     T     T    
3
---------------------------------|
---------------------------------|
---------------------------------|
---------------------------12----|
---------------------------10\---|
-0--0--0--0--0--0--0--0----------|
 *  *  *  *  *  *  *  *  



2:11



--------------------------------------------------------------------------|
---__----------------------------------__---------------------------------|
--/  \--------------------------------/  \--------------------------------|
-9-10-9-5-7--------------------------9-10-9-5-7--------------------_---5--|
-7--8-7-3/5--------------------------7--8-7-3/5-------------------/ \--3--|
-------------0-0-0-0-0-0-0-0-0-0-0-0-------------0-0-0-5-0-3-0-2-2-3-2----|
             * * *   * * *   * * *               * * *   *   * 

--------------------------------------------------------------------------|
---__----------------------------------__---------------------------------|
--/  \--------------------------------/  \--------------------------------|
-9-10-9-5-7--------------------------9-10-9-5-7--------------------_---5--|
-7--8-7-3/5--------------------------7--8-7-3/5-------------------/ \--3--|
-------------0-0-0-0-0-0-0-0-0-0-0-0-------------0-0-0-5-0-3-0-2-2-3-2----|
             * * *   * * *   * * *               * * *   *   * 

--------------------------------------------------------------------------|
---__----------------------------------__---------------------------------|
--/  \--------------------------------/  \--------------------------------|
-9-10-9-5-7--------------------------9-10-9-5-7--------------------_---5--|
-7--8-7-3/5--------------------------7--8-7-3/5-------------------/ \--3--|
-------------0-0-0-0-0-0-0-0-0-0-0-0-------------0-0-0-5-0-3-0-2-2-3-2----|
             * * *   * * *   * * *               * * *   *   * 

---------------------------------------------------------------------------|
---__----------------------------------__----------------------------------|
--/  \--------------------------------/  \---------------------------------|
-9-10-9-5-7--------------------------9-10-9-5-7--------------------_-------|
-7--8-7-3/5--------------------------7--8-7-3/5-------------------/ \------|
-------------0-0-0-0-0-0-0-0-0-0-0-0-------------0-0-0-5-0-3-0-2-2-3-2-12\-|
             * * *   * * *   * * *               * * *   *   * 



2:35


1
---------------------------------------------------------------------|
------10----10----------10----10-------------------------------------|
---------12----12----------12----12----------------------------------|
12----------------12----------------12-------------------------------|
---------------------------------------------------------------------|
-----------------------------------------000-000-000-000---000-000---|
2                                        *** *** *** ***   *** ***
---------------------------------------------------------------------|
---------------------------------------------------------------------|
---------------------------------------------------------------------|
-----7-----7-------------7-----7-------------------------------------|
-8------3-----3---5---------3-----3--0-------------------------------|
-8----------------5------------------0---000-000-000-000---000-000---|
                                         *** *** *** ***   *** ***


1                                         R
---------------------------------------------------------------------------|
------10----10------------13----13-----------__----------------__----------|
---------12----12------------10----10-------/  \---14-12~-----/  \---12-10~|
12----------------12-----------------------0-12-14-----------0-12-14-------|
---------------------------------------0------------------0----------------|
---------------------------------------0------------------0----------------|
2                                       | L                |
---------------------------------------------------------------------------|
---------------------------------_------------_------------------_---------|
--------------------------------/ \----------/ \---10-9~--------/ \---9-7~-|
-----7-----7-------------7-----7-8-7--------0-8-10-------------0-8-10------|
-8------3-----3---5---------3--------10-0-----------------0----------------|
-8----------------5---------------------0-----------------0----------------|
                                         |                 |



2:47

1
------------------------------------------------------------------|
----------------------------------__----------------__------------|
---------------------------------/  \---14-12~-----/  \---12-10~--|
-----7-------------7------------0-12-14-----------0-12-14---------|
-8------10--8--5------8--5--0------------------0------------------|
-8-------------5------------0------------------0------------------|
2                            |                  |
-----------------------------------------------------------------|
----------------------------------_------------------_-----------|
---------------------------------/ \---10-9~--------/ \---9-7~---|
--------------------------------0-8-10-------------0-8-10--------|
-8-------------5------------0------------------0-----------------|
-8-------------5------------0------------------0-----------------|
3                             |                  |
----------------------------------------------------------------|
----------------------------------------------------------------|
----------------------------------------------------------------|
----------------------------------------------------------------|
----------------------------------------------------------------|
--------------------------------000-000-000-000-000-000-000-----|
                                *** *** *** *** *** *** ***


1
-----------------------------------------------------------------|
----------------------------------__----------------__-----------|
-------------------------7-------/  \---14-12~-----/  \---12-10~-|
-----7-----10------7------------0-12-14-----------0-12-14--------|
-8------8------5------8-----0------------------0-----------------|
-8-------------5------------0------------------0-----------------|
2                            |                  |
-----------------------------------------------------------------|
----------------------------------_------------------_-----------|
---------------------------------/ \---10-9~--------/ \---9-7~---|
--------------------------------0-8-10-------------0-8-10--------|
-8-------------5------------0------------------0-----------------|
-8-------------5------------0------------------0-----------------|
3                             |                  |
----------------------------------------------------------------|
----------------------------------------------------------------|
----------------------------------------------------------------|
----------------------------------------------------------------|
----------------------------------------------------------------|
--------------------------------000-000-000-000-000-000-000-----|
                                *** *** *** *** *** *** *** 



2:59

SOLO
--------------------------------------------------__----------------|
-------------------------------------------------/  \-----^---------|
-14------12--------17-----15-----14-----12-----12-14-12-10-12-12/14~|
-15------14------14--14-14--14-14--14-14--14-14---------------------|
--------------------------------------------------------------------|
--------------------------------------------------------------------|
                      *  *   *  *   *  *   *  *

-------------------------------------------------------------------|
-------------------------------------------------------------------|
-------------------------------------------------------------------|
-10-------7-------14----------12-----------------------------------|
--8-------5-------12----------10-----------------------------------|
--8-------5-------12----------10-----------------------------------|

1
         ____
---------)---(-------17131317131317131713131713131713--|
-15/17-17------17~~~-----------------------------------|
-------------------------------------------------------|
-------------------------------------------------------|
-------------------------------------------------------|
-------------------------------------------------------|
2
-------------------------------------------------------|
-------------------------------------------------------|
-------------------------------------------------------|
-10-----------12-----------------------------14--14----|
--8-----------10-----12-12-12-12-12-12-12-12-12--12----|
--8-----------10-----12-12-12-12-12-12-12-12-12--12----|
                      *  *  *  *  *  *  *  * 

1
-15121215121215121310101310101310-------13\12------------------|
----------------------------------13/15-------13/15------------|
----------------------------------------------------12~~~~-----|
---------------------------------------------------------------|
---------------------------------------------------------------|
---------------------------------------------------------------|
2
---------------------------------------------------------------|
---------------------------------------------------------------|
---------------------------------------------------------------|
-------------------------12--12--10-------------------7--------|
-10-10-10-10-10-10-10-10-10--10---8-------------------5--------|
-10-10-10-10-10-10-10-10-10--10---8-------------------5--------|
  *  *  *  *  *  *  *  * 



3:14

1
-------------------------------------------------|
---^-----^-----^-----^-----^-----^-----^-----^---|
-14-10-14-10-14-10-14-10-14-10-14-10-14-10-14-10-|
-------------------------------------------------|
-------------------------------------------------|
-------------------------------------------------|
  T     T     T     T     T     T     T     T

-------------------------------------------------|
-------------------------------------------------|
-------------------------------------------------|
-14----------------------------------------------|
-12----------------------------------------------|
-12----------------------------------------------|


1
------------------------------------------|
---^----^----^----^----^----^----^----^---|
-14-9-14-9-14-9-14-9-12-7-12-7-12-7-12-7--|
------------------------------------------|
------------------------------------------|
------------------------------------------|
 T     T    T    T    T    T    T    T
2
------------------------------------------|
------------------------------------------|
------------------------------------------|
-12---------------------------------------|
-10---------------------------------------|
-10---------------------------------------|


          __                __
1        /  \              /  \
-------10-12-10----------12-13-12-------|
-----10--------10------13--------13-----|
---10------------10--14------------14---|
-12----------------15-------------------|
----------------------------------------|
----------------------------------------|
  * * *             * * *
HARMONY  _                __
        / \              /  \
-------5-7-5------------8-10-8----------|
-----6-------6--------8--------8--------|
---7-----------7----9------------9------|
-8---------------10---------------------|
----------------------------------------|
----------------------------------------|
 * * *            * * *
3
----------------------------------------|
----------------------------------------|
----------------------------------------|
10----------------12--------------------|
-8----------------10--------------------|
-8----------------10--------------------|



                                        __
1                                       ) (^
-17-13-------17-13-------15-13--------15----13-15----------|
-------17-13-------17-13-------17-13-----------------------|
-----------------------------------------------------------|
-----------------------------------------------------------|
-----------------------------------------------------------|
-----------------------------------------------------------|

2
-----------------------------------------------------------|
-----------------------------------------------------------|
-----------------------------------------------------------|
-------14----------14----------12----------12--10----------|
-12----12----12----12----10----10----10----10---8----------|
-12----------12----------10----------10---------8----------|




1         ____                                                   __
-13-15----)---(-----------20----------20----------17------------/  \------|
--------17------17~----------18-17-------18-17-------20-18-17-17-18-17-13-|
-----------------------------------19----------19-------------------------|
--------------------------------------------------------------------------|
--------------------------------------------------------------------------|
--------------------------------------------------------------------------|
2
-------------------------------------------------------------------------|
-------------------------------------------------------------------------|
-------------------------------------------------------------------------|
--------7------------------14-----------------------12-------------------|
--------5------------------12-----------------------10-------------------|
--------5------------------12-----------------------10-------------------|



1
---------------------------------------------------------------|
-10-------------------8-------------\-------5------------------|
---------------------------------------------------------------|
---------------------------------------------------------------|
---------------------------------------------------------------|
---------------------------------------------------------------|
2
---------------------------------------------------------------|
---------------------------------------------------------------|
---------------------------------------------------------------|
-10------------------12----------------------14----------------|
--8------------------10----------------------12----------------|
--8------------------10----------------------12----------------|





||||||||||||||||||||||||||||||||||||||||||||||||||||
||||||||||||||||||||||||||||||||||||||||||||||||||||
||||||||||||||||||||||||||||||||||||||||||||||||||||
||||||||||||||||||||||||||||||||||||||||||||||||||||











MOMENTS IN OBLIVION

B-F#-B-E-G#-C#




1
--------------------------------------------------|
--------------------------------------------------|
-7-----7-----7-----7-----3-----3-----5-----5------|
----7-----7-----7-----7-----3-----3-----5-----5---|
--------------------------------------------------|
--------------------------------------------------|
2
--------------------------------------------------|
--------------------------------------------------|
---------------------------------------5-7-5------|
---------------------------------------x-x-x------|
-0-----------------7-5-3-0---3-5-3-0---3/5-3------|
-0-----------------7-5-3-0---3-5-3-0--------------|
                   * * *     * * *  

1
--------------------------------------------------|
--------------------------------------------------|
-7-----7-----7-----7-----3-----3-----5-----5------|
----7-----7-----7-----7-----3-----3-----5-----5---|
--------------------------------------------------|
--------------------------------------------------|
2
--------------------------------------------------|
--------------------------------------------------|
---------------------------------------5-7-5------|
---------------------------------------x-x-x------|
-0-----------------7-5-3-0---3-5-3-0---3/5-3------|
-0-----------------7-5-3-0---3-5-3-0--------------|
                   * * *     * * *  

1
--------------------------------------------------|
--------------------------------------------------|
-7-----7-----7-----7-----3-----3-----5-----5------|
----7-----7-----7-----7-----3-----3-----5-----5---|
--------------------------------------------------|
--------------------------------------------------|
2
--------------------------------------------------|
--------------------------------------------------|
---------------------------------------5-7-5------|
---------------------------------------x-x-x------|
-0-----------------7-5-3-0---3-5-3-0---3/5-3------|
-0-----------------7-5-3-0---3-5-3-0--------------|
                   * * *     * * *  

1
--------------------------------------------------|
--------------------------------------------------|
-7-----7-----7-----7-----3-----3-----5-----5------|
----7-----7-----7-----7-----3-----3-----5-----5---|
--------------------------------------------------|
--------------------------------------------------|
2
--------------------------------------------------|
--------------------------------------------------|
---------------------------------------5-7-5------|
---------------------------------------x-x-x------|
-0-----------------7-5-3-0---3-5-3-0---3/5-3------|
-0-----------------7-5-3-0---3-5-3-0--------------|
                   * * *     * * *  
1
--------------------------------------------------|
--------------------------------------------------|
-7-----7-----7-----7-----3-----3-----5-----5------|
----7-----7-----7-----7-----3-----3-----5-----5---|
--------------------------------------------------|
--------------------------------------------------|
2
--------------------------------------------------|
--------------------------------------------------|
---------------------------------------5-7-5------|
---------------------------------------x-x-x------|
-0-----------------7-5-3-0---3-5-3-0---3/5-3------|
-0-----------------7-5-3-0---3-5-3-0--------------|
                   * * *     * * *  

1
--------------------------------------------------|
--------------------------------------------------|
-7-----7-----7-----7-----3-----3-----5-----5------|
----7-----7-----7-----7-----3-----3-----5-----5---|
--------------------------------------------------|
--------------------------------------------------|
2
--------------------------------------------------|
--------------------------------------------------|
---------------------------------------5-7-5------|
---------------------------------------x-x-x------|
-0-----------------7-5-3-0---3-5-3-0---3/5-3------|
-0-----------------7-5-3-0---3-5-3-0--------------|
                   * * *     * * *  
1
--------------------------------------------------|
--------------------------------------------------|
-7-----7-----7-----7-----3-----3-----5-----5------|
----7-----7-----7-----7-----3-----3-----5-----5---|
--------------------------------------------------|
--------------------------------------------------|
2
--------------------------------------------------|
--------------------------------------------------|
---------------------------------------5-7-5------|
---------------------------------------x-x-x------|
-0-----------------7-5-3-0---3-5-3-0---3/5-3------|
-0-----------------7-5-3-0---3-5-3-0--------------|
                   * * *     * * *  

1
--------------------------------------|
--------------------------------------|
-7-----7-----7-----7-----3-----3------|
----7-----7-----7-----7-----3-----3---|
--------------------------------------|
--------------------------------------|
2
-----------------------------------------|
-----------------------------------------|
-----------------------------------------|
-----------------------------------------|
-0-----------------7-5-3-0---3-5-3-0-----|
-0-----------------7-5-3-0---3-5-3-0-----|
                   * * *     * * *  


0:44

1
--------------------------------------------------------------|
--------------------------------------------------------------|
--------------------------------------------------------------|
---___--------------------------___-----------------^---------|
--/   \--3---------------------/   \--3-----/7--7-7/8\7-5-----|
-0-3-5-7---7-5--5/7-----------0-3-5-7---7-5-------------------|

2
--------------------------------------------------------------|
--------------------------------------------------------------|
--------------------------------------------------------------|
--------------------------------------------------------------|
-----------------3---------------------------7-----------5----|
-----------------7--------------------------10-----------9----|



1
------------------------------------------------------------------|
------------------------------------------------------------------|
-------------------------------------------------------_----------|
---___----------------------)(-----___----------------/ \---------|
--/   \--3-----------5/7-7-7------/   \--3-----------5-7-5-3--2~--|
-0-3-5-7---7-5--5/7--------------0-3-5-7---7-5--5/7---------------|

2
--------------------------------------------------------------------|
---------------------------------------------------------------PH---|
----------------------------------------------------------------3~~-|
--------------------------------------------------------------------|
-----------------3---------------------------7-----------5----------|
-----------------7--------------------------10-----------9----------|


0;57

1
----------------------------------------------|
----------------------------------------------|
----------------------------------------------|
----------------___-----------------^---------|
---------------/   \--3-----/7--7-7/8\7-5-----|
-/7-----------0-3-5-7---7-5-------------------|

2
-----------------------------------------------|
-----------------------------------------------|
-----------------------------------------------|
--3---------------------------7-----------5----|
--3---------------------------7-----------5----|
--3---------------------------7-----------5----|



1
-----------------------------------------------------------------|
-----------------------------------------------------------------|
------------------------------------------------------_----------|
---___----------------------)(----___----------------/ \---------|
--/   \--3-----------5/7-7-7-----/   \--3-----------5-7-5-3--2~--|
-0-3-5-7---7-5--5/7-------------0-3-5-7---7-5--5/7---------------|

2
--------------------------------------------------------------------|
--------------------------------------------------------------------|
--------------------------------------------------------------------|
--------------------------------------------------------------------|
-----------------3-------------------------7--------------5---------|
-----------------7------------------------10--------------9---------|



1:08


CUTS IN AT END OF PREVIOUS RIFF

1 (MOST AUDILBLE HARMONY)
----------------------------------------------------------|
----------------------------------------------------------|
------9----------------------9----------------9-----------|
-9-10---10-10~~~~-------9-10---10-10~----9-10---10-7~-----|
----------------------------------------------------------|
----------------------------------------------------------|
 *  *                   *  *             *  *
2 HIGHER HARMONY
----------------------------------------------------------|
----------------------------------------------------------|
------12---------------------12----------------12---------|
12-14----14-14~~~~-----12-14----14-14~---12-14----14-10~--|
----------------------------------------------------------|
----------------------------------------------------------|
 *  *                   *  *              *  *     
3 RYTHM
----------------------------------------------------------|
----------------------------------------------------------|
----------------------------------------------------------|
----------------------------------------------------------|
-3----------------------7-----------------5---------------|
-3----------------------7-----------------5---------------|



1
---------------------------------------------------------------|
---------------------------------------------------------------|
------9------12~~~~------------------9----------------9--------|
-9-10---10-9--------------------9-10---10-10~----9-10---10-7~--|
---------------------------------------------------------------|
---------------------------------------------------------------|
 *  *    * *                    *  *             *  *

-----------------------------------------------------------------|
-----------------------------------------------------------------|
------12-------16~~~~----------------12----------------12--------|
12-14----14-12-----------------12-14----14-14~---12-14----14-10~-|
-----------------------------------------------------------------|
-----------------------------------------------------------------|
 *  *     *  *                  *  *              *  *
3
----------------------------------------------------------|
----------------------------------------------------------|
----------------------------------------------------------|
------------------------------------------P---------------|
-3----------------------7------------------S--------------|
-3----------------------7-------------------\-------------|



1
---------------------------------------------------------------|
---------------------------------------------------------------|
------9~-----10-9--------------------9----------------9--------|
-9-10-------------10~-----------9-10---10-10~----9-10---10-7~--|
---------------------------------------------------------------|
---------------------------------------------------------------|
 *  *                           *  *             *  *

-----------------------------------------------------------------|
-----------------------------------------------------------------|
------12~----14-12------------------12----------------12---------|
12-14-------------14~---------12-14----14-14~---12-14----14-10~--|
-----------------------------------------------------------------|
-----------------------------------------------------------------|
 *  *                          *  *              *  *
3
----------------------------------------------------------|
----------------------------------------------------------|
----------------------------------------------------------|
----------------------------------------------------------|
-3----------------------7-----------------5---------------|
-3----------------------7-----------------5---------------|



1
-------------------------------------------------------------------|
-------------------------------------------------------------------|
---9--9--9-7-7-7-5-5-7-7-7-5-5-5------9------12~~~9-10-7-9-5-7-4---|
7-10-10-10-9-9-9-7-7-9-9-9-7-7-7-9-10---10-9---------------------5-|
-------------------------------------------------------------------|
-------------------------------------------------------------------|
                                 *  *    * *
2
--------------------------------------------------------------------|
--------------------------------------------------------------------|
---121212101010-9-9101010-9-9-9------12-----16~~12-14-10-12-9-10-7--|
10-1414141212121010121212101010-12-14--14-12----------------------9-|
--------------------------------------------------------------------|
--------------------------------------------------------------------|
                                 *  *   *  *
3
--------------------------------------------------------------------|
--------------------------------------------------------------------|
--------------------------------------------------------------------|
--------------------------------------------------------------------|
-3------------------------------------7-----------------------------|
-3------------------------------------7-----------------------------|


1 #=VIBRATO+QUICKLY TOUCH STRING WHERE YOU PICK TO TURN INTO FEEDBACK
---------------------------------------------------------------|
---------------------------------------------------------------|
---------------------------------------------------------------|
-5/7~~----------------------------------------#----------------|
---------------------------------------------------------------|
---------------------------------------------------------------|
2 
---------------------------------------------------------------|
---------------------------------------------------------------|
---------------------------------------------------------------|
-9/10~~---------------------------------------#----------------|
---------------------------------------------------------------|
---------------------------------------------------------------|
3
---------------------------------------------------------------|
---------------------------------------------------------------|
---------------------------------------------------------------|
--3------------------------------------------------------------|
--3------------------------------------------------------------|
--3------------------------------------------------------------|





|||||||||||||||||||||||||||||||||||||||||||||||||||||
|||||||||||||||||||||||||||||||||||||||||||||||||||||
|||||||||||||||||||||||||||||||||||||||||||||||||||||
|||||||||||||||||||||||||||||||||||||||||||||||||||||








BREAKING POINT

B-F#-B-E-G#-C#




1
-----------------------------------------------------------------|
-----------------------------------------------------------------|
-----------------------------------------------------------------|
-----------------------------------------------------------------|
-2---------------------------------------------------------------|
-2---------------------------------------------------------------|

2
-5-0-0-0-7-0-0-0-8-0-0-0-7-0-0-0-5-0-0-0-7-0-0-0-8-0-0-0-7-0-0-0-|
-----------------------------------------------------------------|
-----------------------------------------------------------------|
-----------------------------------------------------------------|
-----------------------------------------------------------------|
-----------------------------------------------------------------|

1
--------------------------------------------------------------------|
--------------------------------------------------------------------|
--------------------------------------------------------------------|
-5------------------------------------------------------------------|
-3--------------------------------0---------------------------------|
----------------------------------0---------------------------------|

2
-10-0-0-0-8-0-0-0-7-0-0-0-5-0-0-0-12-0-0-0-10-0-0-0-8-0-0-0-7-0-0-0-|
--------------------------------------------------------------------|
--------------------------------------------------------------------|
--------------------------------------------------------------------|
--------------------------------------------------------------------|
--------------------------------------------------------------------|


1
-----------------------------------------------------------------|
-----------------------------------------------------------------|
-----------------------------------------------------------------|
-----------------------------------------------------------------|
-2---------------------------------------------------------------|
-2---------------------------------------------------------------|

2
-5-0-0-0-7-0-0-0-8-0-0-0-7-0-0-0-5-0-0-0-7-0-0-0-8-0-0-0-7-0-0-0-|
-----------------------------------------------------------------|
-----------------------------------------------------------------|
-----------------------------------------------------------------|
-----------------------------------------------------------------|
-----------------------------------------------------------------|


1
-----------------------------------------------------------|
-----------------------------------------------------------|
-----------------------------------------------------------|
-5---------------------------------------------------------|
-3-------------------------------0-------------------------|
---------------------------------0-------------------------|

2
--^---------------^---------------^-------^---------)(-----|
-3-5-0-0-0-0-0-0-5-7-0-0-0-0-0-0-7-8-0-0-8-10-0-0-12--~----|
-----------------------------------------------------------|
-----------------------------------------------------------|
-----------------------------------------------------------|
-----------------------------------------------------------|
     * * * * * *     * * * * * *     * *      * *


0:08


1  ___________________________________________
--/                                           \--|
128128128128128128128128128128128128128128128128-|
-------------------------------------------------|
-------------------------------------------------|
-------------------------------------------------|
-------------------------------------------------|
 T  T  T  T  T  T  T  T  T  T  T  T  T  T  T  T 
2
-------------------------------------------------|
-------------------------------------------------|
-------------------------------------------------|
-------------------------------------------------|
-2-----------------------------------------------|
-2-----------------------------------------------|


1   ___________________
---/                   \-----____________________---|
-107107107107107107107107---/                    \--|
--------------------------117117117117-117117117117-|
----------------------------------------------------|
----------------------------------------------------|
----------------------------------------------------|
  T  T  T  T  T  T  T  T   T  T  T  T  T  T  T  T 

----------------------------------------------------|
----------------------------------------------------|
----------------------------------------------------|
-5--------------------------------------------------|
-3--------------------------0-----------------------|
----------------------------0-----------------------|



1  ___________________________________________
--/                                           \--|
128128128128128128128128128128128128128128128128-|
-------------------------------------------------|
-------------------------------------------------|
-------------------------------------------------|
-------------------------------------------------|
 T  T  T  T  T  T  T  T  T  T  T  T  T  T  T  T 
2
-------------------------------------------------|
-------------------------------------------------|
-------------------------------------------------|
-------------------------------------------------|
-2-----------------------------------------------|
-2-----------------------------------------------|



1  __________________________________      )(
--/                                  \---10----|
1381381381381381381381381510151015101510-------|
-----------------------------------------------|
-----------------------------------------------|
-----------------------------------------------|
-----------------------------------------------|
 T  T  T  T  T  T  T  T  T  T  T  T  
2
-----------------------------------------------|
-----------------------------------------------|
-----------------------------------------------|
-5-------------------------P-------------------|
-3--------------------------S------------------|
-----------------------------\-----------------|



0:17


1  ____       ____       ____       ____     H
--/    \-----/    \-----/    \-----/    \----7------------|
-7--8-7-----7--8-7-----7--8-7-----7--8-7-----7-NB-V--+----|
---------------------------------------------H------------|
--------[9]--------[9]--------[9]-------[9]---------------|
----------------------------------------------------------|
----------------------------------------------------------|

2
-----------------------------------------------------------------|
-----------------------------------------------------------------|
-----------------------------------------------------------------|
-----------------------------------------------------------------|
---------------------------------3-3-333-3-3-333-----------------|
-2-2-222-2-2-222-2-2-222-2-2-222-----------------0-0-000-0-0-000-|
 * * *** * * *** * * *** * * *** * * *** * * *** * * *** * * ***



1
1915000000191500000019150000001915000000-|
-----------------------------------------|
-----------------------------------------|
-----------------------------------------|
-----------------------------------------|
-----------------------------------------|

2
-----------------------------------------|
-----------------------------------------|
-----------------------------------------|
-----------------------------------------|
-----------------------------------------|
-2-2-222-2-2-222-2-2-222-2-2-222---------|
 * * *** * * *** * * *** * * ***

1
1915-001713-00-1512-00-1713-00-1512-001410-00-1512-00-1410-00-|
--------------------------------------------------------------|
--------------------------------------------------------------|
--------------------------------------------------------------|
--------------------------------------------------------------|
--------------------------------------------------------------|

2
-----------------------------------|
-----------------------------------|
-----------------------------------|
-----------------------------------|
-3-3-333-3-3-333-------------------|
-----------------0-0-000-0-0-000---|
 * * *** * * *** * * *** * * ***


0:26

   ______________________________________________________________
1 /                                                              \
10-12-14-15-14-12-10-12-14-17-14-12-10-12-19-14-12-10-12-14-17-14-12|
--------------------------------------------------------------------|
--------------------------------------------------------------------|
--------------------------------------------------------------------|
--------------------------------------------------------------------|
--------------------------------------------------------------------|
          T                 T              T                 T
2
-----------------------------------------|
-----------------------------------------|
-----------------------------------------|
-----------------------------------------|
-----------------------------------------|
-2-2-222-2-2-222-2-2-222-2-2-222---------|
 * * *** * * *** * * *** * * ***


0:28

1
----------15-15-17-19-19-19-17-15-------------|
-15-17-19-------------------------19-19-17-15-|
----------------------------------------------|
----------------------------------------------|
----------------------------------------------|
----------------------------------------------|

2
-----------------------------------|
-----------------------------------|
-----------------------------------|
-----------------------------------|
-3-3-333-3-3-333-------------------|
-----------------------------------|
 * * *** * * *** 

1
----------15-15-17-19-19-19-17-15-------------|
-15-17-19-------------------------19-19-17-15-|
----------------------------------------------|
----------------------------------------------|
----------------------------------------------|
----------------------------------------------|

2
--------------------|
--------------------|
--------------------|
--------------------|
--------------------|
--0-0-000-0-0-000---|
  * * *** * * ***

0:30

1
19171515--------19171515--------19171515--------19171515--------|
--------19-17-15--------19-17-15--------19-17-15--------19-17-15|
----------------------------------------------------------------|
----------------------------------------------------------------|
----------------------------------------------------------------|
----------------------------------------------------------------|

2
-----------------------------------------|
-----------------------------------------|
-----------------------------------------|
-----------------------------------------|
-----------------------------------------|
-2-2-222-2-2-222-2-2-222-2-2-222---------|
 * * *** * * *** * * *** * * ***
              ________
1      )()()( )       (
-----17------------------------|
-------------------------------|
-------------------------------|
-------------------------------|
-------------------------------|
-------------------------------|

2
-----------------------------------|
-----------------------------------|
-----------------------------------|
-----------------------------------|
-3-3-333-3-3-333-------------------|
-----------------0-0-000-0-0-000---|
 * * *** * * *** * * *** * * ***




0:35


L
-------------------------------------------|
-------------------------------------------|
-------------------------------------------|
-------------------------------------------|
-8------------------7----------------------|
-8------------------7----------------------|
   |                  |
R
-------------------------------------------|
-------------------------------------------|
-------------____----------------____------|
---____-----/    \-----____-----/    \-----|
--/    \---8-12-8-12--/    \---7-10-7-10---|
-8-12-8-12-----------7-10-7-10-------------|


B
----------------------------------------------------------------------|
-----------------------_----------------------------------------------|
----------------------/ \----_-----_----------------------------------|
---------------------7-5-0--/ \---/ \---------------------------------|
---------------------------8-7-0-5-3-0-------------------8-7---7-5----|
-000-0-000-0-000-000-------------------000-0-000-0-000-5-----3-----2-3|
 *** * *** * *** ***                   *** * *** * ***

L
-------------------------------------------------------|
-------------------------------------------------------|
-------------------------------------------------------|
-----------------7-5-0------------7777----8888---------|
-----------------------8-7-0-5-3------8888----10101010-|
-000-0-000-0-000---------------------------------------|
 *** * *** * *** * * * * * * * *
R
-------------------------------------------------------|
-------------------------------------------------------|
-------------------------------------------------------|
-----------------7-5-0---------------------------------|
-----------------------8-7-0-5-3--88885555101010107777-|
-000-0-000-0-000---------------------------------------|
 *** * *** * *** * * * * * * * *             

B
-------------------------------------------|
-------------------------------------------|
-------------____----------------____------|
---____-----/    \-----____-----/    \-----|
--/    \---8-12-8-12--/    \---7-10-7-10---|
-8-12-8-12-----------7-10-7-10-------------|



0:45

B
----------------------------------------------------------------------|
-----------------------_----------------------------------------------|
----------------------/ \----_-----_----------------------------------|
---------------------7-5-0--/ \---/ \---------------------------------|
---------------------------8-7-0-5-3-0-------------------8-7---7-5----|
-000-0-000-0-000-000-------------------000-0-000-0-000-5-----3-----2-3|
 *** * *** * *** ***                   *** * *** * ***
L
-------------------------------------------------------|
-------------------------------------------------------|
-------------------------------------------------------|
-----------------7-5-0------------7777----8888---------|
-----------------------8-7-0-5-3------8888----10101010-|
-000-0-000-0-000---------------------------------------|
 *** * *** * *** * * * * * * * *
R
-------------------------------------------------------|
-------------------------------------------------------|
-------------------------------------------------------|
-----------------7-5-0---------------------------------|
-----------------------8-7-0-5-3--88885555101010107777-|
-000-0-000-0-000---------------------------------------|
 *** * *** * *** * * * * * * * *             

B
-----------------------------------------------------------------|
-----------------------------------------------------------------|
-------------____----------------____----------------____--------|
---____-----/    \-----____-----/    \-----____-----/    \-------|
--/    \---8-12-8-12--/    \---7-10-7-10--/    \---8-12-8-12-7---|
-8-12-8-12-----------7-10-7-10-----------8-12-8-12-----------7---|
                                                               |


0:57

L
---------------------------------------------------------------|
---------------------------------------------------------------|
---------------------------------------------------------------|
-0-------------------------------------------------------------|
-0-------------------------------------------------------------|
-0-------------------------------------------------------------|

R
---------------------------------------------------------------|
---------------------------------------------------------------|
---------------------------------------------------------------|
---------------------------------------------------------------|
-0000---0000---00------------0000---0000---00------------------|
-0000---0000---00------------0000---0000---00------------------|
 ****   ****   **            ****   ****   **

B
----------------------------------------------------------|
----------------------------------------------------------|
----------------------------------------------------------|
----------------------------------------------------------|
-0000---0000---00---0000---0000---00---0000---0000---00---|
-0000---0000---00---0000---0000---00---0000---0000---00---|
 ****   ****   **   ****   ****   **   ****   ****   **

-------------------------------------------|
-------------------------------------------|
-------------____----------------____------|
---____-----/    \-----____-----/    \-----|
--/    \---8-12-8-12--/    \---7-10-7-10---|
-8-12-8-12-----------7-10-7-10-------------|


------------------------------------------------------------------------|
------------------------------------------------------------------------|
------------------------------------------------------------------------|
------------------------------------------------------------------------|
-0000---0000---00---0-00---0-00-00---0000---0000---00---0-00---0-00-00--|
-0000---0000---00---0-00---0-00-00---0000---0000---00---0-00---0-00-00--|
 ****   ****   **   * **   * ** **   ****   ****   **   * **   * ** **
                                                      /\          /\
----------------------------------------------------121512------121512---|
---------------------------------------------------13----13----13-----13-|
--------------------------------------------------12------12--12-------12|
-------------------------------------------------14----------14----------|
0000---0000---00---0-00---0-00-00---0000---0000-15----------15-----------|
0000---0000---00---0-00---0-00-00---0000---0000--------------------------|
****   ****   **   * **   * ** **   ****   ****   




1:24

---------------------------------------------------|
---------------------------------------------------|
---------------------------------------------------|
---------------------------------------------------|
-00000000-0-0-0---0-00---0-00-00---00000000-0-0-0--|
-00000000-0-0-0---0-00---0-00-00---00000000-0-0-0--|
 ******** * * *   * **   * ** **   ******** * * * 

-------------------------------------------|
-------------------------------------------|
-------------____----------------____------|
---____-----/    \-----____-----/    \-----|
--/    \---8-12-8-12--/    \---7-10-7-10---|
-8-12-8-12-----------7-10-7-10-------------|

                                                         /\          /\
-------------------------------------------------------121512------121512--|
------------------------------------------------------13----13----13----13-|
-----------------------------------------------------12------12--12------12|
----------------------------------------------------14----------14---------|
-00000000-0-0-0---0-00---0-00-00---00000000-0-0-0--15----------15----------|
-00000000-0-0-0---0-00---0-00-00---00000000-0-0-0--------------------------|
 ******** * * *   * **   * ** **   ******** * * *



1:38


L
-----------------------------------------------------------------|
-----------------------------------------------------------------|
-----------------------------------------------------------------|
---------3-7---5-----------7---3---------------------------------|
-0-------5-8---7-----------8---5-------------------8-7---7-5-----|
-0-0-0-0-----0---0-0-0-0-0---0---0-0-0-0-000-0-0-5-----3-----2-3-|
   * * *     *   * * * * *   *   * * * * *** * * 
R
------------------------------------------------------------------|
------------------------------------------------------------------|
------------------------------------------------------------------|
-0----------------------------------------------------------------|
-0--------------------------------------------------8-7---7-5-----|
-0------------------------------------------------5-----3-----2-3-|


-----------------------------------------------------------------|
-----------------------------------------------------------------|
-----------------------------------------------------------------|
---------3-7---5-----------7---3---------------------------------|
-0-------5-8---7-----------8---5-------------------8-7---7-5-----|
-0-0-0-0-----0---0-0-0-0-0---0---0-0-0-0-000-0-0-5-----3-----2-3-|
   * * *     *   * * * * *   *   * * * * *** * * 



-----------------------------------------------------------------|
-----------------------------------------------------------------|
-----------------------------------------------------------------|
---------3-7---5-----------7---3---------------------------------|
-0-------5-8---7-----------8---5-------------------8-7---7-5-----|
-0-0-0-0-----0---0-0-0-0-0---0---0-0-0-0-000-0-0-5-----3-----2-3-|
   * * *     *   * * * * *   *   * * * * *** * * 

-----------------------------------------------------------------|
-----------------------------------------------------------------|
-----------------------------------------------------------------|
---------3-7---5-----------7---3---------------------------------|
-0-------5-8---7-----------8---5-------------------8-7---7-5-----|
-0-0-0-0-----0---0-0-0-0-0---0---0-0-0-0-000-0-0-5-----3-----2-3-|
   * * *     *   * * * * *   *   * * * * *** * * 



2:01


B
--------------------------------------------------------------------|
--------------------------------------------------------------------|
-9-9-9-7-7-7-7-7-101010-9-9-9-9-9------------------1212121414141414-|
-7-7-7-7-7-7-7-7--9-9-9-9-9-9-9-9-1010101212121212-1212121212121212-|
-5-5-5-5-5-5-5-5--7-7-7-7-7-7-7-7--8-8-8-8-8-8-8-8-1010101010101010-|
--------------------------------------------------------------------|

--------------------------------------------------------------------|
--------------------------------------------------------------------|
-9-9-9-7-7-7-7-7-101010-9-9-9-9-9------------------1212121414141414-|
-7-7-7-7-7-7-7-7--9-9-9-9-9-9-9-9-1010101212121212-1212121212121212-|
-5-5-5-5-5-5-5-5--7-7-7-7-7-7-7-7--8-8-8-8-8-8-8-8-1010101010101010-|
--------------------------------------------------------------------|


----------------------|
----------------------|
----------------------|
----------------------|
-0000000---0000000----|
-0000000---0000000----|
 *******   *******


--------------------------------------------------------------------|
--------------------------------------------------------------------|
-9-9-9-7-7-7-7-7-101010-9-9-9-9-9------------------1212121414141414-|
-7-7-7-7-7-7-7-7--9-9-9-9-9-9-9-9-1010101212121212-1212121212121212-|
-5-5-5-5-5-5-5-5--7-7-7-7-7-7-7-7--8-8-8-8-8-8-8-8-1010101010101010-|
--------------------------------------------------------------------|
   * *   * *   *    * *   * *   *    * *   * *   *    * *   * *   *

--------------------------------------------------------------------|
--------------------------------------------------------------------|
-9-9-9-7-7-7-7-7-101010-9-9-9-9-9------------------1212121414141414-|
-7-7-7-7-7-7-7-7--9-9-9-9-9-9-9-9-1010101212121212-1212121212121212-|
-5-5-5-5-5-5-5-5--7-7-7-7-7-7-7-7--8-8-8-8-8-8-8-8-1010101010101010-|
--------------------------------------------------------------------|
   * *   * *   *    * *   * *   *    * *   * *   *    * *   

 

2:29


SOLO                                 
---------------------------)~~---/\---------------)---------10-12-13-15~|
-------------------------13----101110--10-------10---------11-----------|
--9-10-10/14-\/12-10--10-------------12--12-10--10--------12------------|
12------------------14-------------------------12---12-12~--------------|
------------------------------------------------------------------------|
------------------------------------------------------------------------|
                                                              |  |  |
RYTHM
--------------------------------------------------------------------|
--------------------------------------------------------------------|
-9-9-9-7-7-7-7-7-101010-9-9-9-9-9------------------1212121414141414-|
-7-7-7-7-7-7-7-7--9-9-9-9-9-9-9-9-1010101212121212-1212121212121212-|
-5-5-5-5-5-5-5-5--7-7-7-7-7-7-7-7--8-8-8-8-8-8-8-8-1010101010101010-|
--------------------------------------------------------------------|


2:36

SOLO 
------------------------------------------------------------------|
15101310--1015101310--1015101310-17131513--1317131513--1317131513-|
--------13----------13-------------------14----------14-----------|
------------------------------------------------------------------|
------------------------------------------------------------------|
------------------------------------------------------------------|


2:39

SOLO CONT.

13-12-10-10-12-10-13-12-10-10-12-10-13-15-13-12-13-12-13-15-13-12-13-12-|
------------------------------------------------------------------------|
------------------------------------------------------------------------|
------------------------------------------------------------------------|
------------------------------------------------------------------------|
------------------------------------------------------------------------|

2:40

SOLO CONT.

15-17-15-13-15-13-15-17-15-13-15-13-17-20-17-15-17-15-17-20-17-15-17-15-|
------------------------------------------------------------------------|
------------------------------------------------------------------------|
------------------------------------------------------------------------|
------------------------------------------------------------------------|
------------------------------------------------------------------------|

RYTHM
--------------------------------------------------------------------|
--------------------------------------------------------------------|
-9-9-9-7-7-7-7-7-101010-9-9-9-9-9------------------1212121414141414-|
-7-7-7-7-7-7-7-7--9-9-9-9-9-9-9-9-1010101212121212-1212121212121212-|
-5-5-5-5-5-5-5-5--7-7-7-7-7-7-7-7--8-8-8-8-8-8-8-8-1010101010101010-|
--------------------------------------------------------------------|

SOLO
   )~~    ~~~~
-20---(20)--|
------------|
------------|
------------|
------------|
------------|


2:42

CUT INTO PREVIOUS RIFF
1
---------------------------------------------------------------------|
---------------------------------------------------------------------|
14----14-10----10-12----12-10----10-10----9----14----14-10----10-12~-|
---12-------12-------12-------12-------10---10----12-------12--------|
---------------------------------------------------------------------|
---------------------------------------------------------------------|

2
------------------------------------------------------------------|
------------------------------------------------------------------|
------------------------------------------------------------------|
------------------------------------------------------------------|
-000000---000000--------------------------------000000---000000---|
-000000---000000--------------------------------000000---000000---|
 ******   ******                                ******   ******

B
--------------------|
--------------------|
--------------------|
--------------------|
----8~---7~---------|
-5-----3-----2-3----|




1
---------------------------------------------------------------------|
---------------------------------------------------------------------|
14----14-10----10-12----12-10----10-10----9----14----14-10----10-12\-|
---12-------12-------12-------12-------10---10----12-------12--------|
---------------------------------------------------------------------|
---------------------------------------------------------------------|

2
------------------------------------------------------------------|
------------------------------------------------------------------|
------------------------------------------------------------------|
------------------------------------------------------------------|
-000000---000000--------------------------------000000---000000---|
-000000---000000--------------------------------000000---000000---|
 ******   ******                                ******   ******

B
--------------------|
--------------------|
--------------------|
--------------------|
----8~---7~---------|
-5-----3-----2-3----|




------------------------------------------------------------------|
------------------------------------------------------------------|
------------------------------------------------------------------|
--------------------------------------------------00--00--00--00--|
-000000---000000----------------000000---000000---00--00--00--00--|
-000000---000000----------------000000---000000---00--00--00--00--|
 ******   ******                ******   ******   **  **  **  **
                                                  
----------------------------------------------------------------------|
----------------------------------------------------------------------|
----------------------------------------------------------------------|
--------------------------------------------------1-1--1-1--1-1--1-1--|
-000000---000000----------------000000---000000---0-0--0-0--0-0--0-0--|
-000000---000000----------------000000---000000---1-1--1-1--1-1--1-1--|
 ******   ******                ******   ******   * *  * *  * *  * *




----------------------------------------------------------------------|
-----------------------_----------------------------------------------|
----------------------/ \----_-----_----------------------------------|
---------------------7-5-0--/ \---/ \---------------------------------|
---------------------------8-7-0-5-3-0-------------------8-7---7-5----|
-000-0-000-0-000-000-------------------000-0-000-0-000-5-----3-----2-3|
 *** * *** * *** ***                   *** * *** * ***

L
-------------------------------------------------------|
-------------------------------------------------------|
-------------------------------------------------------|
-----------------7-5-0------------7777----8888---------|
-----------------------8-7-0-5-3------8888----10101010-|
-000-0-000-0-000---------------------------------------|
 *** * *** * *** * * * * * * * *
R
-------------------------------------------------------|
-------------------------------------------------------|
-------------------------------------------------------|
-----------------7-5-0---------------------------------|
-----------------------8-7-0-5-3--88885555101010107777-|
-000-0-000-0-000---------------------------------------|
 *** * *** * *** * * * * * * * *             

B
-------------------------------------------|
-------------------------------------------|
-------------____----------------____------|
---____-----/    \-----____-----/    \-----|
--/    \---8-12-8-12--/    \---7-10-7-10---|
-8-12-8-12-----------7-10-7-10-------------|


B
----------------------------------------------------------------------|
-----------------------_----------------------------------------------|
----------------------/ \----_-----_----------------------------------|
---------------------7-5-0--/ \---/ \---------------------------------|
---------------------------8-7-0-5-3-0-------------------8-7---7-5----|
-000-0-000-0-000-000-------------------000-0-000-0-000-5-----3-----2-3|
 *** * *** * *** ***                   *** * *** * ***
L
-------------------------------------------------------|
-------------------------------------------------------|
-------------------------------------------------------|
-----------------7-5-0------------7777----8888---------|
-----------------------8-7-0-5-3------8888----10101010-|
-000-0-000-0-000---------------------------------------|
 *** * *** * *** * * * * * * * *
R
-------------------------------------------------------|
-------------------------------------------------------|
-------------------------------------------------------|
-----------------7-5-0---------------------------------|
-----------------------8-7-0-5-3--88885555101010107777-|
-000-0-000-0-000---------------------------------------|
 *** * *** * *** * * * * * * * *             

B
-------------------------------------------|
-------------------------------------------|
-------------____----------------____------|
---____-----/    \-----____-----/    \-----|
--/    \---8-12-8-12--/    \---7-10-7-10---|
-8-12-8-12-----------7-10-7-10-------------|
                                        



-----121512-------121512--------------------|
----13----13-----13----13-------------------|
---12------12---12------12------------------|
--14-----------14------------12-------------|
-15-----------15-------------12-------------|
-----------------------------12--\----------|




||||||||||||||||||||||||||||||||||||||||||||||||||
||||||||||||||||||||||||||||||||||||||||||||||||||
||||||||||||||||||||||||||||||||||||||||||||||||||
||||||||||||||||||||||||||||||||||||||||||||||||||








DEAD MAN'S CHEST

A#-F-A#-D#-G-C




0:05
                  
------------------------|
------------------------|
------------------------|
------------------------|
-0-1---4---3-1-3--------|
-0-1-0-4-0-3-1-3--------|
     *   *       


0:09   

-------------------------------------------|
-------------------------------------------|
-------------------------------------------|
-------------------------------------------|
-0-0-0-0--------------0-0-0-0--------------|
-0-0-0-0--00--00--00--0-0-0-0--00--00--00--|
 * * * *              * * * *

---------------------------------------|
---------------------------------------|
---------------------------------------|
---------------------------------------|
-0-0-0-0--------------0-1---4---3-1-3--|
-0-0-0-0--00--00--00--0-1-0-4-0-3-1-3--|
 * * * *                  *   *

-------------------------------------------|
-------------------------------------------|
-------------------------------------------|
-------------------------------------------|
-0-0-0-0--------------0-0-0-0--------------|
-0-0-0-0--00--00--00--0-0-0-0--00--00--00--|
 * * * *              * * * *

---------------------------------------|
---------------------------------------|
---------------------------------------|
---------------------------------------|
-0-0-0-0--------------0-1---4---3-1-3--|
-0-0-0-0--00--00--00--0-1-0-4-0-3-1-3--|
 * * * *                  *   *


0:25

---------------------------------------------------------|
---------------------------------------------------------|
---------------------------------------------------------|
---------------------------------------------11--11--11--|
-0-0-0-0-------0-0-0-0----------------0-0-0--33--33--33--|
-0-0-0-0-------0-0-0-0--00--00--00----0-0-0--------------|
 * * * *       * * * *            |   * * *

---------------------------------------|
---------------------------------------|
---------------------------------------|
---------------------------------------|
-0-0-0-0--------------0-1---4---3-1-3--|
-0-0-0-0--00--00--00--0-1-0-4-0-3-1-3--|
 * * * *                  *   *


---------------------------------------------------------|
---------------------------------------------------------|
---------------------------------------------------------|
---------------------------------------------11--11--11--|
-0-0-0-0-------0-0-0-0----------------0-0-0--33--33--33--|
-0-0-0-0-------0-0-0-0--00--00--00----0-0-0--------------|
 * * * *       * * * *            |   * * *

-----------------------------------------------------------|
-----------------------------------------------------------|
-----------------------------------------------------------|
--------------------------------------0-------0-----P------|
-0-0-0-0--------------0-1---4---3-1-3-0-------0------S--0--|
-0-0-0-0--00--00--00--0-1-0-4-0-3-1-3-0-------0-------\-0--|
 * * * *                  *   *                          |



0:47

L
-----------------------------------------------------------------------|
-----------------------------------------------------------------------|
----------------_----------------------------------_-------------------|
------/\-------/ \------/\-----/\--------/\-------/ \------/\-----/\---|
-0---5858-----710710---3737---5858--0---5858-----710710---3737---5858--|
-0--------0-0--------0------0-------0--------0-0--------0------0-------|
          * *        *      *                * *        *      *
R
-----------------------------------------------------------------------|
-----------------------------------------------------------------------|
----------------_----------------------------------_-------------------|
------/\-------/ \------/\-----/\--------/\-------/ \------/\-----/\---|
-0---5858-----710710---3737---5858--0---5858-----710710---3737---5858--|
-0--------0-0--------0------0-------0--------0-0--------0------0-------|
          * *        *      *                * *        *      *


L
----------------------------------------------------------------------|
----------------------------------------------------------------------|
--------------_-----------------------_----------_--------_-----------|
----/\-------/ \------/\-----/\------/ \--------/ \------/ \------/\--|
5--5858-----710710---3737---5858--8-812812-----710710---710710---5858-|
5-------0-0--------0------0-------8--------0-0--------0--------0------|
        * *        *      *                * *        *        *
R
---------------------------------------------------------------------|
---------------------------------------------------------------------|
----_------------------_---------------------------------------------|
---/ \--------/\------/ \------/\-------/\-------/\-----/\-----/\----|
5-812812-----3737----710710---5858--8--5858-----3737---3737---1515---|
5--------0-0-------0--------0-------8-------0-0------0------0--------|
         * *       *        *               * *      *      *


L
-----------------------------------------------------------------------|
-----------------------------------------------------------------------|
----------------_----------------------------------_-------------------|
------/\-------/ \------/\-----/\--------/\-------/ \------/\-----/\---|
-0---5858-----710710---3737---5858--0---5858-----710710---3737---5858--|
-0--------0-0--------0------0-------0--------0-0--------0------0-------|
          * *        *      *                * *        *      *
R
-----------------------------------------------------------------------|
-----------------------------------------------------------------------|
----------------_----------------------------------_-------------------|
------/\-------/ \------/\-----/\--------/\-------/ \------/\-----/\---|
-0---5858-----710710---3737---5858--0---5858-----710710---3737---5858--|
-0--------0-0--------0------0-------0--------0-0--------0------0-------|
          * *        *      *                * *        *      *

L
------------------------------------------------|
------------------------------------------------|
--------------_-----------------------_---------|
----/\-------/ \------/\-----/\------/ \--------|
5--5858-----710710---3737---5858--8-812812------|
5-------0-0--------0------0-------8--------0-0--|
        * *        *      *                * *     
R
------------------------------------------------|
------------------------------------------------|
----_------------------_------------------------|
---/ \--------/\------/ \------/\-------/\------|
5-812812-----3737----710710---5858--8--5858-----|
5--------0-0-------0--------0-------8-------0-0-|
         * *       *        *               * *




1;05

L
---------------------------------------------------------------------------|
---------------------------------------------------------------------------|
---------------------------------------------------------------------------|
-8-------------------------------------8-----------------------------------|
---10-------8----------------------------10------8-------------------------|
------8-7~----7-5~-0000-0000-0000-000-------8-7~----7-5~-0000-0000-0000-000|
                   **** **** **** ***                    **** **** **** ***
R
---------------------------------------------------------------------------|
---------------------------------------------------------------------------|
---------------------------------------------------------------------------|
---------------------------------------8-----------------------------------|
------------8----------------------------10------8-------------------------|
--------------7-5~-0000-0000-0000-000-------8-7~----7-5~-0000-0000-0000-000|
                   **** **** **** ***                    **** **** **** ***

B
--------------------------------------------------------------------------|
--------------------------------------------------------------------------|
--------------------------------------------------------------------------|
-8-------------------------------------8----------------------------------|
---10-------8----------------------------10------8----10--8-----5---------|
------8-7~----7-5~-0000-0000-0000-000-------8-7~---7--10----10--5-(0)/ \--|
                   **** **** **** ***                    


1:18

L
------------------------------------------------------------------|
------------------------------------------------------------------|
------------------------------------------------------------------|
/8---------------------------------/8-----------------------------|
---10-------8------0-0-0---0-0-0------10------8------0-0-0---0-0-0|
------8-7~----7-5~-0-0-0---0-0-0---------8-7~---7-5~-0-0-0---0-0-0|
                   * * *   * * *                     * * *   * * *     
R
------------------------------------------------------------------|
------------------------------------------------------------------|
------------------------------------------------------------------|
-5----------------------------------5-----------------------------|
---3--------3------0-0-0---0-0-0------3-------3------0-0-0---0-0-0|
-----5-3~-----3-5~-0-0-0---0-0-0--------5-3~----3-5~-0-0-0---0-0-0|
                   * * *   * * *                     * * *   * * *

L
--------------------------------------------------|
--------------------------------------------------|
--------------------------------------------------|
/8---------------------------------/8-------------|
---10-------8------0-0-0---0-0-0------10------8---|
------8-7~----7-5~-0-0-0---0-0-0---------8-7~---7-|
                   * * *   * * *                   
R
----------------------------------------------------|
----------------------------------------------------|
----------------------------------------------------|
-5----------------------------------5---------------|
---3--------3------0-0-0---0-0-0------3-------3-----|
-----5-3~-----3-5~-0-0-0---0-0-0--------5-3~----3---|
                   * * *   * * *                    


L
---------------------------------------------------------------|
---------------------------------------------------------------|
---------------------------------------------------------------|
-8---------------------7--------------------0------------------|
-8---------------------7--------------------0------------------|
-8---------------------7--------------------0------------------|

R
---------------------------------------------------------------|
---------------------------------------------------------------|
---------------------------------------------------------------|
-5---------------------3--------------------0------------------|
-5---------------------3--------------------0------------------|
-5---------------------3--------------------0------------------|



R
------------------------|
------------------------|
------------------------|
------------------------|
-0-0-0-0----------------|
-0-0-0-0--00--00--00----|
 * * * *             |


B
-------------------------------------------|
-------------------------------------------|
-------------------------------------------|
-------------------------------------------|
-0-0-0-0--------------0-0-0-0--------------|
-0-0-0-0--00--00--00--0-0-0-0--00--00--00--|
 * * * *              * * * *

---------------------------------------|
---------------------------------------|
---------------------------------------|
---------------------------------------|
-0-0-0-0--------------0-1---4---3-1-3--|
-0-0-0-0--00--00--00--0-1-0-4-0-3-1-3--|
 * * * *                  *   *


-------------------------------------------|
-------------------------------------------|
-------------------------------------------|
-------------------------------11--11--11--|
-0-0-0-0----------------0-0-0--33--33--33--|
-0-0-0-0--00--00--00----0-0-0--------------|
 * * * *                * * *

---------------------------------------|
---------------------------------------|
---------------------------------------|
---------------------------------------|
-0-0-0-0--------------0-1---4---3-1-3--|
-0-0-0-0--00--00--00--0-1-0-4-0-3-1-3--|
 * * * *                  *   *


1:59

--------------------------------------------------------------------|
--------------------------------------------------------------------|
--------------------------------------------------------------------|
---------------------------------------------------------------1----|
-0-0-0-0-----------00--00--00----------0000000-----------0-0-0-1----|
-0-0-0-0-----------00--00--00----------0000000-----------0-0-0-1----|
 * * * *           **  **  **          *******           * * *


L
--------------------------------------------------------------------|
--------------------------------------------------------------------|
--------------------------------------------------------------------|
---------------------------------------------------------------1----|
-0-0-0-0-----------00--00--00----------0000000-----------0-0-0-3----|
-0-0-0-0-----------00--00--00----------0000000-----------0-0-0------|
 * * * *           **  **  **          *******           * * *
R
--------------------------------------------------------------------|
--------------------------------------------------------------------|
---------------------------------------------------------------0----|
---------------------------------------------------------------1----|
-0-0-0-0-----------00--00--00----------0000000-----------0-0-0------|
-0-0-0-0-----------00--00--00----------0000000-----------0-0-0------|
 * * * *           **  **  **          *******           * * *


-----------------|
-----------------|
-----------------|
--1--------------|
--1--------------|
--1--------------|


---------------------------------------------------------------------------|
---------------------------------------------------------------------------|
---------------------------------------------------------------------------|
----------------------------1-1--1-1---------------------------------------|
-0-0-0-0-0-0-0-0-0-0-0-0-0--3-3--3-3--0-0-0-0-------------0-0-0-0--1-1--1-1|
-0-0-0-0-0-0-0-0-0-0-0-0-0------------0-0-0-0--0-0--0-0---0-0-0-0--1-1--1-1|
 * * * * * * * * * * * * *            * * * *             * * * * 

---------------------------------------------------------------------------|
---------------------------------------------------------------------------|
---------------------------------------------------------------------------|
----------------------------1-1--1-1---------------------------------------|
-0-0-0-0-0-0-0-0-0-0-0-0-0--3-3--3-3--0-0-0-0-------------0-0-0-0--1-1--1-1|
-0-0-0-0-0-0-0-0-0-0-0-0-0------------0-0-0-0--0-0--0-0---0-0-0-0--1-1--1-1|
 * * * * * * * * * * * * *            * * * *             * * * * 


REPEATS AND FADES

1
---------------------------------------------------------------------------|
---------------------------------------------------------------------------|
---------------------------------------------------------------------------|
----------------------------1-1--1-1---------------------------------------|
-0-0-0-0-0-0-0-0-0-0-0-0-0--3-3--3-3--0-0-0-0-------------0-0-0-0--1-1--1-1|
-0-0-0-0-0-0-0-0-0-0-0-0-0------------0-0-0-0--0-0--0-0---0-0-0-0--1-1--1-1|
 * * * * * * * * * * * * *            * * * *             * * * * 

2
--------------------------------------------------------------------------|
--------------------------------------------------------------------------|
--------------------------------------------------------------------------|
-12-----13-----12-----15-----13-----12-----15-----13-----12-----13-----12-|
--------------------------------------------------------------------------|
--------------------------------------------------------------------------|





||||||||||||||||||||||||||||||||||||||||||||||||||||||
||||||||||||||||||||||||||||||||||||||||||||||||||||||
||||||||||||||||||||||||||||||||||||||||||||||||||||||
||||||||||||||||||||||||||||||||||||||||||||||||||||||











FROSTBITE

B-F#-BE-G#-C#





1
------------------------------------------------------------------|
-------------------------------------5-----3----------------------|
------4-2----------------------5--5-----5-----5--5-4--4-5-0-4-----|
-2--------5-4-4---4-4-5-7-------------------------------------7-5-|
--------------------------5---------------------------------------|
------------------------------------------------------------------|
                                  *     *     *
2
-----------------------------------------------------------------|
-----------------------------------------------------------------|
-----------------------------------------------------------------|
------5-4----------------------------10----9----7-5--5-7-0-5-4---|
-7--------7-5-5---5-5-7-9-----12--12----12---12----------------5-|
--------------------------12-------------------------------------|
                                   *     *    *    
3
-----------------------------------------------------------------|
-----------------------------------------------------------------|
-----------------------------------------------------------------|
-----------------------------------------------------------------|
-2-------------0---------------7------------------5--------------|
-2-------------0---------------7------------------5--------------|



1
------------------------------------------------------------------|
-------------------------------------5-----3----------------------|
------4-2----------------------5--5-----5-----5--5-4--4-5-0-4-----|
-2--------5-4-4---4-4-5-7-------------------------------------7-5-|
--------------------------5---------------------------------------|
------------------------------------------------------------------|
                                  *     *     *
2
-----------------------------------------------------------------|
-----------------------------------------------------------------|
-----------------------------------------------------------------|
------5-4----------------------------10----9----7-5--5-7-0-5-4---|
-7--------7-5-5---5-5-7-9-----12--12----12---12----------------5-|
--------------------------12-------------------------------------|
                                   *     *    *    
3
-----------------------------------------------------------------|
-----------------------------------------------------------------|
-----------------------------------------------------------------|
-----------------------------------------------------------------|
-2-------------0---------------7------------------5--------------|
-2-------------0---------------7------------------5--------------|


1
------------------------------------------------------------------|
-------------------------------------5-----3----------------------|
------4-2----------------------5--5-----5-----5--5-4--4-5-0-4-----|
-2--------5-4-4---4-4-5-7-------------------------------------7-5-|
--------------------------5---------------------------------------|
------------------------------------------------------------------|
                                  *     *     *
2
-----------------------------------------------------------------|
-----------------------------------------------------------------|
-----------------------------------------------------------------|
------5-4----------------------------10----9----7-5--5-7-0-5-4---|
-7--------7-5-5---5-5-7-9-----12--12----12---12----------------5-|
--------------------------12-------------------------------------|
                                   *     *    *    
3
-----------------------------------------------------------------|
-----------------------------------------------------------------|
-----------------------------------------------------------------|
-----------------------------------------------------------------|
-2-------------0---------------7------------------5--------------|
-2-------------0---------------7------------------5--------------|



1
------------------------------------------------------------------|
-------------------------------------5-----3----------------------|
------4-2----------------------5--5-----5-----5--5-4--4-5-0-4-----|
-2--------5-4-4---4-4-5-7-------------------------------------7-5-|
--------------------------5---------------------------------------|
------------------------------------------------------------------|
                                  *     *     *
2
-----------------------------------------------------------------|
-----------------------------------------------------------------|
-----------------------------------------------------------------|
------5-4----------------------------10----9----7-5--5-7-0-5-4---|
-7--------7-5-5---5-5-7-9-----12--12----12---12----------------5-|
--------------------------12-------------------------------------|
                                   *     *    *    
3
-----------------------------------------------------------------|
-----------------------------------------------------------------|
-----------------------------------------------------------------|
-----------------------------------------------------------------|
-2-------------0---------------7------------------5--------------|
-2-------------0---------------7------------------5--------------|




0:28

L
---------------------------------------------------------------|
---------------------------------------------------------------|
---------------------------------------------------P-----------|
-----------------------------------------------------S---------|
-2-2---------------------------2-2-0-0-----------------\-------|
-2-2---------------------------2-2-0-0-------------------------|
 * *                           * * * * 
R
----------------------------------------------------------------------|
----------------------------------------------------------------_-----|
---------------------------------------------------------------/ \----|
-----4---2-------5---4-----0----2-2------4---5---7---4----5---7-9-7-4-|
-------------2--------------------------------------------------------|
-2-2---2---2---2---2----2----2------0-0---0---0---0----0----0---------|
 * *   *   *   *   *    *    *      * *   *   *   *    *    *


L
---------------------------------------------------------------|
---------------------------------------------------------------|
---------------------------------------------------------------|
-------------------9--9--9------------10-----------------------|
-2-2--------------10-10-10-7-7-5---------14-12-10-14-12-10-9---|
-2-2-----------------------7-7-7-------------------------------|
 * *               *  *    * *            *  *  *     *  * *
R
---------------------------------------------------------------|
---------------------------------------------------------------|
---------------------------------------------------------------|
-----4---2---------9--9--9-------------7-----------------------|
-------------2----10-10-10-5-5-5---------10-9-7-10-9-7-5-------|
-2-2---2---2---2-----------7-7-7-------------------------------|
 * *   *   *   *   *  *    * *            * * *    * * *



0:37

B
----------------------------------------------------------------------|
----------------------------------------------------------------_-----|
---------------------------------------------------------------/ \----|
-----4---2-------5---4----0----2-2------4---5---7---4----5----7-9-7-4-|
-------------2--------------------------------------------------------|
-2-2---2---2---2---2----2----2------0-0---0---0---0----0----0---------|
 * *   *   *   *   *    *    *      * *   *   *   *    *    *

------------------------------------------------------------------------|
------------------------------------------------------------------------|
------------------------------------------------------------------------|
-----4---2---------9--9--9-7-7-7----------------------------------------|
-------------2----10-10-10-9-9-9-------555577779999----1010101099997777-|
-2-2---2---2---2-------------------2222------------5555-----------------|
 * *   *   *   *   *  *    * *           

----------------------------------------------------------------------|
----------------------------------------------------------------_-----|
---------------------------------------------------------------/ \----|
-----4---2-------5---4----0----2-2------4---5---7---4----5----7-9-7-4-|
-------------2--------------------------------------------------------|
-2-2---2---2---2---2----2----2------0-0---0---0---0----0----0---------|
 * *   *   *   *   *    *    *      * *   *   *   *    *    *

L
---------------------------------------------------------------|
---------------------------------------------------------------|
---------------------------------------------------------------|
-----4---2---------9--9--9------------10-----------------------|
-------------2----10-10-10-5-5-5---------14-12-10-14-12-10-9---|
-2-2---2---2---2-----------7-7-7-------------------------------|
 * *   *   *   *   *  *    * *            *  *  *     *  * *

---------------------------------------------------------------|
---------------------------------------------------------------|
---------------------------------------------------------------|
-----4---2---------9--9--9-------------7-----------------------|
-------------2----10-10-10-5-5-5---------10-9-7-10-9-7-5-------|
-2-2---2---2---2-----------7-7-7-------------------------------|
 * *   *   *   *   *  *    * *            * * *    * * *


0:54

B
-------------------------------------------------------------------|
---------------)  (~~~-------------) (-----------------------------|
---------^---11-------------------6--------------------------------|
-9-----11-12-------------5-----7--------2---------4-4-2-2-0-0-2-2--|
-9-----------------------5--------------2--------5-5-5-4-4-2-2-4-4-|
-9-----------------------5--------------2--------------------------|
                                                 * * * * * * * * *

L
--------------------------------------------------------------------|
---------------)  (~~~-------------) (------------------------------|
---------^---11-------------------6---------------4-4-2-2-----------|
-9-----11-12-------------5-----7--------2--------2-2-2-2-2-5-5-4-4--|
-9-----------------------5--------------2-------------------5-5-5-5-|
-9-----------------------5--------------2---------------------------|
                                                 * * * * *  * * * *
R
----------------)  (~~~------------) (------------------------------|
-------------10-----------------7-----------------------------------|
--------------------------------------------------4-4-2-2-----------|
-9------7/9--------------5---5----------2--------2-2-2-2-2-5-5-4-4--|
-9-----------------------5--------------2-------------------5-5-5-5-|
-9-----------------------5--------------2---------------------------|
                                                 * * * * *  * * * *
B      1                       
---------------------------------|
---------------------------------|
---------------------------------|
-0-------------------------------|
-0------000000---0000---000000---|
-0------000000---0000---000000---|
        ******   ****   ******


1:16

B
-------------------------------------------------------------------|
-------------------------------------------------------------------|
-------------------------------------------------------------------|
-0-------------------------------------0---------------------------|
-0----000000----0000----000000----0000-0----0000----0000----000000-|
-0----000000----0000----000000----0000-0----0000----0000----000000-|
      ******    ****    ******    ****      ****    ****    ******

-------------------------------------------------------------------|
-------------------------------------------------------------------|
-------------------------------------------------------------------|
-0-------------------------------------0---------------------------|
-0----000000----0000----000000----0000-0----0000----0000----000000-|
-0----000000----0000----000000----0000-0----0000----0000----000000-|
      ******    ****    ******    ****      ****    ****    ******


1:30


1
-------------------------------------------------------------------------|
--^----^---^---^----^---^---^----^----^---^----^---^----^----^----^---^--|
-9-2-10-2-9-2-7-2-10-2-9-2-7-2-12-3-10-3-9-3-10-3-9-3-14-5-12-5-10-5-9-5-|
-------------------------------------------------------------------------|
-------------------------------------------------------------------------|
-------------------------------------------------------------------------|
 T    T   T   T    T   T   T    T    T   T    T   T    T    T    T   T
2
-------------------------------------------------------------------|
-------------------------------------------------------------------|
-------------------------------------------------------------------|
-0-----------------------------------------------------------------|
-0----------------000000--------------0000-----------000000--------|
-0----------------000000--------------0000-----------000000--------|
                  ******              ****           ******  

1
-------------------------------------------------------------------------|
--^----^---^---^----^---^---^----^----^---^----^---^----^----^----^---^--|
-9-2-10-2-9-2-7-2-10-2-9-2-7-2-12-3-10-3-9-3-10-3-9-3-14-5-12-5-10-5-9-5-|
-------------------------------------------------------------------------|
-------------------------------------------------------------------------|
-------------------------------------------------------------------------|
 T    T   T   T    T   T   T    T    T   T    T   T    T    T    T   T
2
-------------------------------------------------------------------|
-------------------------------------------------------------------|
-------------------------------------------------------------------|
-0-----------------------------------------------------------------|
-0----------------000000--------------0000-----------000000--------|
-0----------------000000--------------0000-----------000000--------|
                  ******              ****           ******  

1
-------------------------------------------------------------------------|
--^----^---^---^----^---^---^----^----^---^----^---^----^----^----^---^--|
-9-2-10-2-9-2-7-2-10-2-9-2-7-2-12-3-10-3-9-3-10-3-9-3-14-5-12-5-10-5-9-5-|
-------------------------------------------------------------------------|
-------------------------------------------------------------------------|
-------------------------------------------------------------------------|
 T    T   T   T    T   T   T    T    T   T    T   T    T    T    T   T
2
-------------------------------------------------------------------|
-------------------------------------------------------------------|
-------------------------------------------------------------------|
-0-----------------------------------------------------------------|
-0----------------000000--------------0000-----------000000--------|
-0----------------000000--------------0000-----------000000--------|
                  ******              ****           ******  

-------------------------------------------------------------------|
-------------------------------------------------------------------|
-------------------------------------------------------------------|
-0-----------------------------------------------------------------|
-0----------------000000--------------0000-----------0000-\--------|
-0----------------000000--------------0000-----------0000-\--------|
                  ******              ****           **** 



1:45

B
----------------------------------------------------------------------|
----------------------------------------------------------------_-----|
---------------------------------------------------------------/ \----|
-----4---2-------5---4----0----2-2------4---5---7---4----5----7-9-7-4-|
-------------2--------------------------------------------------------|
-2-2---2---2---2---2----2----2------0-0---0---0---0----0----0---------|
 * *   *   *   *   *    *    *      * *   *   *   *    *    *

------------------------------------------------------------------------|
------------------------------------------------------------------------|
------------------------------------------------------------------------|
-----4---2---------9--9--9-7-7-7----------------------------------------|
-------------2----10-10-10-9-9-9-------555577779999----1010101099997777-|
-2-2---2---2---2-------------------2222------------5555-----------------|
 * *   *   *   *   *  *    * *           

----------------------------------------------------------------------|
----------------------------------------------------------------_-----|
---------------------------------------------------------------/ \----|
-----4---2-------5---4----0----2-2------4---5---7---4----5----7-9-7-4-|
-------------2--------------------------------------------------------|
-2-2---2---2---2---2----2----2------0-0---0---0---0----0----0---------|
 * *   *   *   *   *    *    *      * *   *   *   *    *    *

L
---------------------------------------------------------------|
---------------------------------------------------------------|
---------------------------------------------------------------|
-----4---2---------9--9--9------------10-----------------------|
-------------2----10-10-10-5-5-5---------14-12-10-14-12-10-9---|
-2-2---2---2---2-----------7-7-7-------------------------------|
 * *   *   *   *   *  *    * *            *  *  *     *  * *

---------------------------------------------------------------|
---------------------------------------------------------------|
---------------------------------------------------------------|
-----4---2---------9--9--9-------------7-----------------------|
-------------2----10-10-10-5-5-5---------10-9-7-10-9-7-5-------|
-2-2---2---2---2-----------7-7-7-------------------------------|
 * *   *   *   *   *  *    * *            * * *    * * *


2:02


B
-------------------------------------------------------------------|
---------------)  (~~~-------------) (-----------------------------|
---------^---11-------------------6--------------------------------|
-9-----11-12-------------5-----7--------2---------4-4-2-2-0-0-2-2--|
-9-----------------------5--------------2--------5-5-5-4-4-2-2-4-4-|
-9-----------------------5--------------2--------------------------|
                                                 * * * * * * * * *

L
--------------------------------------------------------------------|
---------------)  (~~~-------------) (------------------------------|
--------^----11-------------------6---------------------------------|
-9----11-12--------------5-----7--------2---------------------------|
-9-----------------------5--------------2---------------------------|
-9-----------------------5--------------2----------------------\----|
                                                 
R
----------------)  (~~~------------) (------------------------------|
--------------10------------------7---------------------------------|
--------------------------------------------------------------------|
-9------7/9--------------5-----5--------2---------------------------|
-9-----------------------5--------------2---------------------------|
-9-----------------------5--------------2-----------------------\---|
                                                 



2:21


1                                B
--------------------------------------------------------------------|
--------------------------------------------------------------------|
--_-------_-------_-------_-------_--------_--------_--------_------|
-/ \-----/ \-----/ \-----/ \-----/ \------/ \------/ \------/ \-----|
5-8-5---5-8-5---5-8-5---5-8-5---7-8-7----7-8-7----7-8-7----7-8-7----|
------8-------8-------8-------8-------10-------10-------10-------10-|

-----------------------------------------------------------------------|
-----------------------------------------------------------------------|
--__-------__-------__-------__-------__-------__-------__-------__----|
-/  \-----/  \-----/  \-----/  \-----/  \-----/  \-----/  \-----/  \---|
8-12-8---8-12-8---8-12-8---8-12-8---8-10-8---8-10-8---8-10-8---8-10-8--|
------12-------12-------12-------12-------10-------10-------10-------10|


--------------------------------------------------------------------|
--------------------------------------------------------------------|
--_-------_-------_-------_-------_--------_--------_--------_------|
-/ \-----/ \-----/ \-----/ \-----/ \------/ \------/ \------/ \-----|
5-8-5---5-8-5---5-8-5---5-8-5---7-8-7----7-8-7----7-8-7----7-8-7----|
------8-------8-------8-------8-------10-------10-------10-------10-|

-----------------------------------------------------------------------|
-----------------------------------------------------------------------|
--__-------__-------__-------__-------__-------__-------__-------__----|
-/  \-----/  \-----/  \-----/  \-----/  \-----/  \-----/  \-----/  \---|
8-12-8---8-12-8---8-12-8---8-12-8---8-10-8---8-10-8---8-10-8---8-10-8--|
------12-------12-------12-------12-------10-------10-------10-------10|



1
--------------------------------------------------------------------|
--------------------------------------------------------------------|
--_-------_-------_-------_-------_--------_--------_--------_------|
-/ \-----/ \-----/ \-----/ \-----/ \------/ \------/ \------/ \-----|
5-8-5---5-8-5---5-8-5---5-8-5---7-8-7----7-8-7----7-8-7----7-8-7----|
------8-------8-------8-------8-------10-------10-------10-------10-|
2
--------------------------------------------------------------------|
--------------------------------------------------------------------|
--------------------------------------------------------------------|
-5-----------------------------7------------------------------------|
-5-----------------------------7------------------------------------|
-5-----------------------------7------------------------------------|

1
-----------------------------------------------------------------------|
-----------------------------------------------------------------------|
--__-------__-------__-------__-------__-------__-------__-------__----|
-/  \-----/  \-----/  \-----/  \-----/  \-----/  \-----/  \-----/  \---|
8-12-8---8-12-8---8-12-8---8-12-8---8-10-8---8-10-8---8-10-8---8-10-8--|
------12-------12-------12-------12-------10-------10-------10-------10|
2
-----------------------------------------------------------------------|
-----------------------------------------------------------------------|
-----------------------------------------------------------------------|
-8-----------------------------------10--------------------------------|
-8-----------------------------------10--------------------------------|
-8-----------------------------------10--------------------------------|



1
--------------------------------------------------------------------|
--------------------------------------------------------------------|
--_-------_-------_-------_-------_--------_--------_--------_------|
-/ \-----/ \-----/ \-----/ \-----/ \------/ \------/ \------/ \-----|
5-8-5---5-8-5---5-8-5---5-8-5---7-8-7----7-8-7----7-8-7----7-8-7----|
------8-------8-------8-------8-------10-------10-------10-------10-|
2
--------------------------------------------------------------------|
--------------------------------------------------------------------|
--------------------------------------------------------------------|
-5-----------------------------7------------------------------------|
-5-----------------------------7------------------------------------|
-5-----------------------------7------------------------------------|

1
----------------------------------------------------|
----------------------------------------------------|
--__-------__-------__-------__---------------------|
-/  \-----/  \-----/  \-----/  \----7------5----3---|
8-12-8---8-12-8---8-12-8---8-12-8---7------5----3---|
------12-------12-------12-------12-7------5----3---|
2
----------------------------------------------------|
----------------------------------------------------|
----------------------------------------------------|
-8-----------------------------------7------5----3--|
-8-----------------------------------7------5----3--|
-8-----------------------------------7------5----3--|



2:45


B
-------------------------------------------------------------------|
-------------------------------------------------------------------|
-------------------------------------------------------------------|
-0-------------------------------------0---------------------------|
-0----000000----0000----000000----0000-0----0000----0000----000000-|
-0----000000----0000----000000----0000-0----0000----0000----000000-|
      ******    ****    ******    ****      ****    ****    ******

-------------------------------------------------------------------|
-------------------------------------------------------------------|
-------------------------------------------------------------------|
-0-------------------------------------0---------------------------|
-0----000000----0000----000000----0000-0----0000----0000----000000-|
-0----000000----0000----000000----0000-0----0000----0000----000000-|
      ******    ****    ******    ****      ****    ****    ******


2:59

1
-------------------------------------------------------------------------|
--^----^---^---^----^---^---^----^----^---^----^---^----^----^----^---^--|
-9-2-10-2-9-2-7-2-10-2-9-2-7-2-12-3-10-3-9-3-10-3-9-3-14-5-12-5-10-5-9-5-|
-------------------------------------------------------------------------|
-------------------------------------------------------------------------|
-------------------------------------------------------------------------|
 T    T   T   T    T   T   T    T    T   T    T   T    T    T    T   T
2
-----------------------------------------------------------------|
-----------------------------------------------------------------|
-----------------------------------------------------------------|
-----------------------------------------------------------------|
-----------------------------------------------------------------|
-5-5-5-5-5-5-5-5-5-5-5-5-5-5-5-5-7-7-7-7-7-7-7-7-7-7-7-7-7-7-7-7-|
 * * * * * * * * * * * * * * * * * * * * * * * * * * * * * * * *
1
-------------------------------------------------------------------------|
--^----^---^---^----^---^---^----^----^---^----^---^----^----^----^---^--|
-9-2-10-2-9-2-7-2-10-2-9-2-7-2-12-3-10-3-9-3-10-3-9-3-14-5-12-5-10-5-9-5-|
-------------------------------------------------------------------------|
-------------------------------------------------------------------------|
-------------------------------------------------------------------------|
 T    T   T   T    T   T   T    T    T   T    T   T    T    T    T   T
2
------------------------------------------------------------------|
------------------------------------------------------------------|
------------------------------------------------------------------|
------------------------------------------------------------------|
------------------------------------------------------------------|
-8-8-8-8-8-8-8-8-8-8-8-8-8-8-8-8-10101010101010101010101010101010-|
 * * * * * * * * * * * * * * * *  * * * * * * * * * * * * * * * *


1
-------------------------------------------------------------------------|
--^----^---^---^----^---^---^----^----^---^----^---^----^----^----^---^--|
-9-2-10-2-9-2-7-2-10-2-9-2-7-2-12-3-10-3-9-3-10-3-9-3-14-5-12-5-10-5-9-5-|
-------------------------------------------------------------------------|
-------------------------------------------------------------------------|
-------------------------------------------------------------------------|
 T    T   T   T    T   T   T    T    T   T    T   T    T    T    T   T
2
-----------------------------------------------------------------|
-----------------------------------------------------------------|
-----------------------------------------------------------------|
-----------------------------------------------------------------|
-----------------------------------------------------------------|
-5-5-5-5-5-5-5-5-5-5-5-5-5-5-5-5-7-7-7-7-7-7-7-7-7-7-7-7-7-7-7-7-|
 * * * * * * * * * * * * * * * * * * * * * * * * * * * * * * * *
1
------------------------------------------------------|
--^----^---^---^----^---^---^----^--------------------|
-9-2-10-2-9-2-7-2-10-2-9-2-7-2-12-3-------------------|
-------------------------------------7------5----3----|
-------------------------------------7------5----3----|
-------------------------------------7------5----3----|
 T    T   T   T    T   T   T    T    
2
------------------------------------------------------|
------------------------------------------------------|
------------------------------------------------------|
-------------------------------------7------5----3----|
-------------------------------------7------5----3----|
-8-8-8-8-8-8-8-8-8-8-8-8-8-8-8-8-----7------5----3----|
 * * * * * * * * * * * * * * * *  


3:15

B
-------------------------------------------------------|
-------------------------------------------------------|
-------------------------------------------------------|
-0---------------------------0-------------------------|
-0-----000000-----000000-----0-----000000-----000000---|
-0-----000000-----000000-----0-----000000-----000000---|
       ******     ******           ******     ******



3:22

1
-------------------------------------------------------------------------|
--^----^---^---^----^---^---^----^----^---^----^---^----^----^----^---^--|
-9-2-10-2-9-2-7-2-10-2-9-2-7-2-12-3-10-3-9-3-10-3-9-3-14-5-12-5-10-5-9-5-|
-------------------------------------------------------------------------|
-------------------------------------------------------------------------|
-------------------------------------------------------------------------|
 T    T   T   T    T   T   T    T    T   T    T   T    T    T    T   T
2
---------------------------------------------------------------------------|
--^---^---^---^---^----^----^----^----^----^----^----^----^----^----^----^-|
12-214-212-210-214-2-12-2-10-2-15-3-14-3-12-3-14-3-12-3-17-5-15-5-14-5-12-5|
---------------------------------------------------------------------------|
---------------------------------------------------------------------------|
---------------------------------------------------------------------------|
 T   T   T   T   T    T    T    T    T    T    T    T    T    T    T    T
 
---------------------------------------------------------------------|
---------------------------------------------------------------------|
---------------------------------------------------------------------|
-0-------------------------------------------------------------------|
-0---------------000000---------------------------------000000-------|
-0---------------000000---------------------------------000000-------|
                 ******                                 ******          

1
----------------------------------------------------------------|
--^----^---^---^----^---^---^----^----^---^----^---^------------|
-9-2-10-2-9-2-7-2-10-2-9-2-7-2-12-3-10-3-9-3-10-3-9-3-----------|
----------------------------------------------------------------|
-------------------------------------------------------000000---|
-------------------------------------------------------000000---|
 T    T   T   T    T   T   T    T    T   T    T   T    ******
2
----------------------------------------------------------------|
--^---^---^---^---^----^----^----^----^----^----^----^----------|
12-214-212-210-214-2-12-2-10-2-15-3-14-3-12-3-14-3-12-3---------|
----------------------------------------------------------------|
---------------------------------------------------------000000-|
---------------------------------------------------------000000-|
 T   T   T   T   T    T    T    T    T    T    T    T    ******
 
-----------------------------------|
-----------------------------------|
-----------------------------------|
-0---------------------------------|
-0--------------------000000-------|
-0--------------------000000-------|
                      ******  

  


||||||||||||||||||||||||||||||||||||||||||||||||||||
||||||||||||||||||||||||||||||||||||||||||||||||||||
||||||||||||||||||||||||||||||||||||||||||||||||||||
||||||||||||||||||||||||||||||||||||||||||||||||||||











HORIZONS

B-F#-B-E-G#-C#



INTRO
FINGER PICKED

0:07
1

-7-----7------10---2-----2------5---3-----3------7---5-----7----------|
---0-----0-----------0-----0----------0-----0----------0-----0----7---|
-----0-----------------0----------------0----------------0-----0------|
----------------------------------------------------------------------|
-7-----7------10---2-----2------5---3-----3------7---5-----5------5---|
----------------------------------------------------------------------|
                 |                |                |

-7-----7------10---2-----2------5---3-----3------7---5-----7----------|
---0-----0-----------0-----0----------0-----0----------0-----0----7---|
-----0-----------------0----------------0----------------0-----0------|
----------------------------------------------------------------------|
-7-----7------10---2-----2------5---3-----3------7---5-----5------5---|
----------------------------------------------------------------------|
                 |                |                |


0:22

1
-7-----7------10---2-----2------5---3-----3------7---5-----7----------|
---0-----0-----------0-----0----------0-----0----------0-----0----7---|
-----0-----------------0----------------0----------------0-----0------|
----------------------------------------------------------------------|
-7-----7------10---2-----2------5---3-----3------7---5-----5------5---|
----------------------------------------------------------------------|
                 |                |                |
2
-----------------------------------------------------------------|
-----------------------------------------------------------------|
-----------------------------------------------------------------|
-----------------------------------------------------------------|
-2---------------------------------------------------------------|
-2---------------------------------------------------------------|


1
-7-----7------10---2-----2------5---3-----3------7---5-----7----------|
---0-----0-----------0-----0----------0-----0----------0-----0----7---|
-----0-----------------0----------------0----------------0-----0------|
----------------------------------------------------------------------|
-7-----7------10---2-----2------5---3-----3------7---5-----5------5---|
----------------------------------------------------------------------|
                 |                |                |
2
-----------------------------------------------------------------|
-----------------------------------------------------------------|
-----------------------------------------------------------------|
--------------------------------------------------PS-------------|
-2--------------------------------------------------\------------|
-2---------------------------------------------------------------|


1
-7-----7------10---2-----2------5---3-----3------7---5-----7----------|
---0-----0-----------0-----0----------0-----0----------0-----0----7---|
-----0-----------------0----------------0----------------0-----0------|
----------------------------------------------------------------------|
-7-----7------10---2-----2------5---3-----3------7---5-----5------5---|
----------------------------------------------------------------------|
                 |                |                |
2
----------------------------------------------------------------------|
----------------------------------------------------------------------|
----------------------------------------------------------------------|
------------------4-----------------5-----------------7---------------|
-2----------------2-----------------3-----------------5---------------|
-2--------------------------------------------------------------------|


1
-7-----7------10---2-----2------5---3-----3------7---5-----7----------|
---0-----0-----------0-----0----------0-----0----------0-----0----7---|
-----0-----------------0----------------0----------------0-----0------|
----------------------------------------------------------------------|
-7-----7------10---2-----2------5---3-----3------7---5-----5------5---|
----------------------------------------------------------------------|
                 |                |                |
2
----------------------------------------------------------------------|
----------------------------------------------------------------------|
----------------------------------------------------------------------|
------------------4-----------------5-----------------7---------------|
-2----------------2-----------------3-----------------5---------------|
-2--------------------------------------------------------------------|




0:52


1
-------0-----2-----0-----2---0----------------------------7---5---|
-3-------3-----3-----3-----3------5-----7-----8-----7-------7-----|
---0-------0-----0-----0------------7-----7-----7-----7-----------|
-----0--------------------------------5-----5-----5-----7---------|
-3-----3-----3-----3-----3---3----5-----5-----5-----5-----5---5---|
------------------------------------------------------------------|
2
-----------------------------------------------------------------|
-----------------------------------------------------------------|
-----------------------------------------------------------------|
-5-5-5-5-5-5-5-5-5-5-5-5-5-5-5-5-7-7-7-7-7-7-7-7-7-7-7-7-7-7-7-7-|
-3-3-3-3-3-3-3-3-3-3-3-3-3-3-3-3-5-5-5-5-5-5-5-5-5-5-5-5-5-5-5-5-|
-----------------------------------------------------------------|
 * * * * * * * * * * * * * * * * * * * * * * * * * * * * * * * * 


1
-------0-----2-----0-----2---0----------------------------7---5-----|
-3-------3-----3-----3-----3------5-----7-----8---8---7-----7---7-7-|
---0-------0-----0-----0------------7-----7-----7---7---7-----------|
-----0--------------------------------5-----5-----------------------|
-3-----3-----3-----3-----3---3----5-----5-----5-------------------7-|
--------------------------------------------------------------------|
2
-------------------------------------------------------------------|
-------------------------------------------------------------------|
-------------------------------------------------------------------|
-5-5-5-5-5-5-5-5-5-5-5-5-5-5-5-5-7-7-7-7-7-7-7-7----------------2--|
-3-3-3-3-3-3-3-3-3-3-3-3-3-3-3-3-5-5-5-5-5-5-5-5--5------4------2--|
--------------------------------------------------5------4------2--|
 * * * * * * * * * * * * * * * * * * * * * * * * 




1:11


L
---------------------------------------------------|
---------------------------------------------------|
---------------------------------------------------|
---------------------------------------------------|
---------------------------------------------------|
-0-0-0---------------------------------------------|
 * * *
R
---------------------------------------------------|
---------------------------------------------------|
---------------------------------------------------|
---------------------------------------------------|
-------5-7-8-------7-8-10-------3-----8-----7-5-3--|
-0-0-0-------0-0-0--------0-0-0---0-0---0-0--------|
 * * *       * * *        * * *   * *   * *

L
---------------------------------------------------|
---------------------------------------------------|
---------------------------------------------------|
---------------------------------------------------|
--------------------------------3-----8-----7-5-3--|
-0-0-0------0-0-0---------0-0-0---0-0---0-0--------|
 * * *      * * *         * * *   * *   * * 
R
---------------------------------------------------|
---------------------------------------------------|
---------------------------------------------------|
---------------------------------------------------|
-------5-7-8-------7-8-10-------3-----8-----7-5-3--|
-0-0-0-------0-0-0--------0-0-0---0-0---0-0--------|
 * * *       * * *        * * *   * *   * *




1:17

B
--------------------------------------------------------|
--------------------------------------------------------|
--------------------------------------------------------|
--------------------------------------------------------|
--------7-8-10-------8-10-12-------12-----10-----8-7-5--|
-5-5-5---------7-7-7---------8-888----8-8----8-8--------|
                               ***    * *    * *

--------------------------------------------------------|
--------------------------------------------------------|
--------------------------------------------------------|
--------------------------------------------------------|
--------7-8-10-------8-10-12-------12-----10-----8-7-5--|
-5-5-5---------7-7-7---------8-888----8-8----8-8--------|
                               ***    * *    * *

--------------------------------------------------------|
--------------------------------------------------------|
--------------------------------------------------------|
--------------------------------------------------------|
--------7-8-10-------8-10-12-------12-----10-----8-7-5--|
-5-5-5---------7-7-7---------8-888----8-8----8-8--------|
                               ***    * *    * *

--------------------------------------------------------|
--------------------------------------------------------|
--------------------------------------------------------|
--------------------------------------------------------|
--------7-8-10-------8-10-12-------12-----10-----8-7-5--|
-5-5-5---------7-7-7---------8-888----8-8----8-8--------|
                               ***    * *    * *


1:30

L
---------------------------------------------------|
---------------------------------------------------|
---------------------------------------------------|
---------------------------------------------------|
--------------------------------3-----8-----7-5-3--|
-0-0-0------0-0-0---------0-0-0---0-0---0-0--------|
 * * *      * * *         * * *   * *   * * 
R
---------------------------------------------------|
---------------------------------------------------|
---------------------------------------------------|
---------------------------------------------------|
-------5-7-8-------7-8-10-------3-----8-----7-5-3--|
-0-0-0-------0-0-0--------0-0-0---0-0---0-0--------|
 * * *       * * *        * * *   * *   * *

L
---------------------------------------------------|
---------------------------------------------------|
---------------------------------------------------|
---------------------------------------------------|
--------------------------------3-----8-----7-5-3--|
-0-0-0------0-0-0---------0-0-0---0-0---0-0--------|
 * * *      * * *         * * *   * *   * * 
R
---------------------------------------------------|
---------------------------------------------------|
---------------------------------------------------|
---------------------------------------------------|
-------5-7-8-------7-8-10-------3-----8-----7-5-3--|
-0-0-0-------0-0-0--------0-0-0---0-0---0-0--------|
 * * *       * * *        * * *   * *   * *


1:37

L
--------------------------------------------------------|
--------------------------------------------------------|
--------------------------------------------------------|
------------------------------------10----8-------------|
--------7-8-10-------8-10-12---------------------12-10-8|
-5-5-5---------7-7-7---------8-888----8-8----8-8--------|
                               ***    * *    * *
R
--------------------------------------------------------|
--------------------------------------------------------|
--------------------------------------------------------|
--------5-7-8---------7-8-10----------------------------|
-----------------------------------12-----10-----8-7-5--|
-5-5-5---------7-7-7---------8-888----8-8----8-8--------|
                               ***    * *    * *

L
--------------------------------------------------------|
--------------------------------------------------------|
--------------------------------------------------------|
------------------------------------10----8-------------|
--------7-8-10-------8-10-12---------------------12-10-8|
-5-5-5---------7-7-7---------8-888----8-8----8-8--------|
                               ***    * *    * *
R
--------------------------------------------------------|
--------------------------------------------------------|
--------------------------------------------------------|
--------5-7-8---------7-8-10----------------------------|
-----------------------------------12-----10-----8-7-5--|
-5-5-5---------7-7-7---------8-888----8-8----8-8--------|
                               ***    * *    * *



1:44


B
---------------------------------------------------------------------|
-----------------------------------------------------__--------------|
----------------------------------------------------/  \--------__---|
---------------------------------------------------3--2-3------/  \--|
-0--0---00-00---00-00---00-00---0--0---00-00------------------3--2-3-|
-0--0---00-00---00-00---00-00---0--0---00-00---000--------000--------|
 *  *   ** **   ** **   ** **   *  *   ** **   ***        ***

---------------------------------------------------------------------|
-----------------------------------------------------__--------------|
----------------------------------------------------/  \--------__---|
---------------------------------------------------3--2-3------/  \--|
-0--0---00-00---00-00---00-00---0--0---00-00------------------3--2-3-|
-0--0---00-00---00-00---00-00---0--0---00-00---000--------000--------|
 *  *   ** **   ** **   ** **   *  *   ** **   ***        ***

---------------------------------------------------------------------|
-----------------------------------------------------__--------------|
----------------------------------------------------/  \--------__---|
---------------------------------------------------3--2-3------/  \--|
-0--0---00-00---00-00---00-00---0--0---00-00------------------3--2-3-|
-0--0---00-00---00-00---00-00---0--0---00-00---000--------000--------|
 *  *   ** **   ** **   ** **   *  *   ** **   ***        ***

------------------------------------------------|
------------------------------------------------|
------------------------------------------------|
------------------------------------------------|
-0--0---00-00---00-00---00-00---0--0---00-00----|
-0--0---00-00---00-00---00-00---0--0---00-00----|
 *  *   ** **   ** **   ** **   *  *   ** **   

L
-----------------------------------|
-----------------------------------|
-----------------------------------|
-----------------------------------|
-8-8-8-7-7-7-3-3-3-----------------|
-------------------5-5-5-----------|
R
-----------------------------------|
-----------------------------------|
-----------------------------------|
-----------------------------------|
12-12-12-10-10-10------------------|
------------------10-10-10-5-5-5---|




2;11



B
---------------------------------------------------------------------------|
---------------------------------------------------------------------------|
----------------------------------------------------_----------------------|
---------------------------------------------------/ \--------------^------|
-----7----8----7---8-----7----8----7---8-----8----8-7-5-7~----5----5-3---3~|
-888---88---88---8---555---55---55---5---000---00---------333---33-----3---|
 ***   **   **   *   ***   **   **   *   ***   **         ***   **     *

---------------------------------------------------------------------------|
---------------------------------------------------------------------------|
----------------------------------------------------_----------------------|
---------------------------------------------------/ \--------------^------|
-----7----8----7---8-----7----8----7---8-----8----8-7-5-7~----5----5-3---3~|
-888---88---88---8---555---55---55---5---000---00---------333---33-----3---|
 ***   **   **   *   ***   **   **   *   ***   **         ***   **     *



2:24

L
----------------------------------------------------------------------------|
----------------------------------------------------_-----------------------|
---------------------------------------------------/ \---------------^------|
-----5----7----5---7-----5----7----5---7-----7----7-5-3-5~-----3----3-2---2~|
----------------------------------------------------------------------------|
-888---88---88---8---555---55---55---5---000---00----------333---33-----3---|
 ***   **   **   *   ***   **   **   *   ***   **          ***   **     *
R
---------------------------------------------------------------------------|
---------------------------------------------------------------------------|
-----------------------------------------------------_---------------------|
----------------------------------------------------/ \-------------^------|
-----7----8----7---8-----7----8----7---8-----8----8-7-5-7~----5----5-3---3~|
-888---88---88---8---555---55---55---5---000---00---------333---33-----3---|
 ***   **   **   *   ***   **   **   *   ***   **         ***   **     *


L
----------------------------------------------------------------------------|
----------------------------------------------------_-----------------------|
---------------------------------------------------/ \---------------^------|
-----5----7----5---7-----5----7----5---7-----7----7-5-3-5~-----3----3-2---2~|
----------------------------------------------------------------------------|
-888---88---88---8---555---55---55---5---000---00----------333---33-----3---|
 ***   **   **   *   ***   **   **   *   ***   **          ***   **     *
R
----------------------------------------------------------------------------|
----------------------------------------------------------------------------|
----------------------------------------------------_-----------------------|
---------------------------------------------------/ \---------------^------|
-----7----8----7---8-----7----8----7---8-----8----8-7-5-7~-----5----5-3---3~|
-888---88---88---8---555---55---55---5---000---00----------333---33-----3---|
 ***   **   **   *   ***   **   **   *   ***   **          ***   **     *


B
---------------------------------------------------------------|
---------------------------------------------------------------|
-2-------------------------------------------------------------|
-0-------------------------------------------------------------|
-0-------------------------------------------------------------|
-0-------------------------------------------------------------|



2:40


L
---------------------------------------------------|
---------------------------------------------------|
---------------------------------------------------|
---------------------------------------------------|
--------------------------------3-----8-----7-5-3--|
-0-0-0------0-0-0---------0-0-0---0-0---0-0--------|
 * * *      * * *         * * *   * *   * * 
R
---------------------------------------------------|
---------------------------------------------------|
---------------------------------------------------|
---------------------------------------------------|
-------5-7-8-------7-8-10-------3-----8-----7-5-3--|
-0-0-0-------0-0-0--------0-0-0---0-0---0-0--------|
 * * *       * * *        * * *   * *   * *



B
--------------------------------------------------------|
--------------------------------------------------------|
--------------------------------------------------------|
--------------------------------------------------------|
--------7-8-10-------8-10-12-------12-----10-----8-7-5--|
-5-5-5---------7-7-7---------8-888----8-8----8-8--------|
                               ***    * *    * *

--------------------------------------------------------|
--------------------------------------------------------|
--------------------------------------------------------|
--------------------------------------------------------|
--------7-8-10-------8-10-12-------12-----10-----8-7-5--|
-5-5-5---------7-7-7---------8-888----8-8----8-8--------|
                               ***    * *    * *

--------------------------------------------------------|
--------------------------------------------------------|
--------------------------------------------------------|
--------------------------------------------------------|
--------7-8-10-------8-10-12-------12-----10-----8-7-5--|
-5-5-5---------7-7-7---------8-888----8-8----8-8--------|
                               ***    * *    * *

--------------------------------------------------------|
--------------------------------------------------------|
--------------------------------------------------------|
--------------------------------------------------------|
--------7-8-10-------8-10-12-------12-----10-----8-7-5--|
-5-5-5---------7-7-7---------8-888----8-8----8-8--------|
                               ***    * *    * *



2:57


B
----------------------------------------------|
----------------------------------------------|
-2----------------------------7---------------|
-0-----------------------0----7---0-----------|
-0-----------------------0----5\--0-----------|
-0-----------------------0--------0----0-0-0--|
                                       * * *

--------------------------------------------------|
--------------------------------------------------|
--------------------------------------------------|
--------------------------------------------------|
--------------------------------------------------|
-000-0-0-0-0-000-0-0-0-0-000-0-000-0-000-0-0-0-0--|
 *** * * * * *** * * * * *** * *** * *** * * * *

--------------------------------------------------|
--------------------------------------------------|
--------------------------------------------------|
--------------------------------------------------|
--------------------------------------------------|
-000-0-0-0-0-000-0-0-0-0-000-0-000-0-000-0-0-0-0--|
 *** * * * * *** * * * * *** * *** * *** * * * *

--------------------------------------------------|
--------------------------------------------------|
--------------------------------------------------|
--------------------------------------------------|
--------------------------------------------------|
-000-0-0-0-0-000-0-0-0-0-000-0-000-0-000-0-0-0-0--|
 *** * * * * *** * * * * *** * *** * *** * * * *

--------------------------------------------------|
--------------------------------------------------|
--------------------------------------------------|
--------------------------------------------------|
--------------------------------------------------|
-000-0-0-0-0-000-0-0-0-0-000-0-000-0-000-0-0-0-0--|
 *** * * * * *** * * * * *** * *** * *** * * * *



3:17

-----------------------------------------|
-----------------------------------------|
-----------------------------------------|
-------0------------0--------------------|
-------0------------0--------------------|
-000-0-0------000-0-0------000-0-0-0-0---|
 *** *        *** *        *** * * * *

-----------------------------------------|
-----------------------------------------|
-----------------------------------------|
-------0------------0--------------------|
-------0------------0--------------------|
-000-0-0------000-0-0------000-0-0-0-0---|
 *** *        *** *        *** * * * *

-----------------------------------------|
-----------------------------------------|
-----------------------------------------|
-------0------------0--------------------|
-------0------------0--------------------|
-000-0-0------000-0-0------000-0-0-0-0---|
 *** *        *** *        *** * * * *

-----------------------------|
-----------------------------|
-----------------------------|
-------0------------0--------|
-------0------------0--------|
-000-0-0------0-0-0-0--------|
 *** *        * * *  |    




3:29


1
--------------------------------------------------------------|
--------------------------------------------------------------|
--------------------------------------------------------------|
---___--------------------------___-----------------^---------|
--/   \--3---------------------/   \--3-----/7--7-7-8-7-5-----|
-0-3-5-7---7-5--5/7-----------0-3-5-7---7-5-------------------|

2
---------------------------------------------------------------|
---------------------------------------------------------------|
---------------------------------------------------------------|
------------------7--------------------------10----------9-----|
------------------3---------------------------7----------5-----|
------------------3---------------------------7----------5-----|

1
--------------------------------------------------------------------|
--------------------------------------------------------------------|
---------------------------------------------------------_----------|
---___----------------------)(-------___----------------/ \---------|
--/   \--3-----------5/7-7-7--------/   \--3-----------5-7-5-3--2~--|
-0-3-5-7---7-5--5/7----------------0-3-5-7---7-5--5/7---------------|

2
--------------------------------------------------------------------|
--------------------------------------------------------------------|
--------------------------------------------------------------------|
------------------7---------------------------------10--------9-----|
------------------3----------------------------------7--------5-----|
------------------3----------------------------------7--------5-----|


1
---------------------------------------------|
---------------------------------------------|
---------------------------------------------|
---------------___-----------------^---------|
--------------/   \--3-----/7--7-7-8-7-5-----|
-7~----------0-3-5-7---7-5-------------------|

2
----------------------------------------------|
----------------------------------------------|
----------------------------------------------|
-7--------------------------10----------9-----|
-3---------------------------7----------5-----|
-3---------------------------7----------5-----|

1
--------------------------------------------------------------------|
--------------------------------------------------------------------|
---------------------------------------------------------_----------|
---___----------------------)(-------___----------------/ \---------|
--/   \--3-----------5/7-7-7--------/   \--3-----------5-7-5-3--2~--|
-0-3-5-7---7-5--5/7----------------0-3-5-7---7-5--5/7---------------|

2
--------------------------------------------------------------------|
--------------------------------------------------------------------|
--------------------------------------------------------------------|
------------------7---------------------------------10--------9-----|
------------------3----------------------------------7--------5-----|
------------------3----------------------------------7--------5-----|




3:55

1
------------------------------------------------------|
------------------------------------------------------|
-----10-14-14-14--16-17-------10-14-14-14--14-12-12---|
-3----X--X--X--X---X--X---7----X--X--X--X---X--X--X---|
-3---10/12-12-12--14-15---7---10/12-12-12--12\10-10---|
-3------------------------7---------------------------|
2
------------------------------------------------------|
------------------------------------------------------|
------------------------------------------------------|
-3--------------------5--7------------------5---------|
-3--------------------5--7------------------5---------|
-3--------------------5--7------------------5---------|


1                                              ____
----------------------------------------------/    \--------___---|
----------------------------------------8-10-8-10-8-0------/   \--|
-----10-14-14-14--16-17-------10-14-14----------------7-9-7-9-7-0-|
-3----X--X--X--X---X--X---7----X--X--X----------------------------|
-3---10/12-12-12--14-15---7---10/12-12----------------------------|
-3------------------------7---------------------------------------|
2                                             ___
---------------------------------------------/   \---------___----|
----------------------------------------5-6-5-6-5-0-------/   \---|
-----------------------------------------------------7-5-4-5-4-0--|
-3--------------------5--7----------------------------------------|
-3--------------------5--7----------------------------------------|
-3--------------------5--7----------------------------------------|


1
------------------------------------------------------|
------------------------------------------------------|
-----10-14-14-14--16-17-------10-14-14-14--14-12-12---|
-3----X--X--X--X---X--X---7----X--X--X--X---X--X--X---|
-3---10/12-12-12--14-15---7---10/12-12-12--12\10-10---|
-3------------------------7---------------------------|
2
------------------------------------------------------|
------------------------------------------------------|
------------------------------------------------------|
-3--------------------5--7------------------5---------|
-3--------------------5--7------------------5---------|
-3--------------------5--7------------------5---------|


1                                              ____
----------------------------------------------/    \--------___---|
----------------------------------------8-10-8-10-8-0------/   \--|
-----10-14-14-14--16-17-------10-14-14----------------7-9-7-9-7-0-|
-3----X--X--X--X---X--X---7----X--X--X----------------------------|
-3---10/12-12-12--14-15---7---10/12-12----------------------------|
-3------------------------7---------------------------------------|
2                                             ___
---------------------------------------------/   \---------___----|
----------------------------------------5-6-5-6-5-0-------/   \---|
-----------------------------------------------------7-5-4-5-4-0--|
-3--------------------5--7----------------------------------------|
-3--------------------5--7----------------------------------------|
-3--------------------5--7----------------------------------------|




4:20

       __              __              __              __         
1     /  \            /  \            /  \            /  \
----17-19-17--------17-19-17--------17-19-17--------17-19-17-----|
---17------17------17------17------17------17------17------17----|
--17--------17----17--------17----17--------17----17--------17---|
-19----------19--19----------19--19----------19--19----------19--|
-----------------------------------------------------------------|
-----------------------------------------------------------------|
2
-----------------------------------------------------------------|
-----------------------------------------------------------------|
-----------------------------------------------------------------|
-3------------------------------------------------5--------------|
-3------------------------------------------------5--------------|
-3------------------------------------------------5--------------|


       __              __              __              __         
1     /  \            /  \            /  \            /  \
----17-20-17--------17-20-17--------17-20-17--------17-22-17-----|
---17------17------17------17------17------17------17------17----|
--17--------17----17--------17----17--------17----17--------17---|
-19----------19--19----------19--19----------19--19----------19--|
-----------------------------------------------------------------|
-----------------------------------------------------------------|
2
-----------------------------------------------------------------|
-----------------------------------------------------------------|
-----------------------------------------------------------------|
-7------------------------------------------------5--------------|
-7------------------------------------------------5--------------|
-7------------------------------------------------5--------------|


       __              __              __              __         
1     /  \            /  \            /  \            /  \
----17-19-17--------17-19-17--------17-19-17--------17-19-17-----|
---17------17------17------17------17------17------17------17----|
--17--------17----17--------17----17--------17----17--------17---|
-19----------19--19----------19--19----------19--19----------19--|
-----------------------------------------------------------------|
-----------------------------------------------------------------|
2
-----------------------------------------------------------------|
-----------------------------------------------------------------|
-----------------------------------------------------------------|
-3------------------------------------------------5--------------|
-3------------------------------------------------5--------------|
-3------------------------------------------------5--------------|



       __              __                 
1     /  \            /  \               ____
----17-20-17--------17-20-17------------/    \--------___--------|
---17------17------17------17-----8-10-8-10-8-0------/   \-------|
--17--------17----17--------17------------------7-9-7-9-7-0------|
-19----------19--19----------19----------------------------------|
-----------------------------------------------------------------|
-----------------------------------------------------------------|
2                                       ___
---------------------------------------/   \---------___---------|
----------------------------------5-6-5-6-5-0-------/   \--------|
-----------------------------------------------7-5-4-5-4-0-------|
-0---------------------------------------------------------------|
-0---------------------------------------------------------------|
-0---------------------------------------------------------------|





4:33

   __       __       __       __       __       __      __      __
1 /  \     /  \     /  \     /  \     /  \     /  \    /  \    /  \   
17-0-----17-0-----17-0-----17-0-----17-0-----17-0-----15-0---15-0---|
----1013-----1013-----1013-----1013-----1013-----1013-----812----812|
--------------------------------------------------------------------|
--------------------------------------------------------------------|
--------------------------------------------------------------------|
--------------------------------------------------------------------|
 T        T       T         T        T        T        T       T
2
-------------------------------------------------------------|
-------------------------------------------------------------|
-------------------------------------------------------------|
3---3---3---3---3---3---3---3---3---3---3---3---5---5---5---5|
3---3---3---3---3---3---3---3---3---3---3---3---5---5---5---5|
3---3---3---3---3---3---3---3---3---3---3---3---5---5---5---5|
*   *   *   *   *   *   *   *   *   *   *   *   *   *   *   *


   __       __       __       __      __     __      __      ____
1 /  \     /  \     /  \     /  \    /  \   /  \    /  \    /    \   
17-0-----17-0-----17-0-----17-0-------------------15-0----15-0-----|
----1013-----1013-----1013-----1013-170812-170812-----1013----1013-|
-------------------------------------------------------------------|
-------------------------------------------------------------------|
-------------------------------------------------------------------|
-------------------------------------------------------------------|
 T        T        T        T        T      T      T       T

--------------------------------------------------------------|
--------------------------------------------------------------|
--------------------------------------------------------------|
-7---7---7---7---7---7---7---7---7---7---7---7---5---5---5---5|
-7---7---7---7---7---7---7---7---7---7---7---7---5---5---5---5|
-7---7---7---7---7---7---7---7---7---7---7---7---5---5---5---5|
 *   *   *   *   *   *   *   *   *   *   *   *   *   *   *   *


   __       __       __       __       __       __      __      __
1 /  \     /  \     /  \     /  \     /  \     /  \    /  \    /  \   
17-0-----17-0-----17-0-----17-0-----17-0-----17-0-----15-0---15-0---|
----1013-----1013-----1013-----1013-----1013-----1013-----812----812|
--------------------------------------------------------------------|
--------------------------------------------------------------------|
--------------------------------------------------------------------|
--------------------------------------------------------------------|
 T        T       T         T        T        T        T       T
2
-------------------------------------------------------------|
-------------------------------------------------------------|
-------------------------------------------------------------|
3---3---3---3---3---3---3---3---3---3---3---3---5---5---5---5|
3---3---3---3---3---3---3---3---3---3---3---3---5---5---5---5|
3---3---3---3---3---3---3---3---3---3---3---3---5---5---5---5|
*   *   *   *   *   *   *   *   *   *   *   *   *   *   *   *


   __        __        __        __       
1 /  \      /  \      /  \      /  \           ____
17-0------17-0------17-0------17-0------------/    \--------___----|
----1013------1013------1013------1013--8-10-8-10-8-0------/   \---|
------------------------------------------------------7-9-7-9-7-0--|
-------------------------------------------------------------------|
-------------------------------------------------------------------|
-------------------------------------------------------------------|
 T         T         T         T         
2                                            ___
--------------------------------------------/   \---------___------|
---------------------------------------5-6-5-6-5-0-------/   \-----|
----------------------------------------------------7-5-4-5-4-0----|
-0----0----0----0----0----0----0----0------------------------------|
-0----0----0----0----0----0----0----0------------------------------|
-0----0----0----0----0----0----0----0------------------------------|
 *    *    *    *    *    *    *    *   




4:46

       __              __              __              __         
1     /  \            /  \            /  \            /  \
----17-19-17--------17-19-17--------17-19-17--------17-19-17-----|
---17------17------17------17------17------17------17------17----|
--17--------17----17--------17----17--------17----17--------17---|
-19----------19--19----------19--19----------19--19----------19--|
-----------------------------------------------------------------|
-----------------------------------------------------------------|
CONT
       __              __              __              __         
1     /  \            /  \            /  \            /  \
----17-20-17--------17-20-17--------17-20-17--------17-22-17-----|
---17------17------17------17------17------17------17------17----|
--17--------17----17--------17----17--------17----17--------17---|
-19----------19--19----------19--19----------19--19----------19--|
-----------------------------------------------------------------|
-----------------------------------------------------------------|

2
------------------------------------------------------|
------------------------------------------------------|
-----10-14-14-14--16-17-------10-14-14-14--14-12-12---|
-3----X--X--X--X---X--X---7----X--X--X--X---X--X--X---|
-3---10/12-12-12--14-15---7---10/12-12-12--12\10-10---|
-3------------------------7---------------------------|
3
------------------------------------------------------|
------------------------------------------------------|
------------------------------------------------------|
-3--------------------5--7------------------5---------|
-3--------------------5--7------------------5---------|
-3--------------------5--7------------------5---------|


       __              __              __              __         
1     /  \            /  \            /  \            /  \
----17-19-17--------17-19-17--------17-19-17--------17-19-17-----|
---17------17------17------17------17------17------17------17----|
--17--------17----17--------17----17--------17----17--------17---|
-19----------19--19----------19--19----------19--19----------19--|
-----------------------------------------------------------------|
-----------------------------------------------------------------|
CONT
       __              __                 
1     /  \            /  \               ____
----17-20-17--------17-20-17------------/    \--------___--------|
---17------17------17------17-----8-10-8-10-8-0------/   \-------|
--17--------17----17--------17------------------7-9-7-9-7-0------|
-19----------19--19----------19----------------------------------|
-----------------------------------------------------------------|
-----------------------------------------------------------------|

2                                              
------------------------------------------------------------------|
------------------------------------------------------------------|
-----10-14-14-14--16-17-------10-14-14----------------------------|
-3----X--X--X--X---X--X---7----X--X--X----------------------------|
-3---10/12-12-12--14-15---7---10/12-12----------------------------|
-3------------------------7---------------------------------------|
3                                             ___
---------------------------------------------/   \---------___----|
----------------------------------------5-6-5-6-5-0-------/   \---|
-----------------------------------------------------7-5-4-5-4-0--|
-3--------------------5--7----------------------------------------|
-3--------------------5--7----------------------------------------|
-3--------------------5--7----------------------------------------|



4:58


W/2 OTHER GUITARS AGAIN
   __       __       __       __       __       __      __      __
1 /  \     /  \     /  \     /  \     /  \     /  \    /  \    /  \   
17-0-----17-0-----17-0-----17-0-----17-0-----17-0-----15-0---15-0---|
----1013-----1013-----1013-----1013-----1013-----1013-----812----812|
--------------------------------------------------------------------|
--------------------------------------------------------------------|
--------------------------------------------------------------------|
--------------------------------------------------------------------|
 T        T       T         T        T        T        T       T


   __        __        __        __      __     __      __      __
1 /  \      /  \      /  \      /  \    /  \   /  \    /  \    /  \   
17-0------17-0------17-0------17-0-------------------15-0----15-0----|
----1013------1013------1013------1013-170812-170812-----1013----1013|
---------------------------------------------------------------------|
---------------------------------------------------------------------|
---------------------------------------------------------------------|
---------------------------------------------------------------------|
 T         T         T         T         T         T         T       T

   __       __       __       __       __       __      __      __
1 /  \     /  \     /  \     /  \     /  \     /  \    /  \    /  \   
17-0-----17-0-----17-0-----17-0-----17-0-----17-0-----15-0---15-0---|
----1013-----1013-----1013-----1013-----1013-----1013-----812----812|
--------------------------------------------------------------------|
--------------------------------------------------------------------|
--------------------------------------------------------------------|
--------------------------------------------------------------------|
 T        T       T         T        T        T        T       T

   __        __        __        __       
1 /  \      /  \      /  \      /  \           ____
17-0------17-0------17-0------17-0------------/    \--------___----|
----1013------1013------1013------1013--8-10-8-10-8-0------/   \---|
------------------------------------------------------7-9-7-9-7-0--|
-------------------------------------------------------------------|
-------------------------------------------------------------------|
-------------------------------------------------------------------|
 T         T         T         T         





5:11


W/OTHER 2 GUITARS AGAIN
   __       __       __       __       __       __      __      __
1 /  \     /  \     /  \     /  \     /  \     /  \    /  \    /  \   
17-0-----17-0-----17-0-----17-0-----17-0-----17-0-----15-0---15-0---|
----1013-----1013-----1013-----1013-----1013-----1013-----812----812|
--------------------------------------------------------------------|
--------------------------------------------------------------------|
--------------------------------------------------------------------|
--------------------------------------------------------------------|
 T        T       T         T        T        T        T       T


 
   __       __      __      __      __      __     __      __
  /  \     /  \    /  \    /  \    /  \    /  \   /  \    /  \
-15-0----15-0----15-0----15-0----15-0----15-0--------------------|
-----812-----812-----812-----812-----812-----812-170812-170812---|
-----------------------------------------------------------------|
-----------------------------------------------------------------|
-----------------------------------------------------------------|
-----------------------------------------------------------------|
 T        T       T       T       T       T       T      T


   __       __       __       __       __       __      __      __
1 /  \     /  \     /  \     /  \     /  \     /  \    /  \    /  \   
17-0-----17-0-----17-0-----17-0-----17-0-----17-0-----15-0---15-0---|
----1013-----1013-----1013-----1013-----1013-----1013-----812----812|
--------------------------------------------------------------------|
--------------------------------------------------------------------|
--------------------------------------------------------------------|
--------------------------------------------------------------------|
 T        T       T         T        T        T        T       T

   __       __      __      __     
  /  \     /  \    /  \    /  \           ____
-15-0----15-0----15-0----15-0------------/    \--------___------|
-----812-----812-----812-----812---8-10-8-10-8-0------/   \-----|
-------------------------------------------------7-9-7-9-7-0----|
----------------------------------------------------------------|
----------------------------------------------------------------|
----------------------------------------------------------------|
 T        T       T       T       

REPEATS /FADES
comments
We did not receive enough feedback on this tab! Please rate:
print report bad tab
1 2 3 4 5
I want to post or [tab]
guest
You may want to rate the tab now too:
select rating
Please do not post tabs as comments. Select "correction" instead!