Oops, an error
Loading. Please wait.

Idols And Anchors Tab

ver3
ver3

Intro

Solo

Whole song

More versions @911Tabs.com
37,314 views 177 this week
7 commentsread comments
1 2 3 4 5
excellent!
x 14
Autoscroll
+/-
esc
set tempo
stop
Contributor
WARNING: You are trying to view
                                    content from Ultimate-Guitar.com
                                    in an unauthorized application,
                                    which is prohibited.

                                    Please use an official Ultimate
                                    Guitar Tabs application for iPhone,
                                    iPad or Android to access legitimate
                                    chords, guitar, bass, and drum tabs
                                    from Ultimate-Guitar.com database.

                                    Type "ultimate guitar tabs" in Apple
                                    App Store's or Android Market's
                                    search to find the application.
DROP D TUNING

INTRO
GUITAR 1
C#|------------------------------------------|
G#|------10----10----------10----10----------|
E |---------12----12----------12----12-------|
B |-12---------------12----------------12----|
F#|------------------------------------------|
B |------------------------------------------|

GUITAR 2
C#|----------------------------------------------|
G#|----------------------------------------------|
E |----------------------------------------------|
B |----------------------------------------------|
F#|-8----------------5-----------------0---------|
B |-8----------------5-----------------0---------|

GUITAR 1
C#|------------------------------------------|
G#|------10----10----------13----13----------|
E |---------12----12----------10----10-------|
B |-12---------------12----------------------|
F#|------------------------------------------|
B |------------------------------------------|

GUITAR 2
C#|-------------------------------------------------------|
G#|-------------------------------------------------------|
E |-------------------------------------------------------|
B |-------------------------------------------------------|
F#|-8----------------5-----------------0------------------|
B |-8----------------5-----------------0-000-000-000-0----|

guitar 1 plays those intro riffs when guitar 2 plays this
C#|-----------------------------------------------------------|
G#|-----------------------------------------------------------|
E |-----------------------------------------------------------|
B |-8--3---3--------3---3-------------------------------------|
F#|-8----7---7---5----7---7-------0---------------------------|
B |-8------------5----------------0-000-000-000-000---000-000-|

C#|-----------------------------------------------------------------|
G#|-----------------------------------------------------------------|
E |-----------------------------------------------------------------|
B |-8--3---3--------3----7h8p7--------------------------7----7------|
F#|-8----7---7---5----7--------8--0-------------0---------10---10-0-|
B |-8------------5----------------0-0-0-00-00-000--0-0------------0-|

RIFF 2
guitar 1
C#|-----------------------------------|
G#|-----------------------------------|
E |-----------------------------------|
B |-----------------------------------|
F#|-----8---8---5---8---8---5h8p5---5-|
B |-5-5---5---5---5---5---5-------8---|

C#|-----------------------------------------------|
G#|-----------------------------------------------|
E |-----------------------------------------------|
B |-----------------------------------------------|
F#|----8---7h8p7----7------10---10h12p10---8------|
B |-7-7--7-------10----8-8----8----------8--------|

C#|-----------------------------------|----------------------------------|
G#|-----------------------------------|----------------------------------|
E |-----------------------------------|----------------------------------|
B |-----------------------------------|----------------------------------|
F#|-----8---8---5---8---8---5h8p5---5-|-10--10---8---8---7---7-----------|
B |-5-5---5---5---5---5---5-------8---|---7----7---7---7---7---10-7-10-7-|

Guitar 2 plays like this at the last two parts i think (check song for timing)
C#|-------------------------------|
G#|-------------------------------|
E |-------------------------------|
B |-------------------------------|
F#|-5-5------7---7---3-3-3--------|
B |-5-5------7---7---3-3-3--------|
then both guitarist go for the same riff

then comes riff 3
C#|------------------------------------------------------------------------|
G#|------------------------------------------------------------------------|
E |------------------------------------------------------------------------|
B |--------------------------------------7---------------------------------|
F#|7h8p7---0------7h8p7----0------7h8p7-----10--8--7--10-7h10p7h10p7h8p7h8-|
B |-----10-0-0-0-0------10-0-0-0-0-----10--0--0--0---0---------------------|

C#|----------------------------------------------------------------------|
G#|----------------------------------------------------------------------|
E |----------------------------------------------------------------------|
B |----------------------------------------------------------------------|
F#|7h8p7---0------7h8p7----0------7h8p7---8--7-----------8-7h8p7---------|
B |-----10-0-0-0-0------10-0-0-0-0-----10--0--0-10-0-5-0---------10------|

intro comes again but guitar 2 plays this [natural pinch]
C#|-----------------------------------------------------------|
G#|-----------------------------------------------------------|
E |-----------------------------------------------------------|
B |-------------------------------------------------------[9]-|
F#|-8----------------5-----------------0----------------------|
B |-8----------------5-----------------0-000-000-000-0--0-----|

bridge
|--------------------------------------------------------------------|
|--------------------------------------------------------------------|
|-----------------------------------t12p7-(x8)-t14p7-(x4)------------|
|-t12p8-(x8)-t14p10-(x4)-t15p10-(x4)---------------------t14p10-(x4)-|
|--------------------------------------------------------------------|
|--------------------------------------------------------------------| 

bridge riff 2
C#|------------------------------------|
G#|------------------------------------|
E |------------------------------------|
B |-9/10\9-5-7-------------------------|
F#|-7/8-\7-3-5-------0-------0-------0-|
B |------------0-0-0-0-0-0-0-0-0-0-0-0-|


C#|--------------------------------------|
G#|--------------------------------------|
E |--------------------------------------|
B |-9/10\9-5-7-----------------------5---|
F#|-7/8-\7-3-5-----------------------3---|
B |------------0-0-0-5-0-3-0-2-2h3p2-----|

then comes intro riff 2 but it ends like this
guitar 2 ( i dont remember guitar 1 )
C#|-----------------------------------|
G#|-----------------------------------|
E |------------10-9-------------9-7---|
B |----0h8h10-----------0h8h10--------|
F#|-0----------------0----------------|
B |-0----------------0----------------|

C#|------------------------|
G#|------------------------|
E |------------------------|
B |-----------------7------|
F#|-8---12-10-8--5----8-5--|
B |-8------------5---------|

C#|-----------------------------------|
G#|-----------------------------------|
E |------------10-9-------------9-7---|
B |----0h8h10-----------0h8h10--------|
F#|-0----------------0----------------|
B |-0----------------0----------------|

C#|------------------------|
G#|------------------------|
E |---------------------7--|
B |-----------10----7------|
F#|-8---12-10----5----8----|
B |-8------------5---------|

SOLO
C#|-------------------------------------------------------------------|
G#|-----10------------------------------------------------------------|
E |-10--9------17-------15-------14------12-------12h14p12----12-14br-|
B |-10--7---14----14-14----14-14----14-14---14-14----------15---------|
F#|-10----------------------------------------------------------------|
B |-------------------------------------------------------------------|

C#|---------------17-13---15-12---13-10-------13p12--------------|
G#|-13/17b17rbr---TREMOLO THESE NOTES---13/15-------13/15--------|
E |---------------CHECK THE SONG FOR THE TEMPO-------------12----|
B |--------------------------------------------------------------|
F#|--------------------------------------------------------------|
B |--------------------------------------------------------------|

C#|----------------------------------------------10-12p10-------|
G#|-------------------------------------------10----------10----|
E |--t14p10-(x8)-t14p9-(x4)-t12p7-(x4)-----10----------------10-|
B |-------------------------------------12----------------------|
F#|-------------------------------------------------------------|
B |-------------------------------------------------------------|

C#|-------12-13p12------17p13-------17p13-----15p13------15b-13-15brbr|
G#|-----13---------13----------17p13-----17p13-----17p13--------------|
E |---14--------------14----------------------------------------------|
B |-15----------------------------------------------------------------|
F#|-------------------------------------------------------------------|
B |-------------------------------------------------------------------|

C#|-13h15------------20----------20----------17-15-----------------|
G#|-------17b-17br------18-17-------18-17----------18-17-17h18p17--|
E |---------------------------19----------19-----------------------|
B |----------------------------------------------------------------|
F#|----------------------------------------------------------------|
B |----------------------------------------------------------------|

C#|----------------------------|
G#|-13----10----8----5b-5br----|
E |----------------------------|
B |----------------------------|
F#|----------------------------|
B |----------------------------| 
7 comments total. Showing first comments.
+1 reply
juhizz wrote on May 14 2009, 03:22 am

PLEASE NOTE ! My mistake,, tuning should be drop B not Drop D

+1 reply
feedemtothepigs wrote on August 29 2009, 09:37 am

Is drop B tuned 1 1/2 or 2 (or more) steps down?

0 reply
juhizz wrote on August 29 2009, 03:31 pm

1 ½ steps down

I want to post or [tab]
guest
You may want to rate the tab now too:
select rating
Please do not post tabs as comments. Select "correction" instead!