Oops, an error
Loading. Please wait.

Its Hard To Speak Without A Tongue Tab

ver1
ver1

Whole song

Interactive

More versions @911Tabs.com
7,321 views 60 this week
no commentswrite comment
1 2 3 4 5
excellent!
x 5
Autoscroll
+/-
esc
set tempo
stop
Contributor
Tuning
B F# B E G# C#
Hey! There's an official Ultimate Guitar app which is ideal
for learning songs when you're away from computer. Get the app
WARNING: You are trying to view
                                    content from Ultimate-Guitar.com
                                    in an unauthorized application,
                                    which is prohibited.

                                    Please use an official Ultimate
                                    Guitar Tabs application for iPhone,
                                    iPad or Android to access legitimate
                                    chords, guitar, bass, and drum tabs
                                    from Ultimate-Guitar.com database.

                                    Type "ultimate guitar tabs" in Apple
                                    App Store's or Android Market's
                                    search to find the application.
PARKWAY DRIVE 
IT'S HARD TO SPEAK WITHHOUT A TONGUE

B-F#-B-E-G#-C#

TABBED BY andherembrace



INTRO
------------------------------------------------------------------------|
------------------------------------------------------------------------|
------------0----------------5-----------------9-----------------5------|
-------7------7----------8-----8-7-------10------10----------5-----5-3--|
-----8---8------8------5---5-----------8----8-------8------3---3--------|
-8-----------------5---------------0-------------------3----------------|

------------------------------------------------------------------------|
------------------------------------------------------------------------|
------------0----------------5-----------------9-----------------5------|
-------7------7----------8-----8-7-------10------10----------5-----5-3--|
-----8---8------8------5---5-----------8----8-------8------3---3--------|
/8-----------------5---------------0-------------------3----------------|

------------------------------------------------------------------------|
------------------------------------------------------------------------|
------------0----------------5-----------------9-----------------5------|
-------7------7----------8-----8-7-------10------10----------5-----5-3--|
-----8---8------8------5---5-----------8----8-------8------3---3--------|
/8-----------------5---------------0-------------------3----------------|

-------------------------------------|
-------------------------------------|
------------0----------------5-------|
-------7------7----------8-----8-7---|
-----8---8------8------5---5---------|
/8-----------------5-----------------|



0:25

B
-----------------------------------------------------------------|
--------------------------------------------------------8--------|
------------------9---10---9-10-9------------------9----9---9-10-|
------------------7---7----7--7-7------------------7---10---7-7--|
-0-0-0-0-0-0-0-0----8----8---------0-0-0-0-0-0-0-0---0----0------|
-0-0-0-0-0-0-0-0-------------------0-0-0-0-0-0-0-0---------------|
   * * *   * * *    *    *           * * *   * * *   *    *
LET RING
----------------------------------|
----------------------------------|
----------0---------------5-------|
------7-----7---------8-----8-7---|
----8---8-----8-----5---5---------|
-8---------------5----------------|
    *   *           *   * 



-----------------------------------------------------------------|
--------------------------------------------------------8--------|
------------------9---10---9-10-9------------------9----9--10-10-|
------------------7---7----7--7-7------------------7---10---7-7--|
-0-0-0-0-0-0-0-0----8----8---------0-0-0-0-0-0-0-0---0----0------|
-0-0-0-0-0-0-0-0-------------------0-0-0-0-0-0-0-0---------------|
   * * *   * * *    *    *           * * *   * * *   *    *
LET RING
----------------------------------|
----------------------------------|
----------0---------------5-------|
------7-----7---------8-----8-7---|
----8---8-----8-----5---5---------|
-8---------------5----------------|
    *   *           *   * 



-----------------------------------------------------------------|
--------------------------------------------------------8--------|
------------------9---10---9-10-9------------------9----9--10-10-|
------------------7---7----7--7-7------------------7---10---7-7--|
-0-0-0-0-0-0-0-0----8----8---------0-0-0-0-0-0-0-0---0----0------|
-0-0-0-0-0-0-0-0-------------------0-0-0-0-0-0-0-0---------------|
   * * *   * * *    *    *           * * *   * * *   *    *
LET RING
-----------------------------------|
-----------------------------------|
----------0---------------5--------|
------7-----7---------8-----8-7----|
----8---8-----8-----5---5--------0-|
-8---------------5---------------0-|
    *   *           *   * 


0:54

1
--------------------------__----------------------------------_-------|
--------------------8----/  \--------------------------------/ \------|
--10---7---9---10-------9-10-9-7------10---7---9---10---9---7-9-7-----|
7----7---7---7----7---7----------7--7----7---7---7----7---7-------10--|
---------------------------------------------------------------------8|
----------------------------------------------------------------------|
*    *   *   *    *   *             *    *   *   *    *   *
2
----------------------------------------------------------------|
----------------------------------------------------------------|
----------------------------------------------------------------|
---------------------------------p------------------------------|
0---------------------------------s-----------------------------|
0----------------------------------\----------------------------|

1
-------_-------------_-----------|
------/ \-----------/ \----------|
-----7-9-7---------7-9-7---------|
-----------10-5----------10-7----|
---------------------------------|
---------------------------------|
2
---------------------------------|
---------------------------------|
---------------------------------|
10-------------12----------14----|
-8-------------10----------12----|
-8-------------10----------12\---|



1
--------------------------__----------------------------------_-------|
--------------------8----/  \--------------------------------/ \------|
--10---7---9---10-------9-10-9-7------10---7---9---10---9---7-9-7-----|
7----7---7---7----7---7----------7--7----7---7---7----7---7-------10--|
---------------------------------------------------------------------8|
----------------------------------------------------------------------|
*    *   *   *    *   *             *    *   *   *    *   *
2
--------------------------------------------------------------|
--------------------------------------------------------------|
--------------------------------------------------------------|
--00--00--00--00--00101010-12-14----00--00--00--00--00--00-0--|
--00--00--00--00--00-8-8-8-10-12----00--00--00--00--00--00-0--|
--00--00--00--00--00-8-8-8-10-12\---00--00--00--00--00--00-0--|
  **  **  **  **  **                **  **  **  **  **  ** *
1
-------_-------------_-----------|
------/ \-----------/ \----------|
-----7-9-7---------7-9-7---------|
-----------10-5----------10-7----|
---------------------------------|
---------------------------------|
2
---------------------------------|
---------------------------------|
---------------------------------|
10-------------12----------14----|
-8-------------10----------12----|
-8-------------10----------12\---|


1
--------------------------__----------------------------------_-------|
--------------------8----/  \--------------------------------/ \------|
--10---7---9---10-------9-10-9-7------10---7---9---10---9---7-9-7-----|
7----7---7---7----7---7----------7--7----7---7---7----7---7-------10--|
---------------------------------------------------------------------8|
----------------------------------------------------------------------|
*    *   *   *    *   *             *    *   *   *    *   *
2
--------------------------------------------------------------|
--------------------------------------------------------------|
--------------------------------------------------------------|
--00--00--00--00--00101010-12-14----00--00--00--00--00--00-0--|
--00--00--00--00--00-8-8-8-10-12----00--00--00--00--00--00-0--|
--00--00--00--00--00-8-8-8-10-12\---00--00--00--00--00--00-0--|
  **  **  **  **  **                **  **  **  **  **  ** *
1
-------_-------------_-----------|
------/ \-----------/ \----------|
-----7-9-7---------7-9-7---------|
-----------10-5----------10-7----|
---------------------------------|
---------------------------------|
2
---------------------------------|
---------------------------------|
---------------------------------|
10-------------12----------14----|
-8-------------10----------12----|
-8-------------10----------12\---|


1
--------------------------__----------------------------------_-------|
--------------------8----/  \--------------------------------/ \------|
--10---7---9---10-------9-10-9-7------10---7---9---10---9---7-9-7-----|
7----7---7---7----7---7----------7--7----7---7---7----7---7-------10--|
---------------------------------------------------------------------8|
----------------------------------------------------------------------|
*    *   *   *    *   *             *    *   *   *    *   *
2
--------------------------------------------------------------|
--------------------------------------------------------------|
--------------------------------------------------------------|
--------------------------------------------------------------|
--0-0-0-0----00000---0-0-0-0--------0-0-0-0----00000---0-0-0--|
--0-0-0-0----00000---0-0-0-0--------0-0-0-0----00000---0-0-0--|
  * * * *    *****   * * * *        * * * *    *****   * * *   
1
-------_-------------_-----------|
------/ \-----------/ \----------|
-----7-9-7---------7-9-7---------|
-----------10-5----------10-7----|
---------------------------------|
---------------------------------|
2
---------------------------------|
---------------------------------|
---------------------------------|
10-------------12----------14----|
-8-------------10----------12----|
-8-------------10----------12\---|


1
--------------------------__----------------------------------_-------|
--------------------8----/  \--------------------------------/ \------|
--10---7---9---10-------9-10-9-7------10---7---9---10---9---7-9-7-----|
7----7---7---7----7---7----------7--7----7---7---7----7---7-------10--|
---------------------------------------------------------------------8|
----------------------------------------------------------------------|
*    *   *   *    *   *             *    *   *   *    *   *
2
--------------------------------------------------------------|
--------------------------------------------------------------|
--------------------------------------------------------------|
--------------------------------------------------------------|
--0-0-0-0----00000---0-0-0-0--------0-0-0-0----00000---0-0-0--|
--0-0-0-0----00000---0-0-0-0--------0-0-0-0----00000---0-0-0--|
  * * * *    *****   * * * *        * * * *    *****   * * *   
1
-------_-------------_-----------|
------/ \-----------/ \----------|
-----7-9-7---------7-9-7---------|
-----------10-5----------10-7----|
---------------------------------|
---------------------------------|
2
---------------------------------|
---------------------------------|
---------------------------------|
10-------------12----------14----|
-8-------------10----------12----|
-8-------------10----------12\---|




1;30

-----------------------------------------------------------------|
-----------------------------------------------------------------|
-----------------------------------------------------------------|
----------------------------------------7------------------------|
-0-----5---7-8-5-0-----5---10-8---0---------8-10-7-0-----3---7-5-|
-0-0-0---0-------0-0-0---0------0-0-0-0---0--------0-0-0---0-----|
   * *   *         * *   *      *   * *   *          * *   *

--------------------------------------------------------------------|
--------------------------------------------------------------------|
--------------------------------------------------------------------|
-------------------5---------------7-----------------------5-----7--|
---0-----5---7-8-7-------8---7-8-5-------10---8-10-7-3-5---3-----5--|
-0-0-0-0---0---------0-0---0---------0-0----0--------3/5-0---0-0----|
 *   * *   *         * *   *         * *    *            *   * *


-----------------------------------------------------------------|
-----------------------------------------------------------------|
-----------------------------------------------------------------|
----------------------------------------7------------------------|
-0-----5---7-8-5-0-----5---10-8---0---------8-10-7-0-----3---7-5-|
-0-0-0---0-------0-0-0---0------0-0-0-0---0--------0-0-0---0-----|
   * *   *         * *   *      *   * *   *          * *   *

--------------------------------------------------------------------|
--------------------------------------------------------------------|
--------------------------------------------------------------------|
-------------------5---------------7-----------------------5-----7--|
---0-----5---7-8-7-------8---7-8-5-------10---8-10-7-3-5---3-----5--|
-0-0-0-0---0---------0-0---0---------0-0----0--------3/5-0---0-0----|
 *   * *   *         * *   *         * *    *            *   * *


1;50

L
--------------------------__----------------------------------_-------|
--------------------8----/  \--------------------------------/ \------|
--10---7---9---10-------9-10-9-7------10---7---9---10---9---7-9-7-----|
7----7---7---7----7---7----------7--7----7---7---7----7---7-------10--|
---------------------------------------------------------------------8|
----------------------------------------------------------------------|
*    *   *   *    *   *             *    *   *   *    *   *
R
-----------------------------------------------------------------------|
-------------------11---/\-----------------------------------/\--------|
--14---10---12--14----121412-10-------14---10---12--14-12--101210------|
0----0----0----0--0--0----------12--0----0----0----0--0--0-------14-10-|
-----------------------------------------------------------------------|
-----------------------------------------------------------------------|
*    *    *    *  *  *              *    *    *    *  *  *             
L
-------_-------------_-----------|
------/ \-----------/ \----------|
-----7-9-7---------7-9-7---------|
-----------10-5----------10-7----|
---------------------------------|
---------------------------------|
R
---------------------------------|
------/\------------/\-----------|
----101210--------101210----10---|
-----------14-12---------14------|
---------------------------------|
---------------------------------|


L
--------------------------__----------------------------------_-------|
--------------------8----/  \--------------------------------/ \------|
--10---7---9---10-------9-10-9-7------10---7---9---10---9---7-9-7-----|
7----7---7---7----7---7----------7--7----7---7---7----7---7-------10--|
---------------------------------------------------------------------8|
----------------------------------------------------------------------|
*    *   *   *    *   *             *    *   *   *    *   *
R
-----------------------------------------------------------------------|
-------------------11---/\-----------------------------------/\--------|
--14---10---12--14----121412-10-------14---10---12--14-12--101210------|
0----0----0----0--0--0----------12--0----0----0----0--0--0-------14-10-|
-----------------------------------------------------------------------|
-----------------------------------------------------------------------|
*    *    *    *  *  *              *    *    *    *  *  *             
L
-------_-------------_-----------|
------/ \-----------/ \----------|
-----7-9-7---------7-9-7---------|
-----------10-5----------10-7----|
---------------------------------|
---------------------------------|
R
---------------------------------|
------/\------------/\-----------|
----101210--------101210----10---|
-----------14-12---------14------|
---------------------------------|
---------------------------------|


L
---_------------_------------_------------_------------_------------_-----|
--/ \----------/ \----------/ \----------/ \----------/ \----------/ \----|
-7-9-7--------7-9-7--------7-9-7--------7-9-7--------7-9-7--------7-9-7---|
-------10-----------10-5---------10-7---------10-----------10-5---------10|
----------8--------------------------------------8------------------------|
--------------------------------------------------------------------------|
R
--------------------------------------------------------------------------|
--/\-----------/\------------/\----------/\-----------/\------------/\----|
101210-------101210--------101210--10--101210-------101210--------101210--|
------14-10---------14-12--------14----------14-10---------14-12--------14|
--------------------------------------------------------------------------|
--------------------------------------------------------------------------|



-------------------|
-------------------|
----------0--------|
------7-----7------|
----8---8-----8--0-|
-8---------------0-|
                 *

2:17

-----------------------------------------------------------------|
--------------------------------------------------------8--------|
------------------9---10---9-10-9------------------9----9--10-10-|
------------------7---7----7--7-7------------------7---10---7-7--|
-0-0-0-0-0-0-0-0----8----8---------0-0-0-0-0-0-0-0---0----0------|
-0-0-0-0-0-0-0-0-------------------0-0-0-0-0-0-0-0---------------|
   * * *   * * *    *    *           * * *   * * *   *    *
LET RING
----------------------------------|
----------------------------------|
----------0---------------5-------|
------7-----7---------8-----8-7---|
----8---8-----8-----5---5---------|
-8---------------5----------------|
    *   *           *   * 


-----------------------------------------------------------------|
--------------------------------------------------------8--------|
------------------9---10---9-10-9------------------9----9--10-10-|
------------------7---7----7--7-7------------------7---10---7-7--|
-0-0-0-0-0-0-0-0----8----8---------0-0-0-0-0-0-0-0---0----0------|
-0-0-0-0-0-0-0-0-------------------0-0-0-0-0-0-0-0---------------|
   * * *   * * *    *    *           * * *   * * *   *    *
LET RING
------------------------------------------------|
------------------------------------------------|
----------0---------------5---------------------|
------7-----7---------8-----8-7---0--0---0-0-0--|
----8---8-----8-----5---5---------0--0---0-0-0--|
-8---------------5----------------0--0---0-0-0--|
    *   *           *   *         *  *   * * *


2:37

L
--------------------------------------------------------|
--------------------------------------------------------|
--------------------------------------------------------|
-2--22-22--------------------2222--22-------------------|
-2--22-22--------------------2222--22-------------------|
-2--22-22--------------------2222--22-------------------|
 *  ** **                    ****  **
R
-------------___-------------------------___------------|
------------/   \----___----------------/   \----___----|
-----------2-4-2-0--/   \--------------2-4-2-0--/   \---|
-2--22-22----------4-5-4-0---2222--22----------4-5-4-0--|
-2--22-22--------------------2222--22-------------------|
-2--22-22--------------------2222--22-------------------|
 *  ** **                    ****  **

L
--------------------------------------------|
--------------------------------------------|
--------------------------------------------|
-2--22-22-----------------------2------4----|
-2--22-22---------------------5------5---0--|
-2--22-22-------------------2------4-----0--|
 *  ** **                    
R
-------------___----------------------------|
------------/   \----___--------------------|
-----------2-4-2-0--/   \-------------------|
-2--22-22----------4-5-4-0------2------4----|
-2--22-22---------------------5------5---0--|
-2--22-22-------------------2------4-----0--|
 *  ** **                    

L
--------------------------------------------------------|
--------------------------------------------------------|
--------------------------------------------------------|
-2--22-22--------------------2222--22-------------------|
-2--22-22--------------------2222--22-------------------|
-2--22-22--------------------2222--22-------------------|
 *  ** **                    ****  **
R
-------------___-------------------------___------------|
------------/   \----___----------------/   \----___----|
-----------2-4-2-0--/   \--------------2-4-2-0--/   \---|
-2--22-22----------4-5-4-0---2222--22----------4-5-4-0--|
-2--22-22--------------------2222--22-------------------|
-2--22-22--------------------2222--22-------------------|
 *  ** **                    ****  **

L
--------------------------------------------|
--------------------------------------------|
--------------------------------------------|
-2--22-22-----------------------2------4----|
-2--22-22---------------------5------5---0--|
-2--22-22-------------------2------4-----0--|
 *  ** **                    
R
-------------___----------------------------|
------------/   \----___--------------------|
-----------2-4-2-0--/   \-------------------|
-2--22-22----------4-5-4-0------2------4----|
-2--22-22---------------------5------5---0--|
-2--22-22-------------------2------4-----0--|
 *  ** **                    


L
-------------___-------------------------___------------|
------------/   \----___----------------/   \----___----|
-----------2-4-2-0--/   \--------------2-4-2-0--/   \---|
-2--22-22----------4-5-4-0---2222--22----------4-5-4-0--|
-2--22-22--------------------2222--22-------------------|
-2--22-22--------------------2222--22-------------------|
 *  ** **                    ****  **
R             _                          _
-------------/ \-------_----------------/ \-------_-----|
------------5-7-5-----/ \--------------5-7-5-----/ \----|
------------------7--6-7-6-------------------7--6-7-6---|
-2--22-22------------------9-2222--22-----------------9-|
-2--22-22--------------------2222--22-------------------|
-2--22-22--------------------2222--22-------------------|
 *  ** **                    ****  **

L
-------------___----------------------------|
------------/   \----___--------------------|
-----------2-4-2-0--/   \-------------------|
-2--22-22----------4-5-4-0------2------4----|
-2--22-22---------------------5------5---0--|
-2--22-22-------------------2------4-----0--|
 *  ** **                    
R            _                         
------------/ \------_----------------------|
-----------5-7-5----/ \---------------------|
-----------------7-6-7-6--------------------|
-2--22-22----------------9----4-5-----5-4-2-|
-2--22-22-----------------------------------|
-2--22-22-------------------2------4--------|
 *  ** **                    

L
-------------___-------------------------___------------|
------------/   \----___----------------/   \----___----|
-----------2-4-2-0--/   \--------------2-4-2-0--/   \---|
-2--22-22----------4-5-4-0---2222--22----------4-5-4-0--|
-2--22-22--------------------2222--22-------------------|
-2--22-22--------------------2222--22-------------------|
 *  ** **                    ****  **
R             _                          _
-------------/ \-------_----------------/ \-------_-----|
------------5-7-5-----/ \--------------5-7-5-----/ \----|
------------------7--6-7-6-------------------7--6-7-6---|
-2--22-22------------------9-2222--22-----------------9-|
-2--22-22--------------------2222--22-------------------|
-2--22-22--------------------2222--22-------------------|
 *  ** **                    ****  **

L
-------------___----------------------------------------|
------------/   \----___--------------------------------|
-----------2-4-2-0--/   \-------------------------------|
-2--22-22----------4-5-4-0------2------4------2------4--|
-2--22-22---------------------5------5------5------5----|
-2--22-22-------------------2------4------2------4------|
 *  ** **                    
R            _                         
------------/ \------_-----------------------------------|
-----------5-7-5----/ \----------------------------------|
-----------------7-6-7-6----------------------2---2-4-7--|
-2--22-22----------------9----4-5-----5-4---4--------/---|
-2--22-22---------------------------------------0--------|
-2--22-22-------------------2------4------2--------------|
 *  ** **                    



3;05

-----------------------------------------------------------------|
--------------------------------------------------------8--------|
------------------9---10---9-10-9------------------9----9--10-10-|
------------------7---7----7--7-7------------------7---10---7-7--|
-0-0-0-0-0-0-0-0----8----8---------0-0-0-0-0-0-0-0---0----0------|
-0-0-0-0-0-0-0-0-------------------0-0-0-0-0-0-0-0---------------|
   * * *   * * *    *    *           * * *   * * *   *    *
LET RING
----------------------------------|
----------------------------------|
----------0---------------5-------|
------7-----7---------8-----8-7---|
----8---8-----8-----5---5---------|
-8---------------5----------------|
    *   *           *   * 

-----------------------------------------------------------------|
--------------------------------------------------------8--------|
------------------9---10---9-10-9------------------9----9--10-10-|
------------------7---7----7--7-7------------------7---10---7-7--|
-0-0-0-0-0-0-0-0----8----8---------0-0-0-0-0-0-0-0---0----0------|
-0-0-0-0-0-0-0-0-------------------0-0-0-0-0-0-0-0---------------|
   * * *   * * *    *    *           * * *   * * *   *    *



3:20

SOLO  
1                                          
--------------------------------------------|
----10----------------------------10--------|
/10----12-10-12-10-9-10-9----9-10----12-10--|
--------------------------12----------------|
--------------------------------------------|
--------------------------------------------|
2
LET RING
----------------------------------|
----------------------------------|
----------0---------------5-------|
------7-----7---------8-----8-7---|
----8---8-----8-----5---5---------|
-8---------------5----------------|
    *   *           *   * 


TO GET THE CORRECT TONE, PICK THE PH THE STRING CLOSE TO THE EDGE OF WHERE 
 THE FRETBOARD STARTS 
 PLAY LIKE THAT EVERY TIME THERES A '*' OVER THE NOTE

1 *                              *                       
-PH______________________________------------------------------|
--)----------------------------(PH-----------------------------|
-7-------------------------------7~~~~~~~~~~~~~~~~~~~~~~-------|
---------------------------------------------------------------|
---------------------------------------------------------------|
---------------------------------------------------------------|
2
-----------------------------------------------------------------|
--------------------------------------------------------8--------|
------------------9---10---9-10-9------------------9----9--10-10-|
------------------7---7----7--7-7------------------7---10---7-7--|
-0-0-0-0-0-0-0-0----8----8---------0-0-0-0-0-0-0-0---0----0------|
-0-0-0-0-0-0-0-0-------------------0-0-0-0-0-0-0-0---------------|
   * * *   * * *    *    *           * * *   * * *   *    *

1                    * * *
----------________--------)(--|
-PH)()()()--------(----5-4----|
-5-------------------4--------|
--------------------PH-PHPH---|
------------------------------|
------------------------------|
2
LET RING
----------------------------------|
----------------------------------|
----------0---------------5-------|
------7-----7---------8-----8-7---|
----8---8-----8-----5---5---------|
-8---------------5----------------|
    *   *           *   * 

1* * *__________________  * ____ *
------)                 (--)    -------------------------------|
---4-3--------------------4------3~~~~~~~~~~~------------------|
-4-PH--------------------PH------PH----------------------------|
-PH------------------------------------------------------------|
---------------------------------------------------------------|
---------------------------------------------------------------|
2
-----------------------------------------------------------------|
--------------------------------------------------------8--------|
------------------9---10---9-10-9------------------9----9--10-10-|
------------------7---7----7--7-7------------------7---10---7-7--|
-0-0-0-0-0-0-0-0----8----8---------0-0-0-0-0-0-0-0---0----0------|
-0-0-0-0-0-0-0-0-------------------0-0-0-0-0-0-0-0---------------|
   * * *   * * *    *    *           * * *   * * *   *    *


---_____________________------_______-----------------------|
--/                     \----/       \----------------------|
/7107107107107107107107107/129129129129-14-12-10--12-10-----|
------------------------------------------------14-----14-12|
------------------------------------------------------------|
------------------------------------------------------------|
2
LET RING
----------------------------------|
----------------------------------|
----------0---------------5-------|
------7-----7---------8-----8-7---|
----8---8-----8-----5---5---------|
-8---------------5----------------|
    *   *           *   * 


1
---------------------------------------------------------------|
---------------------------------------------------------------|
-10-9-----10---10---10-9-9-9-7---7-10-7-9--12-9-10--10-7-9-----|
------7~-----14--14-----------7--------------------------------|
---------------------------------------------------------------|
---------------------------------------------------------------|
2
-----------------------------------------------------------------|
--------------------------------------------------------8--------|
------------------9---10---9-10-9------------------9----9--10-10-|
------------------7---7----7--7-7------------------7---10---7-7--|
-0-000-000-000-00---8----8--------0-000-000-000-00---0----0------|
-0-000-000-000-00-----------------0-000-000-000-00---------------|
   *** *** *** **   *    *          *** *** *** **   *    *

1
------8-----8-------10-8-6----6-----------------|
--6-5---6-5---6-5----------10---10-8-6-10-8-6-5-|
------------------------------------------------|
------------------------------------------------|
------------------------------------------------|
------------------------------------------------|
2
LET RING
----------------------------------|
----------------------------------|
----------0---------------5-------|
------7-----7---------8-----8-7---|
----8---8-----8-----5---5---------|
-8---------------5----------------|
    *   *           *   * 

1               ________                      ____
---------------/        \--------------------/    \---------|
---)(---------858585858585---)(-------------858585858/10----|
--5--~~---------------------9--~~---------------------------|
-ph---------------------------------------------------------|
------------------------------------------------------------|
------------------------------------------------------------|
2
-----------------------------------------------------------------|
--------------------------------------------------------8--------|
------------------9---10---9-10-9------------------9----9--10-10-|
------------------7---7----7--7-7------------------7---10---7-7--|
-0-0-0-0-0-0-0-0----8----8---------0-0-0-0-0-0-0-0---0----0------|
-0-0-0-0-0-0-0-0-------------------0-0-0-0-0-0-0-0---------------|
   * * *   * * *    *    *           * * *   * * *   *    *

1
--------151515171717131313151515-------------------------|
-151515-------------------------131313151515101010131313-|
---------------------------------------------------------|
---------------------------------------------------------|
---------------------------------------------------------|
---------------------------------------------------------|
CONT
---------------------------|
-888101010666888555666-----|
----------------------555--|
---------------------------|
---------------------------|
---------------------------|
2
LET RING
----------------------------------|
----------------------------------|
----------0---------------5-------|
------7-----7---------8-----8-7---|
----8---8-----8-----5---5---------|
-8---------------5----------------|
    *   *           *   * 


1 *             *
--_____________------------------------------------------------|
--)------------------------------------------------------------|
-3--------------2~~~~~~~~~~~~----------------------------------|
-PH------------PH----------------------------------------------|
---------------------------------------------------------------|
---------------------------------------------------------------|
2
---------------------------------------------------------------|
---------------------------------------------------------------|
---------------------------------------------------------------|
---------------------------------------------------------------|
-0-------------------------------------------------------------|
-0-------------------------------------------------------------|
comments
print report bad tab
I want to post or [tab]
guest
You may want to rate the tab now too:
select rating
Please do not post tabs as comments. Select "correction" instead!