Oops, an error
Loading. Please wait.

Its Hard To Speak Without A Tounge Tab

ver1
ver1

Intro

Whole song

More versions @911Tabs.com
28,691 views 18 this week
7 commentsread comments
1 2 3 4 5
excellent!
x 12
Autoscroll
+/-
esc
set tempo
stop
Tuning
B F# B E G# C#
WARNING: You are trying to view
                                    content from Ultimate-Guitar.com
                                    in an unauthorized application,
                                    which is prohibited.

                                    Please use an official Ultimate
                                    Guitar Tabs application for iPhone,
                                    iPad or Android to access legitimate
                                    chords, guitar, bass, and drum tabs
                                    from Ultimate-Guitar.com database.

                                    Type "ultimate guitar tabs" in Apple
                                    App Store's or Android Market's
                                    search to find the application.
Parkway Drive - Its Hard To Speak Without A Tounge

transcribed by: Paul Kozman (paddiepaul@hotmail.com



Guitar one: Geoff Ling

       S  E.  E  E  E  E  Q       Q    E  E  E  E  E  E
C#||---------------------------|-------------------------|
G#||---------------------------|-------------------------|
E ||*------------------0-------|----------------5--------|
B ||*------------7--------7----|----------8--------8--7--|
F#||----------8-----8----------|-------5-----5-----------|
B ||---7s-8--------------------|--5----------------------|


  Q    E  E  E  E  E  E     Q    E  E  E  E  E  E       S  E.  E  E  E  Q.
-------------------------|--------------------------||-------------------------|
----------------5--------|--------------------------||-------------------------|
----------5--------5-----|----------------5--------*||------------------0------|
----------------------0--|----------5--------5-----*||------------7------------|
-------0-----------------|-------3--------------3---||---------8-----8---------|
--0----------0-----------|--3----------3------------||--7s-8-------------------|


  Q    E  E  E  E  E  E     Q    E  E  E  E  E  E     Q    E  E  E  E  E  E
-------------------------|-------------------------|-------------------------|
-------------------------|----------------5--------|-------------------------|
----------------5--------|----------5--------5-----|----------------5--------|
----------8--------8--7--|----------------------0--|----------5--------5-----|
-------5-----5-----------|-------0-----------------|-------3--------------3--|
--5----------------------|--0----------0-----------|--3----------3-----------|


                                                           PM PM PM    PM PM
  S  E.  E  E  E  Q.        Q    E  E  E  E  E  E     Q    E  E  E  E  E  E
-------------------------|-------------------------|-------------------------|
-------------------------|-------------------------|-------------------------|
------------------0------|----------------5--------|-------------------------|
------------7------------|----------8--------8--7--|--0-------------0--------|
---------8-----8---------|-------5-----5-----------|--0----0--0--0--0--0--0--|
--7s-8-------------------|--5----------------------|--0----0--0--0--0--0--0--|


  PM                                   PM PM PM    PM PM
  E   E  E   E  E   E   E   E     Q    E  E  E  E  E  E
-------------------------------|-------------------------|
-------------------------------|-------------------------|
------9-----10------9--10---9--|-------------------------|
-----10-----10-----10--10--10--|--0-------------0--------|
--0---8------8------8---8---8--|--0----0--0--0--0--0--0--|
--0----------------------------|--0----0--0--0--0--0--0--|


                                       PM PM
  E   E  E   E  E   E   E   E     Q    E  E  E  E  E  E
-------------------------------|-------------------------|
-------------------------------|-------------------------|
------9-----12------9--10---9--|----------------0-----0--|
-----10-----10-----10--10--10--|----------7--------7-----|
--0---8------8------8---8---8--|--8----8-----------------|
--0----------------------------|--8----------8-----------|


       PM PM PM                  PM PM PM    PM PM
  Q    E  E  E  E  E  E     Q    E  E  E  E  E  E
-------------------------|-------------------------|
-------------------------|-------------------------|
----------------5--------|-------------------------|
----------8--------8--7--|--0-------------0--------|
--5----5-----------------|--0----0--0--0--0--0--0--|
--5----------5-----------|--0----0--0--0--0--0--0--|


  PM                                   PM PM PM    PM PM
  E   E  E   E  E   E   E   E     Q    E  E  E  E  E  E
-------------------------------|-------------------------|
-------------------------------|-------------------------|
------9-----10------9--10---9--|-------------------------|
-----10-----10-----10--10--10--|--0-------------0--------|
--0---8------8------8---8---8--|--0----0--0--0--0--0--0--|
--0----------------------------|--0----0--0--0--0--0--0--|


                                       PM PM
  E   E  E   E  E   E   E   E     Q    E  E  E  E  E  E
-------------------------------|-------------------------|
-------------------------------|-------------------------|
------9-----12------9--10---9--|----------------0-----0--|
-----10-----10-----10--10--10--|----------7--------7-----|
--0---8------8------8---8---8--|--8----8-----------------|
--0----------------------------|--8----------8-----------|


       PM PM PM                  PM PM PM    PM PM
  Q    E  E  E  E  E  E     Q    E  E  E  E  E  E
-------------------------|-------------------------|
-------------------------|-------------------------|
----------------5--------|-------------------------|
----------8--------8--7--|--0-------------0--------|
--5----5-----------------|--0----0--0--0--0--0--0--|
--5----------5-----------|--0----0--0--0--0--0--0--|


  PM                                   PM PM PM    PM PM
  E   E  E   E  E   E   E   E     Q    E  E  E  E  E  E
-------------------------------|-------------------------|
-------------------------------|-------------------------|
------9-----10------9--10---9--|-------------------------|
-----10-----10-----10--10--10--|--0-------------0--------|
--0---8------8------8---8---8--|--0----0--0--0--0--0--0--|
--0----------------------------|--0----0--0--0--0--0--0--|


                                       PM PM
  E   E  E   E  E   E   E   E     Q    E  E  E  E  E  E
-------------------------------|-------------------------|
-------------------------------|-------------------------|
------9-----12------9--10---9--|----------------0-----0--|
-----10-----10-----10--10--10--|----------7--------7-----|
--0---8------8------8---8---8--|--8----8-----------------|
--0----------------------------|--8----------8-----------|


       PM PM PM                    PM      PM      PM
  Q    E  E  E  E  E  E      Q     E   E   E   E   E   E
-------------------------|--------------------------------|
-------------------------|--------------------------------|
----------------5--------|--------------------------------|
----------8--------8--7--|------------15------12------14--|
--5----5-----------------|--12----12------12------12------|
--5----------5-----------|--------------------------------|


   PM      PM      PM                           PM      PM      PM
   E   E   E   E   E   S   S   E   E      Q     E   E   E   E   E   E
--------------------------------------|--------------------------------|
--------------------------------------|--------------------------------|
--------------------------------------|--------------------------------|
------15------17------14h-15p-14--12--|------------15------12------14--|
--12------12------12------------------|--12----12------12------12------|
--------------------------------------|--------------------------------|


   PM      PM      PM
   E   E   E   E   E   S   S   E   E      H        E   S   S   E   E
--------------------------------------|-------------------------------|
--------------------------------------|-------------------------------|
--------------------------------------|-------------------------------|
------15------14------12h-14p-12------|---------------12h-14p-12------|
--12------12------12--------------15--|---------------------------15--|
--------------------------------------|--15--------L------------------|


                                         PM      PM      PM
   H        E   S   S   E   E      Q     E   E   E   E   E   E
-------------------------------|--------------------------------|
-------------------------------|--------------------------------|
-------------------------------|--------------------------------|
---------------12h-14p-12------|------------15------12------14--|
---------------------------15--|--12----12------12------12------|
--17--------L------------------|--------------------------------|


   PM      PM      PM                           PM      PM      PM
   E   E   E   E   E   S   S   E   E      Q     E   E   E   E   E   E
--------------------------------------|--------------------------------|
--------------------------------------|--------------------------------|
--------------------------------------|--------------------------------|
------15------17------14h-15p-14--12--|------------15------12------14--|
--12------12------12------------------|--12----12------12------12------|
--------------------------------------|--------------------------------|


   PM      PM      PM
   E   E   E   E   E   S   S   E   E      H        E   S   S   E   E
--------------------------------------|-------------------------------|
--------------------------------------|-------------------------------|
--------------------------------------|-------------------------------|
------15------14------12h-14p-12------|---------------12h-14p-12------|
--12------12------12--------------15--|---------------------------15--|
--------------------------------------|--15--------L------------------|


                                         PM      PM      PM
   H        E   S   S   E   E      Q     E   E   E   E   E   E
-------------------------------|--------------------------------|
-------------------------------|--------------------------------|
-------------------------------|--------------------------------|
---------------12h-14p-12------|------------15------12------14--|
---------------------------15--|--12----12------12------12------|
--17--------L------------------|--------------------------------|


   PM      PM      PM                           PM      PM      PM
   E   E   E   E   E   S   S   E   E      Q     E   E   E   E   E   E
--------------------------------------|--------------------------------|
--------------------------------------|--------------------------------|
--------------------------------------|--------------------------------|
------15------17------14h-15p-14--12--|------------15------12------14--|
--12------12------12------------------|--12----12------12------12------|
--------------------------------------|--------------------------------|


   PM      PM      PM
   E   E   E   E   E   S   S   E   E      H        E   S   S   E   E
--------------------------------------|-------------------------------|
--------------------------------------|-------------------------------|
--------------------------------------|-------------------------------|
------15------14------12h-14p-12------|---------------12h-14p-12------|
--12------12------12--------------15--|---------------------------15--|
--------------------------------------|--15--------L------------------|


                                         PM      PM      PM
   H        E   S   S   E   E      Q     E   E   E   E   E   E
-------------------------------|--------------------------------|
-------------------------------|--------------------------------|
-------------------------------|--------------------------------|
---------------12h-14p-12------|------------15------12------14--|
---------------------------15--|--12----12------12------12------|
--17--------L------------------|--------------------------------|


   PM      PM      PM                           PM      PM      PM
   E   E   E   E   E   S   S   E   E      Q     E   E   E   E   E   E
--------------------------------------|--------------------------------|
--------------------------------------|--------------------------------|
--------------------------------------|--------------------------------|
------15------17------14h-15p-14--12--|------------15------12------14--|
--12------12------12------------------|--12----12------12------12------|
--------------------------------------|--------------------------------|


   PM      PM      PM
   E   E   E   E   E   S   S   E   E      H        E   S   S   E   E
--------------------------------------|-------------------------------|
--------------------------------------|-------------------------------|
--------------------------------------|-------------------------------|
------15------14------12h-14p-12------|---------------12h-14p-12------|
--12------12------12--------------15--|---------------------------15--|
--------------------------------------|--15--------L------------------|


                                         PM      PM      PM
   H        E   S   S   E   E      Q     E   E   E   E   E   E
-------------------------------|--------------------------------|
-------------------------------|--------------------------------|
-------------------------------|--------------------------------|
---------------12h-14p-12------|------------15------12------14--|
---------------------------15--|--12----12------12------12------|
--17--------L------------------|--------------------------------|


   PM      PM      PM                           PM      PM      PM
   E   E   E   E   E   S   S   E   E      Q     E   E   E   E   E   E
--------------------------------------|--------------------------------|
--------------------------------------|--------------------------------|
--------------------------------------|--------------------------------|
------15------17------14h-15p-14--12--|------------15------12------14--|
--12------12------12------------------|--12----12------12------12------|
--------------------------------------|--------------------------------|


   PM      PM      PM
   E   E   E   E   E   S   S   E   E      H        E   S   S   E   E
--------------------------------------|-------------------------------|
--------------------------------------|-------------------------------|
--------------------------------------|-------------------------------|
------15------14------12h-14p-12------|---------------12h-14p-12------|
--12------12------12--------------15--|---------------------------15--|
--------------------------------------|--15--------L------------------|


                                   |--3--| |-3-| |-3-| |-3-|
   H        E   S   S   E   E      T  T  T T T T T T T T T T E  Q    Q.
-------------------------------|--------------------------------------------|
-------------------------------|--------------------------------------------|
-------------------------------|--------------------------------------------|
---------------12h-14p-12------|--------------------------------------------|
---------------------------15--|--12-11-10-9-8-7-6-5-4-3-2-1----------------|
--17--------L------------------|--12-11-10-9-8-7-6-5-4-3-2-1----------------|


     PM PM    PM                PM PM    PM       PM
  E  E  E  E  E  E  E  E     E  E  E  E  E  E  E  E
--------------------------|--------------------------|
--------------------------|--------------------------|
--------------------------|--------------------------|
--------------------------|-----------------5--------|
--0--------5-----7--8--5--|--0--------5--------8-----|
--0--0--0-----0-----------|--0--0--0-----0--------0--|


     PM PM    PM                PM PM    PM       PM
  E  E  E  E  E  E  E  E     E  E  E  E  E  E  E  E
--------------------------|--------------------------|
--------------------------|--------------------------|
--------------------------|--------------------------|
-----------7--------5-----|--------------------------|
--0--------------8-----7--|--0--------3-----7--5-----|
--0--0--0-----0-----------|--0--0--0-----0--------0--|


     PM PM    PM                PM PM
  E  E  E  E  E  E  E  E     E  E  E  E  E  E  E  E
--------------------------|--------------------------|
--------------------------|--------------------------|
--------------------------|--------------------------|
--------------------------|--5-----------------------|
--0--------5-----7--8--7--|-----------8-----7--8--7--|
--0--0--0-----0-----------|-----0--0-----0-----------|


     PM PM    PM                  PM      PM             PM PM    PM
  E  E  E  E  E  E  E  E     Q    E  Q    E   Q       E  E  E  E  E  E  E  E
--------------------------|------------------------|--------------------------|
--------------------------|------------------------|--------------------------|
--------------------------|------------------------|--------------------------|
--7--------5--------------|------------------------|--------------------------|
-----------------7--8--7--|--0-------7-------12----|--0--------5-----7--8--5--|
-----0--0-----0-----------|--0----0--7----0--12----|--0--0--0-----0-----------|


     PM PM    PM       PM       PM PM    PM
  E  E  E  E  E  E  E  E     E  E  E  E  E  E  E  E
--------------------------|--------------------------|
--------------------------|--------------------------|
--------------------------|--------------------------|
-----------------5--------|-----------7--------5-----|
--0--------5--------8-----|--0--------------8-----7--|
--0--0--0-----0--------0--|--0--0--0-----0-----------|


     PM PM    PM       PM       PM PM    PM
  E  E  E  E  E  E  E  E     E  E  E  E  E  E  E  E
--------------------------|--------------------------|
--------------------------|--------------------------|
--------------------------|--------------------------|
--------------------------|--------------------------|
--0--------3-----7--5-----|--0--------5-----7--8--7--|
--0--0--0-----0--------0--|--0--0--0-----0-----------|


     PM PM                      PM PM    PM                  PM      PM
  E  E  E  E  E  E  E  E     E  E  E  E  E  E  E  E     Q    E  Q    E   Q
--------------------------|--------------------------|------------------------|
--------------------------|--------------------------|------------------------|
--------------------------|--------------------------|------------------------|
--5-----------------------|--7--------5--------------|--0-------7-------12----|
-----------8-----7--8--7--|-----------------7--8--7--|--0-------7-------12----|
-----0--0-----0-----------|-----0--0-----0-----------|--0----0--7----0--12----|


  PM PM      PM      PM      PM         PM      PM
  E  E   E   E   E   E   E   E      E   E   E   E   S   S   E   E   E
--------------------------------|--------------------------------------|
--------------------------------|--------------------------------------|
--------------------------------|--------------------------------------|
--------15------12------14------|--15------17------14h-15p-14--12------|
--0--0------12------12------12--|------12------12------------------12--|
--0--0--------------------------|--------------------------------------|


       PM      PM      PM      PM         PM      PM
   E   E   E   E   E   E   E   E      E   E   E   E   S   S   E   E   E
----------------------------------|--------------------------------------|
----------------------------------|--------------------------------------|
----------------------------------|--------------------------------------|
----------15------12------14------|--15------14------12h-14p-12----------|
---L--12------12------12------12--|------12------12--------------15------|
----------------------------------|----------------------------------15--|


   H         S   S   E   E   E      H         S   S   E   E  E
--------------------------------|-------------------------------|
--------------------------------|-------------------------------|
--------------------------------|-------------------------------|
------------12h-14p-12----------|------------12h-14p-12---------|
------------------------15------|------------------------15--0--|
---L------------------------17--|---L------------------------0--|


     PM      PM      PM      PM         PM      PM
  E  E   E   E   E   E   E   E      E   E   E   E   S   S   E   E   E
--------------------------------|--------------------------------------|
--------------------------------|--------------------------------------|
--------------------------------|--------------------------------------|
--------15------12------14------|--15------17------14h-15p-14--12------|
--L--0------12------12------12--|------12------12------------------12--|
--L--0--------------------------|--------------------------------------|


       PM      PM      PM      PM         PM      PM
   E   E   E   E   E   E   E   E      E   E   E   E   S   S   E   E   E
----------------------------------|--------------------------------------|
----------------------------------|--------------------------------------|
----------------------------------|--------------------------------------|
----------15------12------14------|--15------14------12h-14p-12----------|
---L--12------12------12------12--|------12------12--------------15------|
----------------------------------|----------------------------------15--|


   H         S   S   E   E   E      H         S   S   E   E   E
--------------------------------|--------------------------------|
--------------------------------|--------------------------------|
--------------------------------|--------------------------------|
------------12h-14p-12----------|------------12h-14p-12----------|
------------------------15------|------------------------15--17--|
---L------------------------17--|---L----------------------------|


  W                   Q     Q     S   S   E   E   E
-------------------|---------------------------------|
-------------------|---------------------------------|
-------------------|---------------------------------|
-------------------|-------------12h-14p-12----------|
--L----------------|--L-----L----------------15------|
-------------------|-----------------------------15--|


   H         S   S   E   E   E      H         S   S   E   E   E
--------------------------------|--------------------------------|
--------------------------------|--------------------------------|
--------------------------------|--------------------------------|
------------12h-14p-12----------|------------12h-14p-12----------|
------------------------15------|------------------------15--17--|
---L------------------------17--|---L----------------------------|


  W                   Q     Q     S   S   E   E   E
-------------------|---------------------------------|
-------------------|---------------------------------|
-------------------|---------------------------------|
-------------------|-------------12h-14p-12----------|
--L----------------|--L-----L----------------15------|
-------------------|-----------------------------15--|


   H         S   S   E   E   E      H         S   S   E   Q
--------------------------------|------------------------------|
--------------------------------|------------------------------|
--------------------------------|------------------------------|
------------12h-14p-12----------|------------12h-14p-12--------|
------------------------15------|------------------------15----|
---L------------------------17--|---L--------------------------|


                                            PM         PM PM PM    PM PM
  S  E.  E  E  E  E  Q       E  E  E  E  E  E     Q    E  E  E  E  E  E
--------------------------|--------------------|-------------------------|
--------------------------|--------------------|-------------------------|
------------------0-------|--------L-----L-----|-------------------------|
------------7--------7----|-----L-----L-----0--|--0-------------0--------|
---------8-----8----------|--L--------L-----0--|--0----0--0--0--0--0--0--|
--7s-8--------------------|-----------------0--|--0----0--0--0--0--0--0--|


  PM                                   PM PM PM    PM PM
  E   E  E   E  E   E   E   E     Q    E  E  E  E  E  E
-------------------------------|-------------------------|
-------------------------------|-------------------------|
------9-----10------9--10---9--|-------------------------|
-----10-----10-----10--10--10--|--0-------------0--------|
--0---8------8------8---8---8--|--0----0--0--0--0--0--0--|
--0----------------------------|--0----0--0--0--0--0--0--|


                                       PM PM
  E   E  E   E  E   E   E   E     Q    E  E  E  E  E  E
-------------------------------|-------------------------|
-------------------------------|-------------------------|
------9-----12------9--10---9--|----------------0-----0--|
-----10-----10-----10--10--10--|----------7--------7-----|
--0---8------8------8---8---8--|--8----8-----------------|
--0----------------------------|--8----------8-----------|


       PM PM PM                  PM PM PM    PM PM
  Q    E  E  E  E  E  E     Q    E  E  E  E  E  E
-------------------------|-------------------------|
-------------------------|-------------------------|
----------------5--------|-------------------------|
----------8--------8--7--|--0-------------0--------|
--5----5-----------------|--0----0--0--0--0--0--0--|
--5----------5-----------|--0----0--0--0--0--0--0--|


  PM                                   PM PM PM    PM PM
  E   E  E   E  E   E   E   E     Q    E  E  E  E  E  E
-------------------------------|-------------------------|
-------------------------------|-------------------------|
------9-----10------9--10---9--|-------------------------|
-----10-----10-----10--10--10--|--0-------------0--------|
--0---8------8------8---8---8--|--0----0--0--0--0--0--0--|
--0----------------------------|--0----0--0--0--0--0--0--|


                                       PM PM
  E   E  E   E  E   E   E   E     Q    E  E  E  E  E  E
-------------------------------|-------------------------|
-------------------------------|-------------------------|
------9-----12------9--10---9--|----------------0-----0--|
-----10-----10-----10--10--10--|----------7--------7-----|
--0---8------8------8---8---8--|--8----8-----------------|
--0----------------------------|--8----------8-----------|


       PM PM PM               PM   PM      PM PM PM
  Q    E  E  E  E  E  Q       Q    Q    E  E  E  E
---------------------------|------------------------|
---------------------------|------------------------|
----------------5----------|------------------------|
----------8--------8--7----|------------------------|
--5----5-------------------|--0----0-------0--0--0--|
--5----------5-------------|--0----0-------0--0--0--|


  PM PM PM PM PM
  E  S  E  S  E  S  S  S  S S  S  S  S
---------------------------------------|
---------------------------------------|
-----------------2h-4p-2p-0------------|
----------------------------4h-5p-4p-0-|
--2--2--2--2--2------------------------|
--2--2--2--2--2------------------------|


  PM PM PM PM PM PM
  S  S  S  E  S  E  S  S  S  S S  S  S  S
------------------------------------------|
------------------------------------------|
--------------------2h-4p-2p-0------------|
-------------------------------4h-5p-4p-0-|
--2--2--2--2--2--2------------------------|
--2--2--2--2--2--2------------------------|


  PM PM PM PM PM
  E  S  E  S  E  S  S  S  S S  S  S  S    E  E  E  E  E  E  Q
---------------------------------------|-------------------------|
---------------------------------------|-------------------------|
-----------------2h-4p-2p-0------------|-------------------------|
----------------------------4h-5p-4p-0-|-----0--2-----0--4--0----|
--2--2--2--2--2------------------------|--------------------0----|
--2--2--2--2--2------------------------|--2--------4--------0----|


  PM PM PM PM PM
  E  S  E  S  E  S  S  S  S S  S  S  S
---------------------------------------|
---------------------------------------|
-----------------2h-4p-2p-0------------|
----------------------------4h-5p-4p-0-|
--2--2--2--2--2------------------------|
--2--2--2--2--2------------------------|


  PM PM PM PM PM PM
  S  S  S  E  S  E  S  S  S  S S  S  S  S
------------------------------------------|
------------------------------------------|
--------------------2h-4p-2p-0------------|
-------------------------------4h-5p-4p-0-|
--2--2--2--2--2--2------------------------|
--2--2--2--2--2--2------------------------|


  PM PM PM PM PM
  E  S  E  S  E  S  S  S  S S  S  S  S    E  E  E  E  E  E  Q
---------------------------------------|-------------------------|
---------------------------------------|-------------------------|
-----------------2h-4p-2p-0------------|-------------------------|
----------------------------4h-5p-4p-0-|-----0--2-----0--4--0----|
--2--2--2--2--2------------------------|--------------------0----|
--2--2--2--2--2------------------------|--2--------4--------0----|


  PM PM PM PM PM
  E  S  E  S  E  S  S  S S S  S  S  S
-----------------0h-2p-0--------------|
-------------------------3-2h-3p-2p-0-|
--------------------------------------|
--------------------------------------|
--2--2--2--2--2-----------------------|
--2--2--2--2--2-----------------------|


  PM PM PM PM PM PM
  S  S  S  E  S  E  S  S  S S S  S  S  S
--------------------0h-2p-0--------------|
----------------------------3-2h-3p-2p-0-|
-----------------------------------------|
-----------------------------------------|
--2--2--2--2--2--2-----------------------|
--2--2--2--2--2--2-----------------------|


  PM PM PM PM PM
  E  S  E  S  E  S  S  S S S  S  S  S    E  E  E  E  E  E  Q
-----------------0h-2p-0--------------|--------------------------|
-------------------------3-2h-3p-2p-0-|--------------------------|
--------------------------------------|--------------------------|
--------------------------------------|-----4--5-----5--4--2~----|
--2--2--2--2--2-----------------------|--------------------------|
--2--2--2--2--2-----------------------|--2--------4--------------|


  PM PM PM PM PM
  E  S  E  S  E  S  S  S S S  S  S  S
-----------------0h-2p-0--------------|
-------------------------3-2h-3p-2p-0-|
--------------------------------------|
--------------------------------------|
--2--2--2--2--2-----------------------|
--2--2--2--2--2-----------------------|


  PM PM PM PM PM PM
  S  S  S  E  S  E  S  S  S S S  S  S  S
--------------------0h-2p-0--------------|
----------------------------3-2h-3p-2p-0-|
-----------------------------------------|
-----------------------------------------|
--2--2--2--2--2--2-----------------------|
--2--2--2--2--2--2-----------------------|


  PM PM PM PM PM                         PM       PM       PM
  E  S  E  S  E  S  S  S S S  S  S  S    E  E  E  E  E  E  E  E
-----------------0h-2p-0--------------|--------------------------|
-------------------------3-2h-3p-2p-0-|--------------------------|
--------------------------------------|--------------------------|
--------------------------------------|-----4--5-----5--0-----4--|
--2--2--2--2--2-----------------------|--------------------------|
--2--2--2--2--2-----------------------|--2--------4--------0-----|


     PM
  E  E  E  E  H                    E  E   E  E   E   E   E  E
-----------------------|-------|-------------------------------|
-----------------------|-------|-------------------------------|
--------------7--------|-------|---9-----10------9--10---9-----|
--7-----7--9-----------|-------|--10-----10-----10--10--10-----|
-----------------------|-------|---8------8------8---8---8--0--|
-----7-----------------|-------|----------------------------0--|


     PM PM PM    PM PM PM
  E  E  E  E  E  E  E  E      E  E   E  E   E   E   E  E
--------------------------|-------------------------------|
--------------------------|-------------------------------|
--------------------------|---9-----12------9--10---9-----|
--------------------------|--10-----10-----10--10--10-----|
--L--0--0--0--0--0--0--0--|---8------8------8---8---8--8--|
--L--0--0--0--0--0--0--0--|----------------------------8--|


  E  E  E  E  E  E  E  E     E  E  E  E  E  E  E  E
--------------------------|--------------------------|
--------------------------|--------------------------|
--------------0-----------|--------------5-----------|
--------7--------7--------|--------8--------8--7--0--|
--L--8-----8--------8--5--|--L--5-----5-----------0--|
--L--------------------5--|--L--------------------0--|


     PM PM PM    PM PM PM
  E  E  E  E  E  E  E  E      E  E   E  E   E   E   E  E
--------------------------|-------------------------------|
--------------------------|-------------------------------|
--------------------------|---9-----10------9--10---9-----|
--L-----------------------|--10-----10-----10--10--10-----|
--L--0--0--0--0--0--0--0--|---8------8------8---8---8--0--|
--L--0--0--0--0--0--0--0--|----------------------------0--|


     PM PM PM    PM PM PM
  E  E  E  E  E  E  E  E      E  E   E  E   E   E   E   E
--------------------------|---------------------------------|
--------------------------|---------------------------------|
--------------------------|---9-----12------9--10---9--10~--|
--------------------------|--10-----10-----10--10--10-------|
--L--0--0--0--0--0--0--0--|---8------8------8---8---8-------|
--L--0--0--0--0--0--0--0--|---------------------------------|


  E   E   E    E   E   E  E   E     E   E  E   E   E   E  E   E
---------------------------------|---------------------------17br--|
-----10--------------------------|----------------10---------------|
--L------12p--10--12--10--9--10--|--9------9--10------10--9--------|
---------------------------------|-----12--------------------------|
---------------------------------|---------------------------------|
---------------------------------|---------------------------------|


  W                   W                   W
--L----------------|--L----------------|--L~----------------|
-------------------|-------------------|--------------------|
-------------------|-------------------|--------------------|
-------------------|-------------------|--------------------|
-------------------|-------------------|--------------------|
-------------------|-------------------|--------------------|


  W                      W
--L----------------|--<>13brb----------------|
-------------------|-------------------------|
-------------------|-------------------------|
-------------------|-------------------------|
-------------------|-------------------------|
-------------------|-------------------------|


           SH    NH    SH
  Q        E     E     Q       E   E        W
--L~----------<>13--<>12br--------12--|-----------------------|
--------<>13------------------13------|--<>15b----------------|
--------------------------------------|-----------------------|
--------------------------------------|-----------------------|
--------------------------------------|-----------------------|
--------------------------------------|-----------------------|


                      W
   H         Q.       E      W                   H.           E  E
-------------------------|--------------------|----------------------|
---L--------15b------15--|---L----------------|--L-------------------|
-------------------------|--------------------|------------------7h--|
-------------------------|--------------------|----------------------|
-------------------------|--------------------|----------------------|
-------------------------|--------------------|----------------------|


   S  S   S  S  S  S   S  S  S  S   S  S  S  S   S  S
------------------------------------------------------|
------------------------------------------------------|
--10p-7h-10p-7-10p-7h-10p-7-10p-7h-10p-7-10p-7h-10p-7-|
------------------------------------------------------|
------------------------------------------------------|
------------------------------------------------------|


   S  S   S  S  S  S   S  S  S  S  S S  S  S S  S      Q     H.
---------------------------------------------------|----------------------|
---------------------------------------------------|----------------------|
--12p-9h-12p-9-12p-9h-12p-9-14-12-10-9-12-10-9-----|----------------------|
-----------------------------------------------14b-|---L------------------|
---------------------------------------------------|--------12------------|
---------------------------------------------------|----------------------|


  H.              E  E      E   Q.      Q    Q        E  E   Q     E   E  Q
-------------------------|------------------------|----------------------------|
-------------------------|------------------------|----------------------------|
--9brb------------L--L~--|--L----------10----9----|--12--9--10----10------9----|
-------------------------|-----12-----------------|-------------------12-------|
-------------------------|------------------------|----------------------------|
-------------------------|------------------------|----------------------------|


   E  E   E   E  E   E   E  E      S  S  S  S  S  S  S  S  S  S S  S   Q
-------------------------------|--10------------------------------------------|
---------13---------13---------|-----13-11-10-11-10---------------------------|
--10--9------10--9------10--9--|--------------------12-10-12-10-9----<>9br----|
-------------------------------|----------------------------------------------|
-------------------------------|----------------------------------12----------|
-------------------------------|----------------------------------------------|


                                                                   W
  Q    H.                S  S   S  S  S  S   S  S  S  S   S  S  E  E
---------------------|------------------------------------------------|
---------------------|------------------------------------------------|
--L----L~------------|--12p-9h-12p-9-12p-9h-12p-9-12p-9h-12p-9-10--9--|
---------------------|------------------------------------------------|
---------------------|------------------------------------------------|
---------------------|------------------------------------------------|


                                                             |--3--|
  W                    S  S   S  S  S  S   S  S  S   Q    S  S  S  S
-------------------|-------------------------------------------------|
-------------------|----------------------------------------15-15-15-|
--L----------------|--12p-9h-12p-9-12p-9h-12p-9-12s-14---------------|
-------------------|-------------------------------------------------|
-------------------|-------------------------------------------------|
-------------------|-------------------------------------------------|


   |--3--|  |--3--|  |--3--|  |--3--|  |--3--|  |--3--| |-3-|  |--3--|
   S  S  S  S  S  S  S  S  S  S  S  S  S  S  S  S  S  S S S S  S  S  S
--15-15-15-17-17-17-13-13-13-15-15-15-10-10-10-13-13-13-8-8-8-10-10-10-|
-----------------------------------------------------------------------|
-----------------------------------------------------------------------|
-----------------------------------------------------------------------|
-----------------------------------------------------------------------|
-----------------------------------------------------------------------|


  |-3-| |-3-| |-3-| |-3-| |-3-| |-3-| |-3-|
  S S S S S S S S S S S S S S S S S S S S S  E       W
--5-5-5-8-8-8-3-3-3-5-5-5-0-0-0-3-3-3-------------|-------------------|
--------------------------------------3-3-3-22br--|--L----------------|
--------------------------------------------------|-------------------|
--------------------------------------------------|-------------------|
--------------------------------------------------|-------------------|
--------------------------------------------------|-------------------|


                                            Feedback
  H        H            W
---------------------|-------------------|-------------------|
--L--------L~--------|--L----------------|-------------------|
---------------------|-------------------|-------------------|
---------------------|-------------------|-------------------|
---------------------|-------------------|-------------------|
---------------------|-------------------|-------------------|


  W
-------------------|-------------------||
--L----------------|-------------------||
-------------------|-------------------||
-------------------|-------------------||
-------------------|-------------------||
-------------------|-------------------||





Guitar2
Luke Fitzpatrick



C#||--------|-------|-------|--------||-------|-------|-------|-------|-------|
G#||--------|-------|-------|--------||-------|-------|-------|-------|-------|
E ||*-------|-------|-------|-------*||-------|-------|-------|-------|-------|
B ||*-------|-------|-------|-------*||-------|-------|-------|-------|-------|
F#||--------|-------|-------|--------||-------|-------|-------|-------|-------|
B 
||--------|-------|-------|--------||-------|-------|-------|-------|-------|


               PM PM PM    PM PM    PM
          Q    E  E  E  E  E  E     E   E  E   E  E   E   E   E
-------|-------------------------|-------------------------------|
-------|-------------------------|-------------------------------|
-------|-------------------------|------9-----10------9--10---9--|
-------|--0-------------0--------|-----10-----10-----10--10--10--|
-------|--0----0--0--0--0--0--0--|--0---8------8------8---8---8--|
-------|--0----0--0--0--0--0--0--|--0----------------------------|


       PM PM PM    PM PM
  Q    E  E  E  E  E  E     E   E  E   E  E   E   E   E
-------------------------|-------------------------------|
-------------------------|-------------------------------|
-------------------------|------9-----12------9--10---9--|
--0-------------0--------|-----10-----10-----10--10--10--|
--0----0--0--0--0--0--0--|--0---8------8------8---8---8--|
--0----0--0--0--0--0--0--|--0----------------------------|


                                                     PM PM PM    PM PM
  Q    Q    Q    Q       Q    Q    Q    Q       Q    E  E  E  E  E  E
----------------------|----------------------|-------------------------|
----------------------|----------------------|-------------------------|
----------------------|----------------------|-------------------------|
--8-------------------|--5-------------------|--0-------------0--------|
--8-------------------|--5-------------------|--0----0--0--0--0--0--0--|
--8-------------------|--5-------------------|--0----0--0--0--0--0--0--|


  PM                                   PM PM PM    PM PM
  E   E  E   E  E   E   E   E     Q    E  E  E  E  E  E
-------------------------------|-------------------------|
-------------------------------|-------------------------|
------9-----10------9--10---9--|-------------------------|
-----10-----10-----10--10--10--|--0-------------0--------|
--0---8------8------8---8---8--|--0----0--0--0--0--0--0--|
--0----------------------------|--0----0--0--0--0--0--0--|


  E   E  E   E  E   E   E   E     Q    Q    Q    Q       Q    Q    Q    Q
-------------------------------|----------------------|----------------------|
-------------------------------|----------------------|----------------------|
------9-----12------9--10---9--|----------------------|----------------------|
-----10-----10-----10--10--10--|--8-------------------|--5-------------------|
--0---8------8------8---8---8--|--8-------------------|--5-------------------|
--0----------------------------|--8-------------------|--5-------------------|


       PM PM PM    PM PM    PM
  Q    E  E  E  E  E  E     E   E  E   E  E   E   E   E
-------------------------|-------------------------------|
-------------------------|-------------------------------|
-------------------------|------9-----10------9--10---9--|
--0-------------0--------|-----10-----10-----10--10--10--|
--0----0--0--0--0--0--0--|--0---8------8------8---8---8--|
--0----0--0--0--0--0--0--|--0----------------------------|


       PM PM PM    PM PM
  Q    E  E  E  E  E  E     E   E  E   E  E   E   E   E
-------------------------|-------------------------------|
-------------------------|-------------------------------|
-------------------------|------9-----12------9--10---9--|
--0-------------0--------|-----10-----10-----10--10--10--|
--0----0--0--0--0--0--0--|--0---8------8------8---8---8--|
--0----0--0--0--0--0--0--|--0----------------------------|


       PM PM                     PM PM PM
  Q    E  E  E  E  E  E     Q    E  E  E  E  E  E     W
-------------------------|-------------------------|-------------------|
-------------------------|-------------------------|-------------------|
----------------0-----0--|----------------5--------|-------------------|
----------7--------7-----|----------8--------8--7--|--0----------------|
--8----8-----------------|--5----5-----------------|--0----------------|
--8----------8-----------|--5----------5-----------|--0----------------|


  W
-------------------|
-------------------|
-------------------|
--L----------------|
--L----------------|
--L----------------|


  Q     T  T  T  T  T  T  T  T  T  T  T  T  T  T  T  T  T  T  T  T  T  T  T  
T
-------------------------------------------------------------------------------|
-------------------------------------------------------------------------------|
-------------------------------------------------------------------------------|
--0----------------------------------------------------------------------------|
--0----30-30-30-29-29-29-28-28-28-27-27-27-26-26-26-25-25-25-24-24-24-24-23-23-|
--0----30-30-30-29-29-29-28-28-28-27-27-27-26-26-26-25-25-25-24-24-24-24-23-23-|


   T  T  T  T  T  T  T  T  T  T  T  T  T  T T T T T T T T T T T T T T T T T 
T T
--------------------------------------------------------------------------------
--------------------------------------------------------------------------------
--------------------------------------------------------------------------------
--------------------------------------------------------------------------------
--23-22-21-20-19-18-17-16-15-14-13-12-11-10-9-9-9-8-8-8-7-7-7-6-6-6-5-4-3-2-1-0-
--23-22-21-20-19-18-17-16-15-14-13-12-11-10-9-9-9-8-8-8-7-7-7-6-6-6-5-4-3-2-1-0-


                                                  PM PM PM PM PM PM PM PM PM
  H.           Q        H.           Q       Q    E  S  S  E  S  S  E  S  S
--------------------|---------------------|----------------------------------|
--------------------|---------------------|----------------------------------|
--------------------|---------------------|----------------------------------|
--8-----------------|--10-----------------|--0-------------------------------|
--8-----------------|--10-----------------|--0-------------------------------|
--8-----------------|--10-----------------|--0----0--0--0--0--0--0--0--0--0--|


  PM PM PM PM PM PM PM                     PM PM PM PM PM PM PM PM PM
  E  S  S  E  S  S  E   E   E   E     Q    E  S  S  E  S  S  E  S  S
-----------------------------------|----------------------------------|
-----------------------------------|----------------------------------|
-----------------------------------|----------------------------------|
-----------------------10--12--12--|--0-------------------------------|
------------------------8--10--10--|--0-------------------------------|
--0--0--0--0--0--0--0---8--10--10--|--0----0--0--0--0--0--0--0--0--0--|


  PM PM PM PM PM PM PM
  E  S  S  E  S  S  E   E   E   E     H.           Q        H.           Q
-----------------------------------|--------------------|---------------------|
-----------------------------------|--------------------|---------------------|
-----------------------------------|--------------------|---------------------|
-----------------------10--12--12--|--8-----------------|--10-----------------|
------------------------8--10--10--|--8-----------------|--10-----------------|
--0--0--0--0--0--0--0---8--10--10--|--8-----------------|--10-----------------|


       PM PM PM PM PM PM PM PM PM    PM PM PM PM PM PM PM
  Q    E  S  S  E  S  S  E  S  S     E  S  S  E  S  S  E   E   E   E
----------------------------------|-----------------------------------|
----------------------------------|-----------------------------------|
----------------------------------|-----------------------------------|
--0-------------------------------|-----------------------10--12--12--|
--0-------------------------------|------------------------8--10--10--|
--0----0--0--0--0--0--0--0--0--0--|--0--0--0--0--0--0--0---8--10--10--|


       PM PM PM PM PM PM PM PM PM    PM PM PM PM PM PM PM
  Q    E  S  S  E  S  S  E  S  S     E  S  S  E  S  S  E   E   E   E
----------------------------------|-----------------------------------|
----------------------------------|-----------------------------------|
----------------------------------|-----------------------------------|
--0-------------------------------|-----------------------10--12--12--|
--0-------------------------------|------------------------8--10--10--|
--0----0--0--0--0--0--0--0--0--0--|--0--0--0--0--0--0--0---8--10--10--|


                                                  PM PM PM
  H.           Q        H.           Q       Q    E  E  E  Q    E
--------------------|---------------------|------------------------|
--------------------|---------------------|------------------------|
--------------------|---------------------|------------------------|
--8-----------------|--12-----------------|--0---------------------|
--8-----------------|--10-----------------|--0----0--0--0--0-------|
--8-----------------|--10-----------------|--0----0--0--0--0-------|


     PM PM PM PM PM    PM PM PM PM PM    PM   PM PM PM PM
  E  S  S  S  S  E  E  S  S  S  S  E     Q    E  E  E  Q    E
--------------------------------------|------------------------|
--------------------------------------|------------------------|
--------------------------------------|------------------------|
--------------------------------------|--0---------------------|
-----0--0--0--0--0-----0--0--0--0--0--|--0----0--0--0--0-------|
-----0--0--0--0--0-----0--0--0--0--0--|--0----0--0--0--0-------|


     PM PM PM PM PM    PM PM PM PM PM
  E  S  S  S  S  E  E  S  S  S  S  E     H.           Q
--------------------------------------|--------------------|
--------------------------------------|--------------------|
--------------------------------------|--------------------|
--------------------------------------|--8-----------------|
-----0--0--0--0--0-----0--0--0--0--0--|--8-----------------|
-----0--0--0--0--0-----0--0--0--0--0--|--8-----------------|


                             PM PM PM
   H.           Q       Q    E  E  E  Q    E
---------------------|------------------------|
---------------------|------------------------|
---------------------|------------------------|
--12-----------------|--0---------------------|
--10-----------------|--0----0--0--0--0-------|
--10-----------------|--0----0--0--0--0-------|


     PM PM PM PM PM    PM PM PM PM PM    PM   PM PM PM PM
  E  S  S  S  S  E  E  S  S  S  S  E     Q    E  E  E  Q    E
--------------------------------------|------------------------|
--------------------------------------|------------------------|
--------------------------------------|------------------------|
--------------------------------------|--0---------------------|
-----0--0--0--0--0-----0--0--0--0--0--|--0----0--0--0--0-------|
-----0--0--0--0--0-----0--0--0--0--0--|--0----0--0--0--0-------|


     PM PM PM PM PM    PM PM PM PM PM
  E  S  S  S  S  E  E  S  S  S  S  E     H.           Q
--------------------------------------|--------------------|
--------------------------------------|--------------------|
--------------------------------------|--------------------|
--------------------------------------|--8-----------------|
-----0--0--0--0--0-----0--0--0--0--0--|--8-----------------|
-----0--0--0--0--0-----0--0--0--0--0--|--8-----------------|


                         |--3--| |-3-| |-3-| |-3-|
   H.           Q        T  T  T T T T T T T T T T E  Q    Q.
---------------------|--------------------------------------------|
---------------------|--------------------------------------------|
---------------------|--------------------------------------------|
--12-----------------|--------------------------------------------|
--10-----------------|--12-11-10-9-8-7-6-5-4-3-2-1----------------|
--10-----------------|--12-11-10-9-8-7-6-5-4-3-2-1----------------|


     PM PM    PM                PM PM    PM       PM
  E  E  E  E  E  E  E  E     E  E  E  E  E  E  E  E
--------------------------|--------------------------|
--------------------------|--------------------------|
--------------------------|--------------------------|
--------------------------|-----------------5--------|
--0--------5-----7--8--5--|--0--------5--------8-----|
--0--0--0-----0-----------|--0--0--0-----0--------0--|


     PM PM    PM                PM PM    PM       PM
  E  E  E  E  E  E  E  E     E  E  E  E  E  E  E  E
--------------------------|--------------------------|
--------------------------|--------------------------|
--------------------------|--------------------------|
-----------7--------5-----|--------------------------|
--0--------------8-----7--|--0--------3-----7--5-----|
--0--0--0-----0-----------|--0--0--0-----0--------0--|


     PM PM    PM                PM PM
  E  E  E  E  E  E  E  E     E  E  E  E  E  E  E  E
--------------------------|--------------------------|
--------------------------|--------------------------|
--------------------------|--------------------------|
--------------------------|--5-----------------------|
--0--------5-----7--8--7--|-----------8-----7--8--7--|
--0--0--0-----0-----------|-----0--0-----0-----------|


     PM PM    PM                  PM      PM             PM PM    PM
  E  E  E  E  E  E  E  E     Q    E  Q    E   Q       E  E  E  E  E  E  E  E
--------------------------|------------------------|--------------------------|
--------------------------|------------------------|--------------------------|
--------------------------|------------------------|--------------------------|
--7--------5--------------|------------------------|--------------------------|
-----------------7--8--7--|--0-------7-------12----|--0--------5-----7--8--5--|
-----0--0-----0-----------|--0----0--7----0--12----|--0--0--0-----0-----------|


     PM PM    PM       PM       PM PM    PM
  E  E  E  E  E  E  E  E     E  E  E  E  E  E  E  E
--------------------------|--------------------------|
--------------------------|--------------------------|
--------------------------|--------------------------|
-----------------5--------|-----------7--------5-----|
--0--------5--------8-----|--0--------------8-----7--|
--0--0--0-----0--------0--|--0--0--0-----0-----------|


     PM PM    PM       PM       PM PM    PM
  E  E  E  E  E  E  E  E     E  E  E  E  E  E  E  E
--------------------------|--------------------------|
--------------------------|--------------------------|
--------------------------|--------------------------|
--------------------------|--------------------------|
--0--------3-----7--5-----|--0--------5-----7--8--7--|
--0--0--0-----0--------0--|--0--0--0-----0-----------|


     PM PM                      PM PM    PM                  PM      PM
  E  E  E  E  E  E  E  E     E  E  E  E  E  E  E  E     Q    E  Q    E   Q
--------------------------|--------------------------|------------------------|
--------------------------|--------------------------|------------------------|
--------------------------|--------------------------|------------------------|
--5-----------------------|--7--------5--------------|--0-------7-------12----|
-----------8-----7--8--7--|-----------------7--8--7--|--0-------7-------12----|
-----0--0-----0-----------|-----0--0-----0-----------|--0----0--7----0--12----|


  PM PM     PM     PM               PM     PM
  E  E   E  E   E  E   E  E      E  E   E  E   S   S  E   E  E
-----------------------------|----------------------------------|
-----------------------------|----------------------------------|
-----------------------------|----------------------------------|
--------19--0--15--0--17--0--|--19--0--20--0--17h-19-17--15--0--|
--0--0-----------------------|----------------------------------|
--0--0-----------------------|----------------------------------|


     PM     PM     PM     PM        PM     PM
  E  E   E  E   E  E   E  E      E  E   E  E   S   S  E   E   E
-----------------------------|-----------------------------------|
-----------------------------|-----------------------------------|
-----------------------------|-----------------------------------|
--L--0--19--0--15--0--17--0--|--19--0--17--0--15h-17-15--14------|
-----------------------------|-------------------------------15--|
-----------------------------|-----------------------------------|


  H         S   S  E   E   E     H         S  S  E   E  E
------------------------------|----------------------------|
------------------------------|----------------------------|
------------------------------|----------------------------|
-----------15h-17-15--14------|-----------15-17-15--14--0--|
--L-----------------------17--|--L-------------------------|
------------------------------|----------------------------|


            PM     PM               PM     PM
  E  E   E  E   E  E   E  E      E  E   E  E   S   S  E   E  E
-----------------------------|----------------------------------|
-----------------------------|----------------------------------|
-----------------------------|----------------------------------|
--L--0--19--0--15--0--17--0--|--19--0--20--0--17h-19-17--15--0--|
-----------------------------|----------------------------------|
-----------------------------|----------------------------------|


     PM     PM     PM     PM        PM     PM
  E  E   E  E   E  E   E  E      E  E   E  E   S   S  E   E   E
-----------------------------|-----------------------------------|
-----------------------------|-----------------------------------|
-----------------------------|-----------------------------------|
--L--0--19--0--15--0--17--0--|--19--0--17--0--15h-17-15--14------|
-----------------------------|-------------------------------15--|
-----------------------------|-----------------------------------|


  H         S   S  E   E   E     H         S  S  E   E   E
------------------------------|-----------------------------|
------------------------------|-----------------------------|
------------------------------|-----------------------------|
-----------15h-17-15--14------|-----------15-17-15--14--15--|
--L-----------------------17--|--L--------------------------|
------------------------------|-----------------------------|


  W                   Q     Q     S   S  E   E   E
-------------------|--------------------------------|
-------------------|--------------------------------|
-------------------|--------------------------------|
--L----------------|--L-----L----15h-17-15--14------|
-------------------|----------------------------15--|
-------------------|--------------------------------|


  H         S  S  E   E   E     H         S  S  E   E   E     W
-----------------------------|-----------------------------|-------------------|
-----------------------------|-----------------------------|-------------------|
-----------------------------|-----------------------------|-------------------|
-----------15-17-15--14------|-----------15-17-15--14--15--|--L----------------|
--L----------------------17--|--L--------------------------|-------------------|
-----------------------------|-----------------------------|-------------------|


  Q     Q     S   S  E   E   E     H         S   S  E   E   E
--------------------------------|------------------------------|
--------------------------------|------------------------------|
--------------------------------|------------------------------|
--L-----L----15h-17-15--14------|-----------15h-17-15--14------|
----------------------------15--|--L-----------------------17--|
--------------------------------|------------------------------|


                                                                PM
  H         S   S  E   Q                           Q    Q    E  E
----------------------------|-------------------|------------------|
----------------------------|-------------------|------------------|
----------------------------|-------------------|------------------|
-----------15h-17-15--14----|-------------------|---------------0--|
--L-------------------------|-------------------|---------------0--|
----------------------------|-------------------|---------------0--|


       PM PM PM    PM PM    PM
  Q    E  E  E  E  E  E     E   E  E   E  E   E   E   E
-------------------------|-------------------------------|
-------------------------|-------------------------------|
-------------------------|------9-----10------9--10---9--|
--0-------------0--------|-----10-----10-----10--10--10--|
--0----0--0--0--0--0--0--|--0---8------8------8---8---8--|
--0----0--0--0--0--0--0--|--0----------------------------|


       PM PM PM    PM PM
  Q    E  E  E  E  E  E     E   E  E   E  E   E   E   E
-------------------------|-------------------------------|
-------------------------|-------------------------------|
-------------------------|------9-----12------9--10---9--|
--0-------------0--------|-----10-----10-----10--10--10--|
--0----0--0--0--0--0--0--|--0---8------8------8---8---8--|
--0----0--0--0--0--0--0--|--0----------------------------|


                                                     PM PM PM    PM PM
  Q    Q    Q    Q       Q    Q    Q    Q       Q    E  E  E  E  E  E
----------------------|----------------------|-------------------------|
----------------------|----------------------|-------------------------|
----------------------|----------------------|-------------------------|
--8-------------------|--5-------------------|--0-------------0--------|
--8-------------------|--5-------------------|--0----0--0--0--0--0--0--|
--8-------------------|--5-------------------|--0----0--0--0--0--0--0--|


  PM                                   PM PM PM    PM PM
  E   E  E   E  E   E   E   E     Q    E  E  E  E  E  E
-------------------------------|-------------------------|
-------------------------------|-------------------------|
------9-----10------9--10---9--|-------------------------|
-----10-----10-----10--10--10--|--0-------------0--------|
--0---8------8------8---8---8--|--0----0--0--0--0--0--0--|
--0----------------------------|--0----0--0--0--0--0--0--|


  E   E  E   E  E   E   E   E     Q    Q    Q    Q       Q    Q    Q    Q.
-------------------------------|----------------------|------------------------|
-------------------------------|----------------------|------------------------|
------9-----12------9--10---9--|----------------------|------------------------|
-----10-----10-----10--10--10--|--8-------------------|--5---------------------|
--0---8------8------8---8---8--|--8-------------------|--5---------------------|
--0----------------------------|--8-------------------|--5---------------------|


  PM   PM      PM PM PM    PM PM PM PM PM
  Q    Q    E  E  E  E     E  S  E  S  E  H
------------------------|--------------------------|
------------------------|--------------------------|
------------------------|--------------------------|
------------------------|--------------------------|
--0----0-------0--0--0--|--2--2--2--2--2-----------|
--0----0-------0--0--0--|--2--2--2--2--2-----------|


  PM PM PM PM PM PM             PM PM PM PM PM
  S  S  S  E  S  E  H           E  S  E  S  E  H
-----------------------------|--------------------------|
-----------------------------|--------------------------|
-----------------------------|--------------------------|
-----------------------------|--------------------------|
--2--2--2--2--2--2-----------|--2--2--2--2--2-----------|
--2--2--2--2--2--2-----------|--2--2--2--2--2-----------|


                            PM PM PM PM PM
  E  E  E  E  E  E  Q       E  S  E  S  E  H
-------------------------|--------------------------|
-------------------------|--------------------------|
-------------------------|--------------------------|
-----0--2-----0--4--0----|--------------------------|
--------------------0----|--2--2--2--2--2-----------|
--2--------4--------0----|--2--2--2--2--2-----------|


  PM PM PM PM PM PM             PM PM PM PM PM
  S  S  S  E  S  E  H           E  S  E  S  E  H
-----------------------------|--------------
7 comments total. Showing first comments.
0 reply
Daniel_Harding wrote on December 17 2006, 08:33 pm

Awesome Tab :D

0 reply
von demon wrote on August 31 2007, 07:49 pm

Yeh, good work. Onward Christian Soul...

0 reply
von demon wrote on August 31 2007, 07:50 pm

Actually i F**Cing DO NOT BELIEVE.

I want to post or [tab]
guest
You may want to rate the tab now too:
select rating
Please do not post tabs as comments. Select "correction" instead!