Oops, an error
Loading. Please wait.

Karma Tab

ver1
ver1

Whole song

Interactive

More versions @911Tabs.com
63,905 views 291 this week
3 commentsread comments
1 2 3 4 5
excellent!
x 10
Autoscroll
+/-
esc
set tempo
stop
Contributor
Difficulty
Tuning
intermediate
A# F A# D# G C
Hey! There's an official Ultimate Guitar app which is ideal
for learning songs when you're away from computer. Get the app
WARNING: You are trying to view
                                    content from Ultimate-Guitar.com
                                    in an unauthorized application,
                                    which is prohibited.

                                    Please use an official Ultimate
                                    Guitar Tabs application for iPhone,
                                    iPad or Android to access legitimate
                                    chords, guitar, bass, and drum tabs
                                    from Ultimate-Guitar.com database.

                                    Type "ultimate guitar tabs" in Apple
                                    App Store's or Android Market's
                                    search to find the application.
[Karma]
[Deep Blue]
[Parkway Drive]

Tuning: Drop A# (A#FA#D#GC/Drop D two steps down)
joshuaoliveira@hotmail.com

follow the times! they're key in this mess of a tab :/

As Requested By: JRohrer14

[Riff 1, Guitar 1 & 2] - [00:04] - [00:14]
- -----------------------------------------------------------------|
- -----------------------------------------------------------------|
- -----------------------------------------------------------------|
- -----------------------------------------------------------------|
- -5-8-0-7-------------------------5-8-0-7-----3-7-0-5-------------|
- ---------8-0-0-0-0-0-0-0-0-0-0-0---------8-0---------7-0-5-7-5-0-|
PM     .     ...   .   .....   .       .     .     .     .........
-
- -----------------------------------------------------------------|
- -----------------------------------------------------------------|
- -----------------------------------------------------------------|
- -----------------------------------------------------------------|
- -5-8---7-------------------------5-8---7-----3-7---5-------------|
- -----0---8---------------------------0---8-0-----0---7-----------|
PM     .                               .     .     .


- -----------------------------------------------------------------|
- -----------------------------------------------------------------|
- -----------------------------------------------------------------|
- -----------------------------------------------------------------|
- -5-8-0-7-------------------------5-8---7-----7-10---10-----------|
- ---------8-0-0-0-0-0-0-0-0-0-0-0-----0---8-0------0----8---------|
PM     .     ...   .   .....   .       .     .      .
-
- -----------------------------------------------------------------|
- -----------------------------------------------------------------|
- -----------------------------------------------------------------|
- -----------------------------------------------------------------|
- -5-8---7-------------------------5-8---7-----7-10---10-----------|
- -----0---8---------------------------0---8-0------0----8---------|
PM     .                               .     .      .

----------------------------------------------------------------------------

[Riff 2] - [00:14] - [00:33]
- -----------------------------------------------------------------|
- -----------------------------------------------------------------|
- -----------------------------------------------------------------|
- -----------------------------------------------------------------|
- -5-8---7-------------------------5-8---7-----3-7---5-------------|
- -----0---8-0-0-0-0-0-0-0-0-0-0-0-----0---8-0-----0---7-0-5-7-5-0-|
PM     .     ...   .   .....   .       .     .     .     .........

- -------------------------------------------------------------------|
- -------------------------------------------------------------------|
- -------------------------------------------------------------------|
- -------------------------------------------------------------------|
- -5-8---7-------------------------5-8---7-----7-10---10-------------|
- -----0---8-0-0-0-0-0-0-0-0-0-0-0-----0---8-0------0----8-0-8-7-5-5-|
PM     .     ...   .   .....   .       .     .      .      .........

- -----------------------------------------------------------------|
- -----------------------------------------------------------------|
- -----------------------------------------------------------------|
- -----------------------------------------------------------------|
- -5-8---7-------------------------5-8---7-----3-7---5-------------|
- -----0---8-0-0-0-0-0-0-0-0-0-0-0-----0---8-0-----0---7-0-5-7-5-0-|
PM     .     ...   .   .....   .       .     .     .     .........

- -------------------------------------------------------------------|
- -------------------------------------------------------------------|
- -------------------------------------------------------------------|
- -------------------------------------------------------------------|
- -5-8---7-------------------------5-8---7-------------------/7~-----|
- -----0---8-0-0-0-0-0-0-0-0-0-0-0-----0---8\--------3---------------|
PM     .     ...   .   .....   .       .

----------------------------------------------------------------------------

[Riff 3, Guitar 1 & 2] - [00:33] - [00:46]
- --------------------------------------------------------|
- --------------------------------------------------------|
- --------------------------------------------------------|
- -0~----------------------------2h3p2----3h5p3----5h7p5--|
- -0~---------------------------------3p1------5p3------7-|
- -0~-----------------------------------------------------|
-
- --------------------------------------------------------|
- --------------------------------------------------------|
- --------------------------------------------------------|
- -7h8p7-----7h8p7-----7h8p7-----2h3p2----3h5p3----5h7p5--|
- ------8---------8---------8---------3p1------5p3------7-|
- -------0---------0---------0----------------------------|


- --------------------------------------------------------|
- --------------------------------------------------------|
- --------------------------------------------------------|
- -7h8p7-----7h8p7-----7h8p7-----2h3p2----3h5p3----5h7p5--|
- ------8---------8---------8---------3p1------5p3------7-|
- -------0---------0---------0----------------------------|
-
- --------------------------------------------------------|
- --------------------------------------------------------|
- --------------------------------------------------------|
- -7h8p7-----7h8p7-----7h8p7-----2h3p2----3h5p3----5h7p5--|
- ------8---------8---------8---------3p1------5p3------7-|
- -------0---------0---------0----------------------------|

----------------------------------------------------------------------------

[Riff 4] - [00:46] - [00:59]
- --------------------------------------------------------|
- --------------------------------------------------------|
- --------------------------------------------------------|
- -7h8p7-----7h8p7-----7h8p7-----2h3p2----3h5p3----5h7p5--|
- ------8---------8---------8---------3p1------5p3------7-|
- -------0---------0---------0----------------------------|

- -----------------------------------------------------------------|
- -----------------------------------------------------------------|
- ---------------------5-------------------------------------------|
- -7h8p7----------5h7h8--8p7----7h8p7-----2h3p2----3h5p3----5h7p5--|
- ------8----3h5h7-------------------8---------3p1------5p3------7-|
- -------0------------------0---------0----------------------------|

[Riff 5] - [00:59] - [01:12]
- ----------------------------------------------------------------------|
- ----------------------------------------------------------------------|
- ----------------------------------------------------------------------|
- -7h8p7------------7h8p7------------7h8p7------------2h3p2----3h5p3----|
- ------8--00000000------8--00000000------8--00000000------3p1------5p3-|
- -------0-00000000-------0-00000000-------0-00000000-------------------|
PM         ........         ........         ........

- -------------------------------------------------------------------------|
- -------------------------------------------------------------------------|
- ------------------------------5------------------------------------------|
- -5h7p5-7h8p7-------------5h7h8--8p7------------7h8p7------------2h3p2----|
- ------7-----8--0000-3h5h7-------------00000000------8--00000000------3p1-|
- -------------0-0000-----------------0-00000000-------0-00000000----------|
PM               ....                   ........         ........

- -----------------|
- -----------------|
- -----------------|
- -3h5p3----5h7p5--|
- ------5p3------7-|
- -----------------|

----------------------------------------------------------------------------

[Riff 6, Guitar 1 & 2] - [01:12] - [01:17]
- -----------------------------------------------------------------|
- -----------------------------------------------------------------|
- -----------------------------------------------------------------|
- -----------------------------------------------------------------|
- -5-8---7-------------------------5-8---7-----3-7---5-------------|
- -----0---8-0-0-0-0-0-0-0-0-0-0-0-----0---8-0-----0---7-----------|
PM     .     ...   .   .....   .       .     .     .
-
- -----------------------------------------------------------------|
- -----------------------------------------------------------------|
- -----------------------------------------------------------------|
- -----------------------------------------------------------------|
- -5-8---7-------------------------5-8---7-----3-7---5-------------|
- -----0---8---------------------------0---8-0-----0---7-----------|
PM     .                               .     .     .

[Riff 7] - [01:17] - [01:22]
- -------------------------------------------------------------------|
- -------------------------------------------------------------------|
- -------------------------------------------------------------------|
- -------------------------------------------------------------------|
- -5-8---7-------------------------5-8---7-----7-10---10-------------|
- -----0---8-0-0-0-0-0-0-0-0-0-0-0-----0---8-0------0----8-0-8-7-5-5-|
PM     .     ...   .   .....   .       .     .      .      .........

[Riff 8] - [01:22] - [01:34]
- -------------------------------------------------------------------|
- -------------------------------------------------------------------|
- -------------------------------------------------------------------|
- -------------------------------------------------------------------|
- -5-8---7-------0---0---0---0---0-5-8---7-------------------/7~-----|
- -----0---8\----0---0---0---0---0-----0---8\--------3---------------|
PM     .         .................     .

- ---------------------------------------------------------|
- ---------------------------------------------------------|
- ---------------------------------------------------------|
- -----------------------------------------8-------3---7-2-|
- -5-8-----------0---0---0---0---0-5-8---7-8-------3---7-2-|
- -----0-7/8\----0---0---0---0---0-----0---8-------3---7-2-|
PM     .         .................     .

----------------------------------------------------------------------------

[Riff 9, Guitar 1 & 2] - [01:34] - [01:47]
- -----------------------------------------------------------------|
- -----------------------------------------------------------------|
- -----------------------------------------------------------------|
- -3-3-3---------------------------2-2-2-2---0---------------------|
- -3-3-3-----0-0-0-0---0---0-0-0---3-3-3-3---0---------------------|
- -3-3-3-2---0-0-0-0---0---0-0-0---2-2-2-2---0---------------------|
PM           ...................
-
- -----------------------------------------------------------------|
- -----------------------------------------------------------------|
- -----------------------------------------------------------------|
- -3-3-3-----0---------------------2-2-2-2-------------------------|
- -3-3-3-3---0---------------------3-3-3-3---0-0-0-0---0---0-0-0---|
- -3-3-3-----0---------------------2-2-2-2---0-0-0-0---0---0-0-0---|
PM                                           ...................


- -----------------------------------------------------------------|
- -----------------------------------------------------------------|
- -----------------------------------------------------------------|
- -3-3-3---------------------------2-2-2-2-------------------------|
- -3-3-3-----0-0-0-0---0---0-0-0---3-3-3-3---0-0---0-0---0-0-------|
- -3-3-3-2---0-0-0-0---0---0-0-0---2-2-2-2---0-0---0-0---0-0-------|
PM           ...................             ...............
-
- -----------------------------------------------------------------|
- -----------------------------------------------------------------|
- -----------------------------------------------------------------|
- -3-3-3-----0---------------------2-2-2-2-------------------------|
- -3-3-3-3---0---------------------3-3-3-3---0-0---0-0---0-0-------|
- -3-3-3-----0---------------------2-2-2-2---0-0---0-0---0-0-------|
PM                                           ...............

----------------------------------------------------------------------------

[Riff 10, Guitar 1 & 2] - [01:47] - [02:01]
- -----------------------------------------------------------------|
- -----------------------------------------------------------------|
- -----------------------------------------------------------------|
- -------2-------------------------2-2-2-2-------------------------|
- -------3---0-0-0-0---0---0-0-0---3-3-3-3---0-0-0-0---0---0-0-0---|
- -------2---0-0-0-0---0---0-0-0---2-2-2-2---0-0-0-0---0---0-0-0---|
PM           ...................             ...................
-
- -----------------------------------------------------------------|
- -----------------------------------------------------------------|
- -----------------------------------------------------------------|
- -3-3-3-2-------------------------2-2-2-2-------------------------|
- -3-3-3-3---0-0-0-0---0---0-0-0---3-3-3-3---0-0-0-0---0---0-0-0---|
- -3-3-3-2---0-0-0-0---0---0-0-0---2-2-2-2---0-0-0-0---0---0-0-0---|
PM           ...................             ...................


- -----------------------------------------------------------------|
- -----------------------------------------------------------------|
- -----------------------------------------------------------------|
- -3-3-3-2-------------------------2-2-2-2-------------------------|
- -3-3-3-3---0-0-0-0---0---0-0-0---3-3-3-3---0-0---0-0---0-0-------|
- -3-3-3-2---0-0-0-0---0---0-0-0---2-2-2-2---0-0---0-0---0-0-------|
PM           ...................             ...............
-
- -----------------------------------------------------------------|
- -----------------------------------------------------------------|
- -----------------------------------------------------------------|
- -3-3-3-2-------------------------2-2-2-2-------------------------|
- -3-3-3-3---0-0-0-0---0---0-0-0---3-3-3-3---0-0---0-0---0-0-------|
- -3-3-3-2---0-0-0-0---0---0-0-0---2-2-2-2---0-0---0-0---0-0-------|
PM           ...................             ...............

----------------------------------------------------------------------------

[Riff 11] - [02:01] - [02:15]
- -----------------------------------------------------------------|
- -----------------------------------------------------------------|
- -----------------------------------------------------------------|
- -3-3-3-2-------------------------2-2-2-2-------------------------|
- -3-3-3-3---0-0-0-0---0---0-0-0---3-3-3-3---0-0-0-0---0---0-0-0---|
- -3-3-3-2---0-0-0-0---0---0-0-0---2-2-2-2---0-0-0-0---0---0-0-0---|
PM           ...................             ...................

- -----------------------------------------------------------------|
- -----------------------------------------------------------------|
- -----------------------------------------------------------------|
- -3-3-3-2-------------------------2-2-2-2-------------------------|
- -3-3-3-3---0-0-0-0---0---0-0-0---3-3-3-3---0-0---0-0---0-0-------|
- -3-3-3-2---0-0-0-0---0---0-0-0---2-2-2-2---0-0---0-0---0-0-------|
PM           ...................             ...............

----------------------------------------------------------------------------

[Riff 12a] - [02:15] - [02:30]-------------| 2x
- -----------------------------------------|
- -----------------------------------------|
- -----------------------------------------|
- -0--------------0-------3-------5--5--5--|
- -0--------------0-------1-------3--3--3--|
- -0--------------0------------------------|

[Riff 12b] - [02:15] - [02:30]--------------------------------------| 2x
- -------17-----17----13h15h17----15p13p12------------17-----17-----|
- ----15----15-------------------------------------15----15---------|
- -14---------14--------------------------------14---------14-------|
- ------------------------------------------------------------------|
- ------------------------------------------------------------------|
- ------------------------------------------------------------------|

- -13h15h17----15p13-15--13--12-|
- ------------------------------|
- ------------------------------|
- ------------------------------|
- ------------------------------|
- ------------------------------|

----------------------------------------------------------------------------

[Riff 13] - [02:30] - [02:45]---------------------------------------| 2x
- ------------------------------------------------------------------|
- ------------------------------------------------------------------|
- ------------------------------------------------------------------|
- -------------------------------------------------3-------5--5--5--|
- -0-0-0-000---------0-0-----0-0---0-0-0-000-------1-------3--3--3--|
- -0-0-0-000---------0-0-----0-0---0-0-0-000------------------------|
PM .........................................

[Riff 12b] - [02:30] - [02:45] - 2x

----------------------------------------------------------------------------

[Riff 14a] - [02:45] - [03:00]
- -----------------------------------|
- -----------------------------------|
- -----------------------------------|
- -5---7---8-----10--5---7---3-------|
- -5---7---8-----10--5---7---3-------|
- -5---7---8-----10--5---7---3-------|

[Riff 14b] - [02:45] - [03:00]
- -13h17p13--------------13h17p13-----12h13p12---------12-13h15p13p12-----|
- ---------15--------------------15-----------15p13-15---------------15---|
- -----------14--------------------14-------------------------------------|
- ------------------------------------------------------------------------|
- ------------------------------------------------------------------------|
- ------------------------------------------------------------------------|

- ------13h15p13p12------13h17p13----------------13h17p13-----12h13p12-|
- -----------------15------------15----------------------15------------|
- ---------------------------------14----------------------14----------|
- ---------------------------------------------------------------------|
- ---------------------------------------------------------------------|
- ---------------------------------------------------------------------|

- ----------12-13h15p13p12---------------20----------20----------20b-|
- -15p13-15---------------15--------17h18---18p17p15----18p17p15-----|
- -------------------------------------------------------------------|
- -------------------------------------------------------------------|
- -------------------------------------------------------------------|
- -------------------------------------------------------------------|

----------------------------------------------------------------------------

[Riff 15a] - [03:00] - [03:15]
- ---------------------------------------------------------------------|
- ---------------------------------------------------------------------|
- ---------------------------------------------------------------------|
- ---------------------------------------------------------------------|
- -5-5-5-5-5-5-5-5-7-7-7-7-7-7-7-7-8-8-8-8-8-8-8-8-8-8-8-8-10-10-10-10-|
- -5-5-5-5-5-5-5-5-7-7-7-7-7-7-7-7-8-8-8-8-8-8-8-8-8-8-8-8-10-10-10-10-|
PM ...................................................................

- -----------------------------------------------------------------|
- -----------------------------------------------------------------|
- -----------------------------------------------------------------|
- -----------------------------------------------------------------|
- -5-5-5-5-5-5-5-5-7-7-7-7-7-7-7-7-3-3-3-3-3-3-3-3-3-3-3-3-3-3-3-3-|
- -5-5-5-5-5-5-5-5-7-7-7-7-7-7-7-7-3-3-3-3-3-3-3-3-3-3-3-3-3-3-3-3-|

[Riff 15b, Guitar 1 & 2] - [03:00] - [03:08]
- -------------------------------------------------------------------|
- ----------------------------------------------------13----------13-|
- ------7-10------7-10-------9-12-------9-12-------10----------10----|
- ----8---------8---------10---------10---------12----------12-------|
- -10--------10--------12---------12---------13----------13----------|
- -------------------------------------------------------------------|
PM ......    ......    .......    .......    ........    ........

- -------------------------|
- ----------13/15\13-------|
- -------10----------12-10-|
- ----12-------------------|
- -13----------------------|
- -------------------------|
PM ........
-
- ----------12/13\12-------|
- -------------------13-10-|
- -------------------------|
- -------------------------|
- -------------------------|
- -------------------------|

[Riff 16a] - [03:08] - [03:15]
- -----------------------------------------------------------|
- -----------------------------------------------------------|
- ------7-10------7-10-------9-12-------9-12-----5-9-----5-9-|
- ----8---------8---------10---------10--------7-------7-----|
- -10--------10--------12---------12---------8-------8-------|
- -----------------------------------------------------------|
PM ......    ......    .......    .......    .....   .....

- -------------------|
- -------------------|
- -----5-9/10\9-7----|
- ---7------------10-|
- -8-----------------|
- -------------------|
PM .....

[Riff 16b] - [03:08] - [03:15]
- -----------------------------------------------------------------------|
- ----------------------------------13----------13-----------------------|
- -------10-14-------10-14-------12----------12----------9-12-------9-12-|
- ----12----------12----------14----------14----------10---------10------|
- -13----------13----------15----------15----------12---------12---------|
- -----------------------------------------------------------------------|
PM ........    ........    ........    ........    .......    .......

- -----------------------|
- -----------------------|
- -------9-12/14\12-10-9-|
- ----10-----------------|
- -12--------------------|
- -----------------------|
PM .......

----------------------------------------------------------------------------

[Riff 5] - [03:15] - [03:42] - 2x

[Riff 17] - [03:42] - [03:49]
- ------------------------------|
- ------------------------------|
- ------------------------------|
- -2h3p2----3h5p3----5h7p5--0---|
- ------3p1------5p3------7-0---|
- --------------------------0---|

----------------------------------------------------------------------------

[Symbols]

PM... Palm Mute notes with (...) under them
/     Slide Up
\     Slide Down
~     Let Ring/Vibrato
h     Hammer On
p     Pull Off
b     Bend


:)
comments
print report bad tab
3 comments total.
0 reply
darkhero101010 wrote on November 1 2011, 10:51 am

- --------------------------------------------------------|
- --------------------------------------------------------|
- --------------------------------------------------------|
- -0~----------------------------2h3p2----3h5p3----5h7p5--|
- -0~---------------------------------3p1------5p3------7-|
- -0~-----------------------------------------------------|
the notes are right but this is how they play it ( its also easier to play this way)

- --------------------------------------------------------|
- --------------------------------------------------------|
- --------------------------------------------------------|
- -0~-----------------------------------------------------|
- -0~-----------------------7h8p7--------8h10p8---------10h12p10--|
- -0~------------------------------10h8-----------12h10-----------14--|

0 reply
iiPablo wrote on February 8 2013, 05:02 pm

I think the solo is actually:
- -------16-----16----12h14h16----14p12p11
- ----14----14----------------------------
- -13-------------------------------------
- ----------------------------------------
- ----------------------------------------
- ----------------------------------------
could be my poor tuning though

+2 reply
iiPablo wrote on February 8 2013, 05:05 pm

sorry, I was tuned to drop b when I realised this

I want to post or [tab]
guest
You may want to rate the tab now too:
select rating
Please do not post tabs as comments. Select "correction" instead!