Oops, an error
Loading. Please wait.

Karma Tab

ver2
ver2

Whole song

Interactive

More versions @911Tabs.com
3,788 views 51 this week
1 commentread comment
1 2 3 4 5
excellent!
x 3
Autoscroll
+/-
esc
set tempo
stop
Contributor
Hey! There's an official Ultimate Guitar app which is ideal
for learning songs when you're away from computer. Get the app
WARNING: You are trying to view
                                    content from Ultimate-Guitar.com
                                    in an unauthorized application,
                                    which is prohibited.

                                    Please use an official Ultimate
                                    Guitar Tabs application for iPhone,
                                    iPad or Android to access legitimate
                                    chords, guitar, bass, and drum tabs
                                    from Ultimate-Guitar.com database.

                                    Type "ultimate guitar tabs" in Apple
                                    App Store's or Android Market's
                                    search to find the application.
PARKWAY DRIVE

KARMA

A#-F-A#-D#-G-C

TABBED BY andherembrace



L
-----------------------------------------------------------------|
-----------------------------------------------------------------|
-----------------------------------------------------------------|
-----------------------------------------------------------------|
-5-8---7-------------------------5-8---7-----3-7---5-------------|
-----0---8-0-0-0-0-0-0-0-0-0-0-0-----0---8-0-----0---7-0-5-7-5-3-|
     *     * *   *   * * *   *       *     *     *     * * * * *
R
---------------------------------------------------------------|
---------------------------------------------------------------|
---------------------------------------------------------------|
---------------------------------------------------------------|
-5-8---7-------------------------5-8---7-----3-7---5-----------|
-----0---8---------------------------0---8-0-----0---7---------|
     *                               *     *     *


L
-----------------------------------------------------------|
-----------------------------------------------------------|
-----------------------------------------------------------|
-----------------------------------------------------------|
-5-8---7-------------------------5-8---7-----7-10---10-----|
-----0---8-0-0-0-0-0-0-0-0-0-0-0-----0---8-0------0----8---|
     *     * *   *   * * *   *       *     *      *
R
-----------------------------------------------------------|
-----------------------------------------------------------|
-----------------------------------------------------------|
-----------------------------------------------------------|
-5-8---7-------------------------5-8---7-----7-10---10-----|
-----0---8---------------------------0---8-0------0----8---|
     *                               *     *      *


0:14

B
-----------------------------------------------------------------|
-----------------------------------------------------------------|
-----------------------------------------------------------------|
-----------------------------------------------------------------|
-5-8---7-------------------------5-8---7-----3-7---5-------------|
-----0---8-0-0-0-0-0-0-0-0-0-0-0-----0---8-0-----0---7-0-5-7-5-3-|
     *     * *   *   * * *   *       *     *     *     * * * * *

-------------------------------------------------------------------|
-------------------------------------------------------------------|
-------------------------------------------------------------------|
-------------------------------------------------------------------|
-5-8---7-------------------------5-8---7-----7-10---10-------------|
-----0---8-0-0-0-0-0-0-0-0-0-0-0-----0---8-0------0----8-0-8-7-5-3-|
     *     * *   *   * * *   *       *     *      *      * * * * *

-----------------------------------------------------------------|
-----------------------------------------------------------------|
-----------------------------------------------------------------|
-----------------------------------------------------------------|
-5-8---7-------------------------5-8---7-----3-7---5-------------|
-----0---8-0-0-0-0-0-0-0-0-0-0-0-----0---8-0-----0---7-0-5-7-5-3-|
     *     * *   *   * * *   *       *     *     *     * * * * *

------------------------------------------------------|
------------------------------------------------------|
------------------------------------------------------|
------------------------------------------------------|
-5-8---7-------------------------5-8---7--------------|
-----0---8-0-0-0-0-0-0-0-0-0-0-0-----0---8---3---14~--|
     *     * *   *   * * *   *       *     \   /


0:33

L
--------------------------------------------------|
--------------------------------------------------|
--------------------------------------------------|
--------------------------------------------------|
-0------------------------------------------------|
-0------------------------------------------------|

R
--------------------------------------------------|
--------------------------------------------------|
----_____------------_____------------_____-------|
---/     \----------/     \----------/     \------|
-12-13-12---------12-13-12---------12-13-12-------|
----------15-0-------------15-0-------------15-0--|

0:38

B
-----------------------------------------|
-----------------------------------------|
---_------------__------------__---------|
--/ \ ---------/  \----------/  \--------|
-7-8-7--------8-10-8-------10-12-10------|
-------10-8----------12-10----------12---|

--------------------------------------------------|
--------------------------------------------------|
----_____------------_____------------_____-------|
---/     \----------/     \----------/     \------|
-12-13-12---------12-13-12---------12-13-12-------|
----------15-0-------------15-0-------------15-0--|

-----------------------------------------|
-----------------------------------------|
---_------------__------------__---------|
--/ \ ---------/  \----------/  \--------|
-7-8-7--------8-10-8-------10-12-10------|
-------10-8----------12-10----------12---|


0:46

------------------------------------------------------------|
------------------------------------------------------------|
----_____---------------_____---------------_____-----------|
---/     \-------------/     \-------------/     \----------|
-12-13-12------------12-13-12------------12-13-12-----------|
----------15-0--0-0-----------15-0--0-0-----------15-0--0-0-|

-----------------------------------------|
-----------------------------------------|
---_------------__------------__---------|
--/ \ ---------/  \----------/  \--------|
-7-8-7--------8-10-8-------10-12-10------|
-------10-8----------12-10----------12---|

----------------------------------------------------------------|
----------------------------------------------------------------|
----_____---------------------------------------_____-----------|
---/     \----------------/\-----^-------------/     \----------|
-12-13-12-----------/\--121315-13-12---------12-13-12-----------|
----------15-0--0-121315-------------0--0-0-----------15-0--0-0-|

------------------------------------------|
------------------------------------------|
----_------------__------------__---------|
---/ \ ---------/  \----------/  \--------|
--7-8-7--------8-10-8-------10-12-10------|
8-------10-8----------12-10----------12---|



0:59

----------------------------------------------------------------------|
----------------------------------------------------------------------|
----_____------------------_____------------------_____---------------|
---/     \----------------/     \----------------/     \--------------|
-12-13-12---------------12-13-12---------------12-13-12---------------|
----------15-0--00000000---------15-0--00000000---------15-0--00000000|
                ********               ********               ********
-----------------------------------------|
-----------------------------------------|
---_------------__------------__---------|
--/ \ ---------/  \----------/  \--------|
-7-8-7--------8-10-8-------10-12-10------|
-------10-8----------12-10----------12---|


------------------------------------------------------------------------|
------------------------------------------------------------------------|
---_____---------------------------------------------_____--------------|
--/     \-------------------/\-----^----------------/     \-------------|
12-13-12--------------/\--121315-13-12------------12-13-12--------------|
---------15-0--0000-121315-------------0--00000000--------15-0--00000000|
               ****                       ********              ********

-----------------------------------------|
-----------------------------------------|
---_------------__------------__---------|
--/ \ ---------/  \----------/  \--------|
-7-8-7--------8-10-8-------10-12-10------|
-------10-8----------12-10----------12---|




1:12

L
-------------------------------------------------------|
-------------------------------------------------------|
-------------------------------------------------------|
-------------------------------------------------------|
-5-8---7-------------------------5-8---7-----3-7---5---|
-----0---8-0-0-0-0-0-0-0-0-0-0-0-----0---8-0-----0---7-|
     *     * *   *   * * *   *       *     *     *
R
--------------------------------------------------------|
--------------------------------------------------------|
--------------------------------------------------------|
--------------------------------------------------------|
-5-8---7-------------------------5-8---7-----3-7---5----|
-----0---8---------------------------0---8-0-----0---7--|
     *                               *     *     *

B
-------------------------------------------------------------------|
-------------------------------------------------------------------|
-------------------------------------------------------------------|
-------------------------------------------------------------------|
-5-8---7-------------------------5-8---7-----7-10---10-------------|
-----0---8-0-0-0-0-0-0-0-0-0-0-0-----0---8-0------0----8-0-8-7-5-3-|
     *     * *   *   * * *   *       *     *      *      * * * * *

-----------------------------------------------------------------|
-----------------------------------------------------------------|
-----------------------------------------------------------------|
-----------------------------------------------------------------|
-5-8---7-----0-0-0-0-0-5-8---7-------------5-8---7-----0-0-0-0-0-|
-----0---8\--0-0-0-0-0-----0---8---3---14------0---8\--0-0-0-0-0-|
     *       * * * * *     *     \   /         *       * * * * *


------------------------------------|
------------------------------------|
------------------------------------|
---------8--------3--------7---2----|
-5-8---7-8--------3--------7---2----|
-----0---8--------3--------7---2----|
     *

1:34

B


           L                   B         R
------------------------------------------------------------|
------------------------------------------------------------|
-------R)----------------------------R)---------------------|
-3-3-3-2-----------------------3-3-3-2----------------------|
-3-3-3-2---0-0-0-0--0--0-0-0---3-3-3-2---0-0-0-0--0--0-0-0--|
-3-3-3-2---0-0-0-0--0--0-0-0---3-3-3-2---0-0-0-0--0--0-0-0--|
           * * * *  *  * * *             * * * *  *  * * *
B          L                   B
--------------------------------------------------------|
--------------------------------------------------------|
--------------------------------------------------------|
-3-3-3-2-----------------------3-3-3-2------------------|
-3-3-3-2---0-0-0-0--0--0-0-0---3-3-3-2---0-0--0-0--0-0--|
-3-3-3-2---0-0-0-0--0--0-0-0---3-3-3-2---0-0--0-0--0-0--|
           * * * *  *  * * *             * *  * *  * *

R         B
------------------------------------------------------------|
------------------------------------------------------------|
------------------------------------------------------------|
-3-3-3-2-----------------------3-3-3-2----------------------|
-3-3-3-2---0-0-0-0--0--0-0-0---3-3-3-2---0-0-0-0--0--0-0-0--|
-3-3-3-2---0-0-0-0--0--0-0-0---3-3-3-2---0-0-0-0--0--0-0-0--|
           * * * *  *  * * *             * * * *  *  * * *

--------------------------------------------------------|
--------------------------------------------------------|
--------------------------------------------------------|
-3-3-3-2-----------------------3-3-3-2------------------|
-3-3-3-2---0-0-0-0--0--0-0-0---3-3-3-2---0-0--0-0--0-0--|
-3-3-3-2---0-0-0-0--0--0-0-0---3-3-3-2---0-0--0-0--0-0--|
           * * * *  *  * * *             * *  * *  * *

------------------------------------------------------------|
------------------------------------------------------------|
------------------------------------------------------------|
-3-3-3-2-----------------------3-3-3-2----------------------|
-3-3-3-2---0-0-0-0--0--0-0-0---3-3-3-2---0-0-0-0--0--0-0-0--|
-3-3-3-2---0-0-0-0--0--0-0-0---3-3-3-2---0-0-0-0--0--0-0-0--|
           * * * *  *  * * *             * * * *  *  * * *

--------------------------------------------------------|
--------------------------------------------------------|
--------------------------------------------------------|
-3-3-3-2-----------------------3-3-3-2------------------|
-3-3-3-2---0-0-0-0--0--0-0-0---3-3-3-2---0-0--0-0--0-0--|
-3-3-3-2---0-0-0-0--0--0-0-0---3-3-3-2---0-0--0-0--0-0--|
           * * * *  *  * * *             * *  * *  * *



2:15


MELODY                           ^     )(
-------17-----17----13-15-17---15-13-12-------|
----15---15-----------------------------------|
-14--------14---------------------------------|
----------------------------------------------|
----------------------------------------------|
----------------------------------------------|

RYTHM
----------------------------------------------|
----------------------------------------------|
----------------------------------------------|
-0--------------------------------------------|
-0--------------------------------------------|
-0--------------------------------------------|


MELODY                          ^
-------17-----17----13-15-17--15-13--15-13-12-|
----15---15-----------------------------------|
-14--------14---------------------------------|
----------------------------------------------|
----------------------------------------------|
----------------------------------------------|
RYTHM
----------------------------------------------|
----------------------------------------------|
----------------------------------------------|
-0------------------------8----------10-10-10-|
-0------------------------8----------10-10-10-|
-0------------------------8----------10-10-10-|

RYTHM L
----------------------------------------------|
----------------------------------------------|
----------------------7-910-------9-7-9-7-5---|
----------------------X-X-X-------X-X-X-X-X---|
----------------------5/7-8-------7\5-7-5-3---|
----------------------------------------------|
RYTHM R
----------------------------------------------|
----------------------------------------------|
---------------------10-12-14----1210-1210-9--|
----------------------X--X--X-----X-X--X-X-X--|
----------------------8/10-12----10\8-10-8-7--|
----------------------------------------------|


MELODY                           ^     )(
-------17-----17----13-15-17---15-13-12-------|
----15---15-----------------------------------|
-14--------14---------------------------------|
----------------------------------------------|
----------------------------------------------|
----------------------------------------------|
RYTHM
----------------------------------------------|
----------------------------------------------|
----------------------------------------------|
-0--------------------------------------------|
-0--------------------------------------------|
-0--------------------------------------------|
RYTHM R
----------------------------------------------|
----------------------------------------------|
-10-------------------------------------------|
-X--------------------------------------------|
-8--------------------------------------------|
----------------------------------------------|




MELODY                          ^
-------17-----17----13-15-17--15-13--15-13-12-|
----15---15-----------------------------------|
-14--------14---------------------------------|
----------------------------------------------|
----------------------------------------------|
----------------------------------------------|

RYTHM
----------------------------------------------|
----------------------------------------------|
----------------------------------------------|
-0------------------------8----------10-10-10-|
-0------------------------8----------10-10-10-|
-0------------------------8----------10-10-10-|
RYTHM L
----------------------------------------------|
----------------------------------------------|
----------------------7-910-------9-7-9-7-5---|
----------------------X-X-X-------X-X-X-X-X---|
----------------------5/7-8-------7\5-7-5-3---|
----------------------------------------------|
RYTHM R
----------------------------------------------|
----------------------------------------------|
---------------------10-12-14----1210-1210-9--|
----------------------X--X--X-----X-X--X-X-X--|
----------------------8/10-12----10\8-10-8-7--|
----------------------------------------------|



2:30

MELODY                           ^      )(
-------17-----17----13-15-17---15-13--12------|
----15---15-----------------------------------|
-14--------14---------------------------------|
----------------------------------------------|
----------------------------------------------|
----------------------------------------------|

RYTHM
----------------------------------------------|
----------------------------------------------|
----------------------------------------------|
-0-0-0-00-0--------------0-0-----0-0----------|
-0-0-0-00-0--------------0-0-----0-0----------|
-0-0-0-00-0--------------0-0-----0-0----------|
 * * * ** *              * *     * *


MELODY                          ^
-------17-----17----13-15-17--15-13--15-13-12-|
----15---15-----------------------------------|
-14--------14---------------------------------|
----------------------------------------------|
----------------------------------------------|
----------------------------------------------|

RYTHM
--------------------------------------------|
--------------------------------------------|
--------------------------------------------|
-0-0-0-00-0----------8----------10-10-10----|
-0-0-0-00-0----------8----------10-10-10----|
-0-0-0-00-0----------8----------10-10-10----|
 * * * ** *
RYTHM L
----------------------------------------------|
----------------------------------------------|
----------------------7-910-------9-7-9-7-5---|
----------------------X-X-X-------X-X-X-X-X---|
----------------------5/7-8-------7\5-7-5-3---|
----------------------------------------------|
RYTHM R
----------------------------------------------|
----------------------------------------------|
---------------------10-12-14----1210-1210-9--|
----------------------X--X--X-----X-X--X-X-X--|
----------------------8/10-12----10\8-10-8-7--|
----------------------------------------------|


MELODY                           ^      )(
-------17-----17----13-15-17---15-13--12------|
----15---15-----------------------------------|
-14--------14---------------------------------|
----------------------------------------------|
----------------------------------------------|
----------------------------------------------|

RYTHM
----------------------------------------------|
----------------------------------------------|
----------------------------------------------|
-0-0-0-00-0--------------0-0-----0-0----------|
-0-0-0-00-0--------------0-0-----0-0----------|
-0-0-0-00-0--------------0-0-----0-0----------|
 * * * ** *              * *     * *


MELODY                          ^
-------17-----17----13-15-17--15-13--15-13-12-|
----15---15-----------------------------------|
-14--------14---------------------------------|
----------------------------------------------|
----------------------------------------------|
----------------------------------------------|

RYTHM
---------------------------------------------|
---------------------------------------------|
---------------------10----------12-12-12----|
-0-0-0-00-0-----------8----------10-10-10----|
-0-0-0-00-0-----------8----------10-10-10----|
-0-0-0-00-0-----------8----------10-10-10----|
 * * * ** *
RYTHM L
----------------------------------------------|
----------------------------------------------|
----------------------7-910-------9-7-9-7-5---|
----------------------X-X-X-------X-X-X-X-X---|
----------------------5/7-8-------7\5-7-5-3---|
----------------------------------------------|
RYTHM R
----------------------------------------------|
----------------------------------------------|
---------------------10-12-14----1210-1210-9--|
----------------------X--X--X-----X-X--X-X-X--|
----------------------8/10-12----10\8-10-8-7--|
----------------------------------------------|



2:45


MELODY __                 __         __                  _____
      /  \               /  \       /  \                /     \
----13-17-13-----------13-17-13---12-13-12---------12-13-15-13-12----|
--15-------15--------15-------15----------15-13-15----------------15-|
14----------14-----14----------14------------------------------------|
---------------------------------------------------------------------|
---------------------------------------------------------------------|
------_____----------------------------------------------------------|
CONT./     \
---13-15-13-12-----|
---------------15--|
-------------------|
-------------------|
-------------------|
-------------------|
RYTHM
--------------------------------------------------------------------|
--------------------------------------------------------------------|
--------------------------------------------------------------------|
-5-----------------7------------------------------8---------10------|
-5-----------------7------------------------------8---------10------|
-5-----------------7------------------------------8---------10------|



MELODY __                 __         __                  _____
      /  \               /  \       /  \                /     \
----13-17-13-----------13-17-13---12-13-12---------12-13-15-13-12----|
--15-------15--------15-------15----------15-13-15----------------15-|
14----------14-----14----------14------------------------------------|
---------------------------------------------------------------------|
---------------------------------------------------------------------|
---------------------------------------------------------------------|

CONT.                         )
---/\---20---/\---20---/\---20-------|
-151718----181715----181715----------|
-------------------------------------|
-------------------------------------|
-------------------------------------|
-------------------------------------|
RYTHM
---------------------------------------------------------------|
---------------------------------------------------------------|
---------------------------------------------------------------|
-5-----------------7------------------------------3------------|
-5-----------------7------------------------------3------------|
-5-----------------7------------------------------3------------|



3:00

MELODY
-------------------------------------------|
-------------------------------------------|
-----7-10------7-10-------9-12-------9-12--|
---8---------8---------10---------10-------|
-5---------5---------7----------7----------|
-------------------------------------------|
 * * *     * * *     *  * *     *  * *
RYTHM
-------------------------------------------|
-------------------------------------------|
-------------------------------------------|
-5-5-5-5-5-5-5-5-7-7-7-7-7-7-7-7-----------|
-5-5-5-5-5-5-5-5-7-7-7-7-7-7-7-7-----------|
-5-5-5-5-5-5-5-5-7-7-7-7-7-7-7-7-----------|
 * * * * * * * * * * * * * * * *

MELODY
----------------------------------------------------|
----------------------------------------------------|
----------17----------17----------17--19\17---------|
----12-15-------12-15-------12-15-----------17\15---|
-13----------13----------13-------------------------|
----------------------------------------------------|
  *  *  *     *  *  *     *  *  *
RYTHM
---------------------------------------|
---------------------------------------|
---------------------------------------|
-8-8-8-8-8-8-8-8-8-8-8-8-10-10-10-10---|
-8-8-8-8-8-8-8-8-8-8-8-8-10-10-10-10---|
-8-8-8-8-8-8-8-8-8-8-8-8-10-10-10-10---|


MELODY
-------------------------------------------|
-------------------------------------------|
-----7-10------7-10-------9-12-------9-12--|
---8---------8---------10---------10-------|
-5---------5---------7----------7----------|
-------------------------------------------|
 * * *     * * *     *  * *     *  * *
RYTHM
-------------------------------------------|
-------------------------------------------|
-------------------------------------------|
-5-5-5-5-5-5-5-5-7-7-7-7-7-7-7-7-----------|
-5-5-5-5-5-5-5-5-7-7-7-7-7-7-7-7-----------|
-5-5-5-5-5-5-5-5-7-7-7-7-7-7-7-7-----------|
 * * * * * * * * * * * * * * * *

MELODY
---------------------------------------|
----------------------------6\5--------|
-----5-9------5-9------5-9------7\5----|
---7--------7--------7-----------------|
-3--------3--------3-------------------|
---------------------------------------|


-------------------------------------|
-------------------------------------|
-------------------------------------|
-3-3-3-3-3-3-3-3-3-3-3-3-3-3-3-3-----|
-3-3-3-3-3-3-3-3-3-3-3-3-3-3-3-3-----|
-3-3-3-3-3-3-3-3-3-3-3-3-3-3-3-3-----|
 * * * * * * * * * * * * * * * *



3:15

R               B
----------------------------------------------------------------------|
----------------------------------------------------------------------|
----_____------------------_____------------------_____---------------|
---/     \----------------/     \----------------/     \--------------|
-12-13-12---------------12-13-12---------------12-13-12---------------|
----------15-0--00000000---------15-0--00000000---------15-0--00000000|
                ********               ********               ********

-----------------------------------------|
-----------------------------------------|
---_------------__------------__---------|
--/ \ ---------/  \----------/  \--------|
-7-8-7--------8-10-8-------10-12-10------|
-------10-8----------12-10----------12---|


------------------------------------------------------------------------|
------------------------------------------------------------------------|
---_____---------------------------------------------_____--------------|
--/     \-------------------/\-----^----------------/     \-------------|
12-13-12--------------/\--121315-13-12------------12-13-12--------------|
---------15-0--0000-121315-------------0--00000000--------15-0--0000000-|
               ****                       ********              *******

-----------------------------------------|
-----------------------------------------|
---_------------__------------__---------|
--/ \ ---------/  \----------/  \--------|
-7-8-7--------8-10-8-------10-12-10------|
-------10-8----------12-10----------12---|


----------------------------------------------------------------------|
----------------------------------------------------------------------|
----_____------------------_____------------------_____---------------|
---/     \----------------/     \----------------/     \--------------|
-12-13-12---------------12-13-12---------------12-13-12---------------|
----------15-0--00000000---------15-0--00000000---------15-0--00000000|
                ********               ********               ********

-----------------------------------------|
-----------------------------------------|
---_------------__------------__---------|
--/ \ ---------/  \----------/  \--------|
-7-8-7--------8-10-8-------10-12-10------|
-------10-8----------12-10----------12---|



------------------------------------------------------------------------|
------------------------------------------------------------------------|
---_____---------------------------------------------_____--------------|
--/     \-------------------/\-----^----------------/     \-------------|
12-13-12--------------/\--121315-13-12------------12-13-12--------------|
---------15-0--0000-121315-------------0--00000000--------15-0--00000000|
               ****                       ********              ********

-----------------------------------------|
-----------------------------------------|
---_------------__------------__---------|
--/ \ ---------/  \----------/  \--------|
-7-8-7--------8-10-8-------10-12-10------|
-------10-8----------12-10----------12---|

-----------------------------------------|
-----------------------------------------|
---_------------__------------__---------|
--/ \ ---------/  \----------/  \--------|
-7-8-7--------8-10-8-------10-12-10------|
-------10-8----------12-10----------12---|
comments
We did not receive enough feedback on this tab! Please rate:
print report bad tab
1 2 3 4 5
1 comment total.
0 reply
andherembrace wrote on February 8 2013, 04:52 pm

riff at 1:34 should be 3 3's(6th + 5th strings) followed by 2(6th)+3(5th) sorry

I want to post or [tab]
guest
You may want to rate the tab now too:
select rating
Please do not post tabs as comments. Select "correction" instead!