Oops, an error
Loading. Please wait.

Killing With A Smile Tab

1,489 views 27 this week
no commentswrite comment
1 2 3 4 5
excellent!
x 2
add to favorites launch autoscroll
font size
0
reset
Autoscroll
+/-
esc
set tempo
stop
Contributor
Tuning
B F# B E G# C#
WARNING: You are trying to view
                                    content from Ultimate-Guitar.com
                                    in an unauthorized application,
                                    which is prohibited.

                                    Please use an official Ultimate
                                    Guitar Tabs application for iPhone,
                                    iPad or Android to access legitimate
                                    chords, guitar, bass, and drum tabs
                                    from Ultimate-Guitar.com database.

                                    Type "ultimate guitar tabs" in Apple
                                    App Store's or Android Market's
                                    search to find the application.
PARKWAY DRIVE

KILLING WITH A SMILE

ALL SONGS ARE IN

B-F#-B-E-G#-C#

TABBED BY andherembrace




01 GIMME AD


1 ^   ^   ^   ^   ^   ^   ^   ^
-750-750-750-750-750-750-750-750---------------------------------|
---------------------------------10-8-7-0-10-8-7-0-8-7-5-0-8-7-3-|
-----------------------------------------------------------------|
-----------------------------------------------------------------|
-----------------------------------------------------------------|
-----------------------------------------------------------------|
2
-----------------------------------------------------------------|
-----------------------------------------------------------------|
-------------------------------------------^--^-----------0------|
-2----------------------------------------597579-----4------4----|
-2-----------------------------------5------------------------5--|
-2-------------------------------5-5---5---------0-0---0---------|
                                 * *   *         * *   *

1 ^   ^   ^   ^   ^   ^   ^   ^
-750-750-750-750-750-750-750-750---------------------------------|
---------------------------------10-8-7-0-10-8-7-0-8-7-5-0-8-7-3-|
-----------------------------------------------------------------|
-----------------------------------------------------------------|
-----------------------------------------------------------------|
-----------------------------------------------------------------|
2
-----------------------------------------------------------------|
-----------------------------------------------------------------|
-------------------------------------------^--^-----------0------|
-2-----------------------------------5----597579-----4------4----|
-2------------------------------------------------------------5--|
-2-------------------------------5-5---5---------0-0---0---------|
                                 * *   *         * *   *

1 ^   ^   ^   ^   ^   ^   ^   ^
-750-750-750-750-750-750-750-750---------------------------------|
---------------------------------10-8-7-0-10-8-7-0-8-7-5-0-8-7-3-|
-----------------------------------------------------------------|
-----------------------------------------------------------------|
-----------------------------------------------------------------|
-----------------------------------------------------------------|
2
-----------------------------------------------------------------|
-----------------------------------------------------------------|
-------------------------------------------^--^-----------0------|
-2----------------------------------------597579-----4------4----|
-2-----------------------------------5------------------------5--|
-2-------------------------------5-5---5---------0-0---0---------|
                                 * *   *         * *   *

1 ^   ^   ^   ^   ^   ^   ^   ^
-750-750-750-750-750-750-750-750-----------------------------------|
---------------------------------10-8-7-0-12-10-8-0-10-8-7-0-8-7-5-|
-------------------------------------------------------------------|
-------------------------------------------------------------------|
-------------------------------------------------------------------|
-------------------------------------------------------------------|
2
-----------------------------------------------------------------|
-----------------------------------------------------------------|
-------------------------------------------^--^-----------0------|
-2-----------------------------------5----597579-----4------4----|
-2------------------------------------------------------------5--|
-2-------------------------------5-5---5---------0-0---0---------|
                                 * *   *         * *   *



1
------------------------------------------------------------------|
------------------------------------------------------------------|
-5---9-------5---4---5---7---5---5---9-------5---4---5---5---4----|
---------7-------------------------------7------------------------|
---0---0---0---0---0---0---0---0---0---0---0---0---0---0---0---0--|
------------------------------------------------------------------|
   *   *   *   *   *   *   *   *   *   *   *   *   *   *   *   *
2
---------------------------------------------------------------|
---------------------------------------------------------------|
---------------------------------------------------------------|
-2--------------------------------3---------------5------------|
-2--------------------------------3---------------5------------|
-2--------------------------------3---------------5------------|


1
----------------------------------------------------------------|
----------------------------------------------------------------|
-5---9-------5---4---5---7---5---5---9-------5---4--------------|
---------7-------------------------------7-------------^--7--^--|
---0---0---0---0---0---0---0---0---0---0---0---0---0--578---875-|
----------------------------------------------------------------|
   *   *   *   *   *   *   *   *   *   *   *   *   *
2
----------------------------------------------------------------|
----------------------------------------------------------------|
----------------------------------------------------------------|
-2--------------------------------3---------------5----^--7--^--|
-2--------------------------------3---------------5---578---875-|
-2--------------------------------3---------------5-------------|
   |

1
------------------------------------------------------------------|
------------------------------------------------------------------|
-5---9-------5---4---5---7---5---5---9-------5---4---5---5---4----|
---------7-------------------------------7------------------------|
---0---0---0---0---0---0---0---0---0---0---0---0---0---0---0---0--|
------------------------------------------------------------------|
   *   *   *   *   *   *   *   *   *   *   *   *   *   *   *   *
2
---------------------------------------------------------------|
---------------------------------------------------------------|
---------------------------------------------------------------|
-2--------------------------------3---------------5------------|
-2--------------------------------3---------------5------------|
-2--------------------------------3---------------5------------|


1
------------------------------------------------------------------|
------------------------------------------------------------------|
-5---9-------5---4---5---7---5---5---9-------5---4---5---5---4----|
---------7-------------------------------7------------------------|
---0---0---0---0---0---0---0---0---0---0---0---0---0---0---0---0--|
------------------------------------------------------------------|
   *   *   *   *   *   *   *   *   *   *   *   *   *   *   *   *
2
---------------------------------------------------------------|
---------------------------------------------------------------|
---------------------------------------------------------------|
-2--------------------------------3---------------5------------|
-2--------------------------------3---------------5-------\----|
-2--------------------------------3---------------5-------\----|



1
------------------------------------------------------------------|
------------------------------------------------------------------|
-5---9-------5---4---5---7---5---5---9-------5---4---5---5---4----|
---------7-------------------------------7------------------------|
---0---0---0---0---0---0---0---0---0---0---0---0---0---0---0---0--|
------------------------------------------------------------------|
   *   *   *   *   *   *   *   *   *   *   *   *   *   *   *   *
2
----------------------------------------------------------------|
----------------------------------------------------------------|
----------------------------------------------------------------|
----------------------------------------------------------------|
----------------------------------------------------------------|
222-222-222-222-222-222-222-222-333-333-333-333-555-555-555-555-|
*** *** *** *** *** *** *** *** *** *** *** *** *** *** *** ***


1
----------------------------------------------------------------|
----------------------------------------------------------------|
-5---9-------5---4---5---7---5---5---9-------5---4--------------|
---------7-------------------------------7-------------^--7--^--|
---0---0---0---0---0---0---0---0---0---0---0---0---0--578---875-|
----------------------------------------------------------------|
   *   *   *   *   *   *   *   *   *   *   *   *   *
2
----------------------------------------------------------------|
----------------------------------------------------------------|
----------------------------------------------------------------|
-------------------------------------------------------^--7--^--|
------------------------------------------------------578---875-|
222-222-222-222-222-222-222-222-333-333-333-333-555-------------|
*** *** *** *** *** *** *** *** *** *** *** *** ***




L
----------------------------------------------------_--------|
---------------------------------------------------/ \-------|
-------------------------------------------3--5---7-8-7-5-7--|
-------------------------------------------X--X---X-X-X-X-X--|
-0----00000000-0----00000000-0----00000000-1--3---5/6\5-3/5--|
-0----00000000-0----00000000-0----00000000---0--0------------|
   |  ********   |  ********   |  ********   *  *
R
----------------------------------------------------__--------|
---------------------------------------------------/  \-------|
-------------------------------------------7--9--10-1210-9-10-|
-------------------------------------------X--X---X--X-X-X-X--|
-0----00000000-0----00000000-0----00000000-5--7---8/10\8-7/8--|
-0----00000000-0----00000000-0----00000000---0--0-------------|
   |  ********   |  ********   |  ********   *  *

L
----------------------------------------------------_--------|
---------------------------------------------------/ \-------|
-------------------------------------------3--5---7-8-7-5-7--|
-------------------------------------------X--X---X-X-X-X-X--|
-0----00000000-0----00000000-0----00000000-1--3---5/6\5-3/5--|
-0----00000000-0----00000000-0----00000000---0--0------------|
   |  ********   |  ********   |  ********   *  *
R
----------------------------------------------------__--------|
---------------------------------------------------/  \-------|
-------------------------------------------7--9--10-1210-9-10-|
-------------------------------------------X--X---X--X-X-X-X--|
-0----00000000-0----00000000-0----00000000-5--7---8/10\8-7/8--|
-0----00000000-0----00000000-0----00000000---0--0-------------|
   |  ********   |  ********   |  ********   *  *


L
----------------------------------------------------_--------|
---------------------------------------------------/ \-------|
-------------------------------------------3--5---7-8-7-5-7--|
-------------------------------------------X--X---X-X-X-X-X--|
-0----00000000-0----00000000-0----00000000-1--3---5/6\5-3/5--|
-0----00000000-0----00000000-0----00000000---0--0------------|
   |  ********   |  ********   |  ********   *  *
R
----------------------------------------------------__--------|
---------------------------------------------------/  \-------|
-------------------------------------------7--9--10-1210-9-10-|
-------------------------------------------X--X---X--X-X-X-X--|
-0----00000000-0----00000000-0----00000000-5--7---8/10\8-7/8--|
-0----00000000-0----00000000-0----00000000---0--0-------------|
   |  ********   |  ********   |  ********   *  *


L
--------------------------------------------------------|
--------------------------------------------------------|
--------------------------------------------------------|
--------------------------------------------------------|
-0----00000000-0----00000000-0----000000-3--3-3-4--4-4--|
-0----00000000-0----00000000-0----000000-3--3-3-4--4-4--|
   |  ********   |  ********   |  ******
R
--------------------------------------------------------|
--------------------------------------------------------|
--------------------------------------------------------|
--------------------------------------------------------|
-0----00000000-0----00000000-0----000000-3--3-3-4--4-4--|
-0----00000000-0----00000000-0----000000-3--3-3-4--4-4--|
   |  ********   |  ********   |  ******




L
---------------------------------------------------------------|
---------------------------------------------------------------|
---------------------------------------------------------------|
------8888777755------7777555533-----5555333355-----7777555588-|
-5-5-------------3-3-------------1-1------------3-3------------|
-5-5-------------3-3-------------1-1------------3-3------------|

R
---------------------------------------------------------------|
---------------------------------------------------------------|
-----7777555533------5555333322------3333222233-----5555333377-|
---------------------------------------------------------------|
-5-5-------------3-3-------------1-1------------3-3------------|
-5-5-------------3-3-------------1-1------------3-3------------|

L
---------------------------------------------------------------|
---------------------------------------------------------------|
---------------------------------------------------------------|
------8888777755------7777555533-----5555333355-----7777555588-|
-5-5-------------3-3-------------1-1------------3-3------------|
-5-5-------------3-3-------------1-1------------3-3------------|

R
---------------------------------------------------------------|
---------------------------------------------------------------|
-----7777555533------5555333322------3333222233-----5555333377-|
---------------------------------------------------------------|
-5-5-------------3-3-------------1-1------------3-3------------|
-5-5-------------3-3-------------1-1------------3-3------------|


1
-----------------------------------------------------------------------|
-----------------------------------------------------------------------|
----------5--------------------------------7---/-12--10----------------|
-5-5--8-7---8-7---/10-8-7----8--7------7-8---8----------13-12-10-------|
-------------------------10-------8-10---------------------------13--12|
-----------------------------------------------------------------------|
2
-------------------------------------------------------------|
-------------------------------------------------------------|
-------------------------------------------------------------|
-------------------------------------------------------------|
5--5-5--5-5-5--3--3-3--3-3-3--1--1-1--1-1-1--3--3-3--3-3-3---|
5--5-5--5-5-5--3--3-3--3-3-3--1--1-1--1-1-1--3--3-3--3-3-3---|
                        __      _      _
1                      /  \    / \    / \    /\
---------------------10131013-810810-610610-5858-/\---/\------------|
------------------------------------------------5858-6868--/\---/\--|
/14---12--10---8------------------------------------------3737-2525-|
----15--13--12---10-------------------------------------------------|
--------------------------------------------------------------------|
--------------------------------------------------------------------|
2
-------------------------------------------------------------|
-------------------------------------------------------------|
-------------------------------------------------------------|
-------------------------------------------------------------|
5--5-5--5-5-5--3--3-3--3-3-3--1--1-1--1-1-1--3--3-3--3-3-3---|
5--5-5--5-5-5--3--3-3--3-3-3--1--1-1--1-1-1--3--3-3--3-3-3---|


1
---------5--------|
-8-6---5---5------|
--------------7---|
------------------|
------------------|
------------------|
2
-----------------|
-----------------|
-----------------|
-----------------|
-3--3-3-4--4-4---|
-3--3-3-4--4-4---|



L
--------------------------------------------------------------|
--------------------------------------------------------------|
--------------------------------------------------------------|
-----7---5-7---3----7---5-7---2----5---3-5----7--5------------|
-0---8---7-8---5----8---7-8---3----7---5-7---------8-7--5-3---|
-0-0---0-----0----0---0-----0----0---0-----0------------------|
   *   *     *    *   *     *    *   *     *
R
---------------------------------------------------------------|
---------------------------------------------------------------|
---------------------------------------------------------------|
-------------------------------2-------------10--8-7-----------|
-------------------------------3---------------------10--8-7---|
---------------------------------------------------------------|
                                |


B
----------------------------------------------------------|
----------------------------------------------------------|
----------------------------------------------------------|
-----7---5-7---3----7---5-7---2----5---3-5---0----3---2-7-|
-0---8---7-8---5----8---7-8---3----7---5-7---1----5---3-8-|
-0-0---0-----0----0---0-----0----0---0-----0----0---0-----|
   *   *     *    *   *     *    *   *     *    *   *

------------------------------------------------------------|
------------------------------------------------------------|
------------------------------------------------------------|
-3---7---5-7---3----7---5-7---2----5---3-5---0----3---------|
-5---8---7-8---5----8---7-8---3----7---5-7---1----5----PH---|
---0---0-----0----0---0-----0----0---0-----0----0---0--3~~~-|
   *   *     *    *   *     *    *   *     *    *   *

----------------------------------------------------------|
----------------------------------------------------------|
----------------------------------------------------------|
-----7---5-7---3----7---5-7---2----5---3-5---0----3---2-7-|
-0---8---7-8---5----8---7-8---3----7---5-7---1----5---3-8-|
-0-0---0-----0----0---0-----0----0---0-----0----0---0-----|
   *   *     *    *   *     *    *   *     *    *   *

L
--------------------------------------------------------------|
--------------------------------------------------------------|
--------------------------------------------------------------|
-3---7---5-7---3----7---5-7---2----5---3-5----7--5------------|
-5---8---7-8---5----8---7-8---3----7---5-7---------8-7--5-3---|
---0---0-----0----0---0-----0----0---0-----0------------------|
   *   *     *    *   *     *    *   *     *
R
--------------------------------------------------------------|
--------------------------------------------------------------|
--------------------------------------------------------------|
-----7---5-7---3----7---5-7---2----5---3-5----10--8-7---------|
-0---8---7-8---5----8---7-8---3----7---5-7------------10--8-7-|
-0-0---0-----0----0---0-----0----0---0-----0------------------|
   *   *     *    *   *     *    *   *     *




L
----------------------------------------------------------------|
----------------------------------------------------------------|
-----------------------------7----------------------------------|
--------------------------------10---8---7--10--8---------------|
-5--------------------------------------------------12--10--8---|
-5----------------------------0---0---0---0---0---0---0---0---0-|
  |                           *   *   *   *   *   *   *   *   *
R
-----------------------------------------------------------------|
-----------------------------------------------------------------|
-------------7---------------7-----------------------------------|
-8---7-----------8---7-----------10---8---7--10--8---------------|
---------10--------------10--------------------------12--10--8---|
---0---0---0---0---0---0---0---0---0---0---0---0---0---0---0---0-|
   *   *   *   *   *   *   *   *   *   *   *   *   *   *   *   *

B
-----------------------------------------------------------------|
-----------------------------------------------------------------|
-------------7---------------7-----------------------------------|
-8---7-----------8---7----------10---8---7---10--8---------------|
---------10--------------10--------------------------12--10--8---|
---0---0---0---0---0---0---0---0---0---0---0---0---0---0---0---0-|
   *   *   *   *   *   *   *   *   *   *   *   *   *   *   *   *

L
---------------------------------------------------------------------|
---------------------------------------------------------------------|
-------------12------------------------------------------------------|
-12--10----------12--10-----------13--12---10--13--12---10-----------|
---------13--------------13--10------------------------------13--12--|
---0---0---0---0---0---0---0----0---0----0----0---0---0----0---0---0-|
   *   *   *   *   *   *   *    *   *    *    *   *   *    *   *   *
R
-----------------------------------------------------------------|
-----------------------------------------------------------------|
-------------7---------------7-----------------------------------|
-8---7-----------8---7----------10---8---7---10--8---------------|
---------10--------------10--------------------------12--10--8---|
---0---0---0---0---0---0---0---0---0---0---0---0---0---0---0---0-|
   *   *   *   *   *   *   *   *   *   *   *   *   *   *   *   *

L
------------------------------------------------------------------------|
------------------------------------------------------------------------|
------------12--------------------------------------/\------------------|
12--10---------12--10-----------13--12---10---13--101210--------/\------|
--------13--------------13--10--------------------------13-12-101210-7-5|
--0---0---0---0---0---0---0----0---0----0----0---0----------------------|
  *   *   *   *   *   *   *    *   *    *    *   *
R
-----------------------------------------------------------------|
-----------------------------------------------------------------|
-------------7---------------7--------------------^--------------|
-8---7-----------8---7-----------10--8---7---10--787------^------|
---------10--------------10-------------------------10-8-787-5-3-|
---0---0---0---0---0---0---0---0---0---0---0---0-----------------|
   *   *   *   *   *   *   *   *   *   *   *   *




1
----------------------------------------------------------------|
----------------111111111010101010101010--------13131313--------|
1212121210101010------------------------12121212--------15151515|
----------------------------------------------------------------|
----------------------------------------------------------------|
----------------------------------------------------------------|

2
-------------------------------------------------------------|
-------------------------------------------------------------|
-------------------------------------------------------------|
-------------------------------------------------------------|
------------------------5-----------------------------5------|
-8---0---7---0---5---0-----0---8---0---7---0---5---0-----0---|
     *       *       *     *       *       *       *     *

1
-----------------------------------------------------------------|
-----------------15151515------------------------16161616--------|
1515151514141414---------171717171717171715151515--------19191919|
-----------------------------------------------------------------|
-----------------------------------------------------------------|
-----------------------------------------------------------------|
2
----------------------------------------------------------------|
----------------------------------------------------------------|
----------------------------------------------------------------|
----------------------------------------------------------------|
-2---2---2---2---2---2---2---2---2---2---2---2---2---2---2---2--|
-2---2---2---2---2---2---2---2---2---2---2---2---2---2---2---2--|
 *   *   *   *   *   *   *   *   *   *   *   *   *   *   *   *

1
    ________
---)        (---)~~~~~~~~~~~~~~~~~~~~~~~~~~~~~~~~~~~~~~-----|
-18-----------18--------------------------------------------|
------------------------------------------------------------|
------------------------------------------------------------|
------------------------------------------------------------|
------------------------------------------------------------|
2
-------------------------------------------------------------|
-------------------------------------------------------------|
-------------------------------------------------------------|
-------------------------------------------------------------|
------------------------5-----------------------------5------|
-8---0---7---0---5---0-----0---8---0---7---0---5---0-----0---|
     *       *       *     *       *       *       *     *

1                                *PICK OVER NECK P.U.
--______________________________--___________________________---|
--)                            (--)                          (--|
-3-------------------------------3------------------------------|
SPH------------------------------PH-----------------------------|
----------------------------------------------------------------|
----------------------------------------------------------------|
2
----------------------------------------------------------------|
----------------------------------------------------------------|
----------------------------------------------------------------|
----------------------------------------------------------------|
-2---2---2---2---2---2---2---2---2---2---2---2---2---2---2---2--|
-2---2---2---2---2---2---2---2---2---2---2---2---2---2---2---2--|
 *   *   *   *   *   *   *   *   *   *   *   *   *   *   *   *

1
-171717171313131315151515--------13131313-------------------------|
-------------------------16161616--------151515151616161613131313-|
------------------------------------------------------------------|
------------------------------------------------------------------|
------------------------------------------------------------------|
------------------------------------------------------------------|
2
-------------------------------------------------------------|
-------------------------------------------------------------|
-------------------------------------------------------------|
-------------------------------------------------------------|
------------------------5-----------------------------5------|
-8---0---7---0---5---0-----0---8---0---7---0---5---0-----0---|
     *       *       *     *       *       *       *     *

---------------------------------------------------------|
---------------------------------------------------------|
--------15--15---------14--14--------10--10---------9--9-|
-12-12----------12-12---------12-12----------10-10-------|
---------------------------------------------------------|
---------------------------------------------------------|
  *  *          *  *           *  *           *  *
2
----------------------------------------------------------------|
----------------------------------------------------------------|
----------------------------------------------------------------|
----------------------------------------------------------------|
-2---2---2---2---2---2---2---2---2---2---2---2---2---2---2---2--|
-2---2---2---2---2---2---2---2---2---2---2---2---2---2---2---2--|
 *   *   *   *   *   *   *   *   *   *   *   *   *   *   *   *


1
----__------__------__------__------__-------__-------__-------__----|
---/  \----/  \----/  \----/  \----/  \-----/  \-----/  \-----/  \---|
-12-10-9-12-10-9-12-10-9-12-10-9-14-12-10-14-12-10-14-12-10-14-12-10-|
---------------------------------------------------------------------|
---------------------------------------------------------------------|
---------------------------------------------------------------------|
2
-------------------------------------------------------------|
-------------------------------------------------------------|
-------------------------------------------------------------|
-------------------------------------------------------------|
------------------------5-----------------------------5------|
-8---0---7---0---5---0-----0---8---0---7---0---5---0-----0---|
     *       *       *     *       *       *       *     *


1
----__-------__-------__-------__-------__-------__-------__-------__----|
---/  \-----/  \-----/  \-----/  \-----/  \-----/  \-----/  \-----/  \---|
-15-14-12-15-14-12-15-14-12-15-14-12-17-15-14-17-15-14-17-15-14-17-15-14-|
-------------------------------------------------------------------------|
-------------------------------------------------------------------------|
-------------------------------------------------------------------------|
2
----------------------------------------------------------------|
----------------------------------------------------------------|
----------------------------------------------------------------|
----------------------------------------------------------------|
-2---2---2---2---2---2---2---2---2---2---2---2---2---2---2---2--|
-2---2---2---2---2---2---2---2---2---2---2---2---2---2---2---2--|
 *   *   *   *   *   *   *   *   *   *   *   *   *   *   *   *

1
----_____________-----_~~~~~~~~~~~~~~~~~~~---------------------|
----)            (---) ----------------------------------------|
--17---------------17------------------------------------------|
---------------------------------------------------------------|
---------------------------------------------------------------|
---------------------------------------------------------------|
2
---------------------------------------------------------------|
---------------------------------------------------------------|
---------------------------------------------------------------|
---------------------------------------------------------------|
-5--------------------------5555-5-----------------------------|
-5--------------------------5555-5-----------------------------|
                            ****

1
1515-17-20-17-15-20-17-15-18-17-15-18-17-15--|
---------------------------------------------|
---------------------------------------------|
---------------------------------------------|
---------------------------------------------|
---------------------------------------------|
2
---------------------------------------------|
---------------------------------------------|
---------------------------------------------|
---------------------------------------------|
-7--------------------------7777-7-----------|
-7--------------------------7777-7-----------|
                            ****

1
-18-15-13--------------10-8--------------)---) (-------------|
----------15-15-13-10-------10-10-8----10--10----------------|
------------------------------------10-12--12----12~~~-------|
-------------------------------------------------------------|
-------------------------------------------------------------|
-------------------------------------------------------------|

2
--------------------------------------------------------------|
--------------------------------------------------------------|
--------------------------------------------------------------|
--------------------------------------------------------------|
------------------------------------------5-----------5555-5--|
------------------------------------------5-----------5555-5--|
                                                      ****


1
-------------------------|
-------------------------|
-------------------------|
-P-----------------------|
--S----------------------|
---\---------------------|
2
-------------------------|
-------------------------|
-------------------------|
-------------P-----------|
--7-----7777--S----------|
--7-----7777---\---------|
        ****

L
--------------------------------------------------------------------|
------------------------------------------8-------------------------|
--------------7-------------------7-------------10--^-------^-------|
-----8---7---------------8---7--------078---078----787---7-787------|
------------------------------------------------------10-------10-8-|
-5-5---5---5---------5-5---5---5------------------------------------|
 * *   *   *         * *   *   *
R
--------------------------------------------------------------------|
------------------------------------------8---------^---------------|
--^---7---^---^-----^---7---^---^---------------10-787-------^------|
-7810---1087-787---7810---1087-787----078---078--------10-8-787-----|
----------------10-----------------8----------------------------10-8|
--------------------------------------------------------------------|

L
--------------------------------------------------------------------|
------------------------------------------8-------------------------|
--------------7-------------------7-------------10--^-------^-------|
-----8---7---------------8---7--------078---078----787---7-787------|
------------------------------------------------------10-------10-8-|
-5-5---5---5---------5-5---5---5------------------------------------|
 * *   *   *         * *   *   *
R
--------------------------------------------------------------------|
------------------------------------------8---------^---------------|
--^---7---^---^-----^---7---^---^---------------10-787-------^------|
-7810---1087-787---7810---1087-787----078---078--------10-8-787-----|
----------------10-----------------8----------------------------10-8|
--------------------------------------------------------------------|


L
----------------------------------------------------_--------|
---------------------------------------------------/ \-------|
-------------------------------------------3--5---7-8-7-5-7--|
-------------------------------------------X--X---X-X-X-X-X--|
-0----00000000-0----00000000-0----00000000-1--3---5/6\5-3/5--|
-0----00000000-0----00000000-0----00000000---0--0------------|
   |  ********   |  ********   |  ********   *  *
R
----------------------------------------------------__--------|
---------------------------------------------------/  \-------|
-------------------------------------------7--9--10-1210-9-10-|
-------------------------------------------X--X---X--X-X-X-X--|
-0----00000000-0----00000000-0----00000000-5--7---8/10\8-7/8--|
-0----00000000-0----00000000-0----00000000---0--0-------------|
   |  ********   |  ********   |  ********   *  *

L
----------------------------------------------------_--------|
---------------------------------------------------/ \-------|
-------------------------------------------3--5---7-8-7-5-7--|
-------------------------------------------X--X---X-X-X-X-X--|
-0----00000000-0----00000000-0----00000000-1--3---5/6\5-3/5--|
-0----00000000-0----00000000-0----00000000---0--0------------|
   |  ********   |  ********   |  ********   *  *
R
----------------------------------------------------__--------|
---------------------------------------------------/  \-------|
-------------------------------------------7--9--10-1210-9-10-|
-------------------------------------------X--X---X--X-X-X-X--|
-0----00000000-0----00000000-0----00000000-5--7---8/10\8-7/8--|
-0----00000000-0----00000000-0----00000000---0--0-------------|
   |  ********   |  ********   |  ********   *  *





\\\\\\\\\\\\\\\\\\\\\\\\\\\\\\\\\\\\\\\\\\\\\\\\\\\\\\\\\
\\\\\\\\\\\\\\\\\\\\\\\\\\\\\\\\\\\\\\\\\\\\\\\\\\\\\\\\\\
\\\\\\\\\\\\\\\\\\\\\\\\\\\\\\\\\\\\\\\\\\\\\\\\\\\\\\\\\\
\\\\\\\\\\\\\\\\\\\\\\\\\\\\\\\\\\\\\\\\\\\\\\\\\\\\\\\\\\





02 ANASASIS (XENOPHONTIS

INTRO

------------------------------------------------------|
----------10--------------------------------10--------|
-10----10----10-------------------10-----10----10-----|
----14----------14-------------------14-----------14--|
------------------------------------------------------|
------------------------------------------------------|


0:15

L
------------------------------------------------------------------------|
----------10------------------------------------------------------------|
-10----10----10---------------------------------------------------------|
----14----------14------0-----------------0-----------------0-----------|
-------------------0-00-0--0-00-0-00-0-00-0--0-00-0-00-0-00-0--0-00-0-0-|
-------------------0-00-0--0-00-0-00-0-00-0--0-00-0-00-0-00-0--0-00-0-0-|
                   * **    * ** * ** * **    * ** * ** * **    * ** * *
R
-----------------------------------------------------------------------|
-----------------------------------------------------------------------|
10----10--9----9-------------------------------------------------------|
---14-------10---------0-----------------0-----------------0-----------|
------------------0-00-0--0-00-0-00-0-00-0--0-00-0-00-0-00-0--0-00-0-0-|
------------------0-00-0--0-00-0-00-0-00-0--0-00-0-00-0-00-0--0-00-0-0-|
                  * **    * ** * ** * **    * ** * ** * **    * ** * *

B
----------------------------------------------------------------------|
----------10----------------------------------------------------------|
-10----10----10-------------------------------------------------------|
----14----------14------0-----------------0-------0-------0-----------|
-------------------0-00-0--0-00-0-00-0-00-0--0-00-0--0-00-0--0-00-0-0-|
-------------------0-00-0--0-00-0-00-0-00-0--0-00-0--0-00-0--0-00-0-0-|
                   * **    * ** * ** * **    * **    * **    * ** * *

L
------------------------------------------------------------------------|
----------10------------------------------------------------------------|
-10----10----10---------------------------------------------------------|
----14----------14------0-----------------0-----------------0-----------|
-------------------0-00-0--0-00-0-00-0-00-0--0-00-0-00-0-00-0--0-00-0-0-|
-------------------0-00-0--0-00-0-00-0-00-0--0-00-0-00-0-00-0--0-00-0-0-|
                   * **    * ** * ** * **    * ** * ** * **    * ** * *
R
-----------------------------------------------------------------------|
-----------------------------------------------------------------------|
10----10--9----9-------------------------------------------------------|
---14-------10---------0-----------------0-----------------0-----------|
------------------0-00-0--0-00-0-00-0-00-0--0-00-0-00-0-00-0--0-00-0-0-|
------------------0-00-0--0-00-0-00-0-00-0--0-00-0-00-0-00-0--0-00-0-0-|
                  * **    * ** * ** * **    * ** * ** * **    * ** * *

B
----------------------------------------------------------------------|
----------10----------------------------------------------------------|
-10----10----10-------------------------------------------------------|
----14----------14------0-----------------0-------0-------0-----------|
-------------------0-00-0--0-00-0-00-0-00-0--0-00-0--0-00-0--0-00-0-0-|
-------------------0-00-0--0-00-0-00-0-00-0--0-00-0--0-00-0--0-00-0-0-|
                   * **    * ** * ** * **    * **    * **    * ** * *

L
-------------------|
----------10-------|
-10----10----10----|
----14----------14-|
-------------------|
-------------------|

R
-------------------|
-------------------|
10----10--9----9---|
---14-------10-----|
-------------------|
-------------------|


0:43


L
-----------------------------------|
-----------------------------------|
-----------------------------------|
-----------------------------------|
-0-00000--0-000--0-000-------------|
-0-00000--0-000--0-000-------------|
 * *****  * ***  * ***
R
-----------------------------------|
-----------------------------------|
---------------------___-----------|
--------------------/   \--5-------|
-0-00000--0-000--0-0-5-7-8---8-7-8-|
-0-00000--0-000--0-----------------|
 * *****  * ***  *

L
--------------------------------------|
--------------------------------------|
--------------------------------------|
--------------------------------------|
-0-00000--0-000--0-000----------------|
-0-00000--0-000--0-000----------------|
 * *****  * ***  * ***
R
--------------------------------------|
--------------------------------------|
---------------------___--------------|
--------------------/   \---7---------|
-0-00000--0-000--0-0-7-8-10---10-8-10-|
-0-00000--0-000--0--------------------|
 * *****  * ***  *


L
-----------------------------------|
-----------------------------------|
-----------------------------------|
-----------------------------------|
-0-00000--0-000--0-000-------------|
-0-00000--0-000--0-000-------------|
 * *****  * ***  * ***
R
-----------------------------------|
-----------------------------------|
---------------------___-----------|
--------------------/   \--5-------|
-0-00000--0-000--0-0-5-7-8---8-7-8-|
-0-00000--0-000--0-----------------|
 * *****  * ***  *

B
--------------------------------------|
--------------------------------------|
---------------------___--------------|
--------------------/   \---7---------|
-0-00000--0-000--0-0-7-8-10---10-8-10-|
-0-00000--0-000--0--------------------|
 * *****  * ***  *



0:57

B
-----------------------------------------|
-----------------------------------------|
-------------------------___-------------|
------------------------/   \--5---------|
-0000-0-0---00-0-0---0-0-5-7-8---8-7-8---|
-0000-0-0---00-0-0---0-------------------|
          |        |

-------------------------------------------|
-------------------------------------------|
-------------------------___---------------|
------------------------/   \---7----------|
-0000-0-0---00-0-0---0-0-7-8-10---10-8-10--|
-0000-0-0---00-0-0---0---------------------|
          |        |

-----------------------------------------|
-----------------------------------------|
-------------------------___-------------|
------------------------/   \--5---------|
-0000-0-0---00-0-0---0-0-5-7-8---8-7-8---|
-0000-0-0---00-0-0---0-------------------|
          |        |

-------------------------------------------|
-------------------------------------------|
-------------------------___---------------|
------------------------/   \---7----------|
-0000-0-0---00-0-0---0-0-7-8-10---10-8-10--|
-0000-0-0---00-0-0---0---------------------|
          |        |



1:10

L
----------------------------------------------------------|
----------------------------------------------------------|
---------------------------------7-9-10-12--10-9-10--9-5--|
---------------------------------X-X-X---X---X-X--X--X-X--|
-00000--------00000--------00000-5-7-8--10---8-7--8--7-3--|
-00000--------00000--------00000--------------------------|
 *****        *****        *****
R
----------------------------------------------------------|
----------------------------------------------------------|
-------7-9-10-------7-9-10-------7-9-10-12--10-9-10--9-5--|
-------X-X-X--------X-X-X--------X-X-X---X---X-X--X--X-X--|
-00000-5-7-8--00000-5-7-8--00000-5-7-8--10---8-7--8--7-3--|
-00000--------00000--------00000--------------------------|
 *****        *****        *****


B
----------------------------------------------------------|
----------------------------------------------------------|
-------7-9-10-------7-9-10-------7-9-10-12--10-9-10--9-5--|
-------X-X-X--------X-X-X--------X-X-X---X---X-X--X--X-X--|
-00000-5-7-8--00000-5-7-8--00000-5-7-8--10---8-7--8--7-3--|
-00000--------00000--------00000--------------------------|
 *****        *****        *****

----------------------------------------------------------|
----------------------------------------------------------|
-------7-9-10-------7-9-10-------7-9-10-12--10-9-10--9-5--|
-------X-X-X--------X-X-X--------X-X-X---X---X-X--X--X-X--|
-00000-5-7-8--00000-5-7-8--00000-5-7-8--10---8-7--8--7-3--|
-00000--------00000--------00000--------------------------|
 *****        *****        *****


1:25

L
------------------------------------------------------------|
------------------------------------------------------------|
------10-12-14------10-12-14------10-12-14-12--10-9-10--9-5-|
-------X--X--X-------X--X--X-------X--X--X--X---X-X--X--X-X-|
-0-000-8-10-12-0-000-8-10-12-0-000-8-10-12-10---8-7--8--7-3-|
-0-000---------0-000---------0-000--------------------------|
 * ***         * ***         * ***
R
----------------------------------------------------------|
----------------------------------------------------------|
-------7-9-10-------7-9-10-------7-9-10-12--10-9-10--9-5--|
-------X-X-X--------X-X-X--------X-X-X---X---X-X--X--X-X--|
-0-000-5-7-8--0-000-5-7-8--0-000-5-7-8--10---8-7--8--7-3--|
-0-000--------0-000--------0-000--------------------------|
 * ***        * ***        * ***

L
------------------------------------------------------------|
------------------------------------------------------------|
------10-12-14------10-12-14------10-12-14-12--10-9-10--9-5-|
-------X--X--X-------X--X--X-------X--X--X--X---X-X--X--X-X-|
-0-000-8-10-12-0-000-8-10-12-0-000-8-10-12-10---8-7--8--7-3-|
-0-000---------0-000---------0-000--------------------------|
 * ***         * ***         * ***
R
----------------------------------------------------------|
----------------------------------------------------------|
-------7-9-10-------7-9-10-------7-9-10-12--10-9-10--9-5--|
-------X-X-X--------X-X-X--------X-X-X---X---X-X--X--X-X--|
-0-000-5-7-8--0-000-5-7-8--0-000-5-7-8--10---8-7--8--7-3--|
-0-000--------0-000--------0-000--------------------------|
 * ***        * ***        * ***


1:35

B
------------------------------------------------------------|
------------------------------------------------------------|
------------------------------------------------------------|
-0--3-7-2-5-------------------0--3-7-2-5--------------------|
-0----------3-7-2-5-----2-5---0----------3-7-2-5-----2-5----|
-0------------------3-7-----3-0------------------3-7-----3--|
    * * * * * * * * * * * * *    * * * * * * * * * * * * *

------------------------------------------------------------|
------------------------------------------------------------|
------------------------------------------------------------|
-0--3-7-2-5-------------------0--3-7-2-5--------------------|
-0----------3-7-2-5-----2-5---0----------3-7-2-5-----2-5----|
-0------------------3-7-----3-0------------------3-7-----3--|
    * * * * * * * *                                       |



------------------------------------------------------------|
------------------------------------------------------------|
------------------------------------------------------------|
-0------2-5-3-7-2-5-----2-5---0------2-5-3-7-2-5-----2-5----|
-0--3-7-2-5-3-7-2-5-3-7-2-5-3-0--3-7-2-5-3-7-2-5-3-7-2-5-3--|
-0--3-7-------------3-7-----3-0--3-7-------------3-7-----3--|
    * * * * * * * * * * * * *    * * * * * * * * * * * * *

------------------------------------------------------------|
------------------------------------------------------------|
------------------------------------------------------------|
-0------2-5-3-7-2-5-----2-5---0------2-5-3-7-2-5-----2-5----|
-0--3-7-2-5-3-7-2-5-3-7-2-5-3-0--3-7-2-5-3-7-2-5-3-7-2-5-3--|
-0--3-7-------------3-7-----3-0--3-7-------------3-7-----3--|
    * * * * * * * * * * * * *    * * * * * * * * * * * * *


----------------|
----------------|
----------------|
-0-----0-----0--|
-0-----0-----0--|
-0-----0-----0--|



2:00

------------------------------------------------------------------------|
----------10------------------------------------------------------------|
-10----10----10---------------------------------------------------------|
----14----------14------0-----------------0-----------------0-----------|
-------------------0-00-0--0-00-0-00-0-00-0--0-00-0-00-0-00-0--0-00-0-0-|
-------------------0-00-0--0-00-0-00-0-00-0--0-00-0-00-0-00-0--0-00-0-0-|
                   * **    * ** * ** * **    * ** * ** * **    * ** * *

----------------------------------------------------------------------|
----------10----------------------------------------------------------|
-10----10----10-------------------------------------------------------|
----14----------14------0-----------------0-------0-------0-----------|
-------------------0-00-0--0-00-0-00-0-00-0--0-00-0--0-00-0--0-00-0-0-|
-------------------0-00-0--0-00-0-00-0-00-0--0-00-0--0-00-0--0-00-0-0-|
                   * **    * ** * ** * **    * **    * **    * ** * *

L
-------------------|
----------10-------|
-10----10----10----|
----14----------14-|
-------------------|
-------------------|

R
-------------------|
-------------------|
10----10--9----9---|
---14-------10-----|
-------------------|
-------------------|



2:15

----------------------------------------------------------|
----------------------------------------------------------|
-------7-9-10-------7-9-10-------7-9-10-12--10-9-10--9-5--|
-------X-X-X--------X-X-X--------X-X-X---X---X-X--X--X-X--|
-00000-5-7-8--00000-5-7-8--00000-5-7-8--10---8-7--8--7-3--|
-00000--------00000--------00000--------------------------|
 *****        *****        *****

----------------------------------------------------------|
----------------------------------------------------------|
-------7-9-10-------7-9-10-------7-9-10-12--10-9-10--9-5--|
-------X-X-X--------X-X-X--------X-X-X---X---X-X--X--X-X--|
-00000-5-7-8--00000-5-7-8--00000-5-7-8--10---8-7--8--7-3--|
-00000--------00000--------00000--------------------------|
 *****        *****        *****


2:25

L
------------------------------------------------------------|
------------------------------------------------------------|
------10-12-14------10-12-14------10-12-14-12--10-9-10--9-5-|
-------X--X--X-------X--X--X-------X--X--X--X---X-X--X--X-X-|
-0-000-8-10-12-0-000-8-10-12-0-000-8-10-12-10---8-7--8--7-3-|
-0-000---------0-000---------0-000--------------------------|
 * ***         * ***         * ***
R
----------------------------------------------------------|
----------------------------------------------------------|
-------7-9-10-------7-9-10-------7-9-10-12--10-9-10--9-5--|
-------X-X-X--------X-X-X--------X-X-X---X---X-X--X--X-X--|
-0-000-5-7-8--0-000-5-7-8--0-000-5-7-8--10---8-7--8--7-3--|
-0-000--------0-000--------0-000--------------------------|
 * ***        * ***        * ***

L
------------------------------------------------------------|
------------------------------------------------------------|
------10-12-14------10-12-14------10-12-14-12--10-9-10--9-5-|
-------X--X--X-------X--X--X-------X--X--X--X---X-X--X--X-X-|
-0-000-8-10-12-0-000-8-10-12-0-000-8-10-12-10---8-7--8--7-3-|
-0-000---------0-000---------0-000--------------------------|
 * ***         * ***         * ***
R
----------------------------------------------------------|
----------------------------------------------------------|
-------7-9-10-------7-9-10-------7-9-10-12--10-9-10--9-5--|
-------X-X-X--------X-X-X--------X-X-X---X---X-X--X--X-X--|
-0-000-5-7-8--0-000-5-7-8--0-000-5-7-8--10---8-7--8--7-3--|
-0-000--------0-000--------0-000--------------------------|
 * ***        * ***        * ***


2:37

-----------------------------------------|
-----------------------------------------|
-------------------------___-------------|
------------------------/   \--5---------|
-0000-0-0---00-0-0---0-0-5-7-8---8-7-8---|
-0000-0-0---00-0-0---0-------------------|
          |        |

-------------------------------------------|
-------------------------------------------|
-------------------------___---------------|
------------------------/   \---7----------|
-0000-0-0---00-0-0---0-0-7-8-10---10-8-10--|
-0000-0-0---00-0-0---0---------------------|
          |        |

-----------------------------------------|
-----------------------------------------|
-------------------------___-------------|
------------------------/   \--5---------|
-0000-0-0---00-0-0---0-0-5-7-8---8-7-8---|
-0000-0-0---00-0-0---0-------------------|
          |        |

-------------------------------------------|
-------------------------------------------|
-------------------------___---------------|
------------------------/   \---7----------|
-0000-0-0---00-0-0---0-0-7-8-10---10-8-10--|
-0000-0-0---00-0-0---0---------------------|
          |        |


2:48

L
------------------------------------------------------|
------------------------------------------------------|
------------------------------------------------------|
------------------------------------------------------|
-0-00000---0-000---0-000------0-00000---0-000---0-000-|
-0-00000---0-000---0-000------0-00000---0-000---0-000-|
 * *****   * ***   * ***      * *****   * ***   * ***
R
---------------------------------------------------------------------|
---------------------------------------------------------------------|
----------------------------------------------------___--------------|
---------------------------------------------------/   \---7---------|
-0-00000---0-000---0-000------0-00000---0-000---0-0-7-8-10---10-8-10-|
-0-00000---0-000---0-000------0-00000---0-000---0--------------------|
 * *****   * ***   * ***      * *****   * ***   *

B
-------------------------------------------------|
-------------------------------------------------|
-------------------------------------------------|
-------------------------------------------------|
-0-00000---0-000---0-000------0-00000---0-000----|
-0-00000---0-000---0-000------0-00000---0-000----|
 * *****   * ***   * ***      * *****   * ***






-TAP 17,PULL OFF TO 10,HAMMER ON 13,PULL OFF TO 12
THEN HAMMER ON 13 OF 2ND STRING



 INDEX FINGER ON 10,MIDDLE ON 12,RING ON 13

1

T  __     T __     T __     T __     T __     T __     T __      T __
  /  \     /  \     /  \     /  \     /  \     /  \     /  \      /  \
17101312-17101312-17101312-17101312-17101312-17101312-17101312-17101312--|
-------13-------13-------13-------13-------13-------13-------13--------13|
-------------------------------------------------------------------------|
-------------------------------------------------------------------------|
-------------------------------------------------------------------------|
-------------------------------------------------------------------------|
CONT.
T  __     T __     T __     T __     T __     T __     T __      T __
  /  \     /  \     /  \     /  \     /  \     /  \     /  \      /  \
17101312-17101312-17101312-17101312-17101312-17101312-17101312-17101312--|
-------13-------13-------13-------13-------13-------13-------13--------13|
-------------------------------------------------------------------------|
-------------------------------------------------------------------------|
-------------------------------------------------------------------------|
-------------------------------------------------------------------------|

2
------------------------------------------------------------------------|
---------------------------------------------------------------10-------|
------------------------------------------------------10----10----10----|
------0-----------------0-----------------0--------------14----------14-|
-0-00-0--0-00-0-00-0-00-0--0-00-0-00-0-00-0--0-00-0-0-------------------|
-0-00-0--0-00-0-00-0-00-0--0-00-0-00-0-00-0--0-00-0-0-------------------|
 * **    * ** * ** * **    * ** * ** * **    * ** * *

3:08

1

T  __     T __     T __     T __     T __     T __     T __      T __
  /  \     /  \     /  \     /  \     /  \     /  \     /  \      /  \
17101312-17101312-17101312-17101312-17101312-17101312-17101312-17101312--|
-------13-------13-------13-------13-------13-------13-------13--------13|
-------------------------------------------------------------------------|
-------------------------------------------------------------------------|
-------------------------------------------------------------------------|
-------------------------------------------------------------------------|
CONT.
T  __     T __     T __     T __
  /  \     /  \     /  \     /  \
17101312-17101312-17101312-17101312---|
-------13-------13-------13-------13--|
--------------------------------------|
--------------------------------------|
--------------------------------------|
--------------------------------------|
CONT.
          _____
 T ^   T /     \            __
-18-17-18-17-15-13-T-^---T-/  \------------_____----------------------|
-------------------18-17-18-17-15-T-^---T-/     \------------_____----|
----------------------------------19-17-19-17-15-14-T-^-----/     \---|
----------------------------------------------------19-17-19-17-15-14-|
----------------------------------------------------------------------|
----------------------------------------------------------------------|

2
--------------------------------------------------------|
--------------------------------------------------------|
--------------------------------------------------------|
------0-----------------0-----------------0-------------|
-0-00-0--0-00-0-00-0-00-0--0-00-0-00-0-00-0--0-00-0-0---|
-0-00-0--0-00-0-00-0-00-0--0-00-0-00-0-00-0--0-00-0-0---|
 * **    * ** * ** * **    * ** * ** * **    * ** * *

3:15

1

T  __     T __     T __     T __     T __     T __     T __      T __
  /  \     /  \     /  \     /  \     /  \     /  \     /  \      /  \
17101312-17101312-17101312-17101312-17101312-17101312-17101312-17101312--|
-------13-------13-------13-------13-------13-------13-------13--------13|
-------------------------------------------------------------------------|
-------------------------------------------------------------------------|
-------------------------------------------------------------------------|
-------------------------------------------------------------------------|

2
---------------------------------|
---------------------------------|
-------------------10-9-10-9-5-9-|
------0-------------X-X--X-X-X-X-|
-0-00-0---0-00-0-0--8-7--8-7-3-7-|
-0-00-0---0-00-0-0---------------|
 * **     * ** * *

1
T  __     T __     T __     T __
  /  \     /  \     /  \     /  \
17101312-17101312-17101312-17101312---|
-------13-------13-------13-------13--|
--------------------------------------|
--------------------------------------|
--------------------------------------|
--------------------------------------|
CONT.
                                      T   ^    T   T    T   ^   T    ^
--T---^----T---^----T---^----T---^---15-10-12-15-10-12-15-10-12-15-10-12|
-18-10-13-18-10-13-18-10-13-18-10-13------------------------------------|
------------------------------------------------------------------------|
------------------------------------------------------------------------|
------------------------------------------------------------------------|
------------------------------------------------------------------------|
2
----------------------------------|
----------------------------------|
-------------------10-9-10-1210-9-|
------0-------------X-X--X--X-X-X-|
-0-00-0---0-00-0-0--8-7--8-10-8-7-|
-0-00-0---0-00-0-0----------------|
 * **     * ** * *


1

T  __     T __     T __     T __     T __     T __     T __      T __
  /  \     /  \     /  \     /  \     /  \     /  \     /  \      /  \
17101312-17101312-17101312-17101312-17101312-17101312-17101312-17101312--|
-------13-------13-------13-------13-------13-------13-------13--------13|
-------------------------------------------------------------------------|
-------------------------------------------------------------------------|
-------------------------------------------------------------------------|
-------------------------------------------------------------------------|

2
---------------------------------|
---------------------------------|
-------------------10-9-10-9-5-9-|
------0-------------X-X--X-X-X-X-|
-0-00-0---0-00-0-0--8-7--8-7-3-7-|
-0-00-0---0-00-0-0---------------|
 * **     * ** * *

1
T  __     T __     T __     T __
  /  \     /  \     /  \     /  \
17101312-17101312-17101312-17101312---|
-------13-------13-------13-------13--|
--------------------------------------|
--------------------------------------|
--------------------------------------|
--------------------------------------|
CONT.
          _____
 T ^   T /     \            __
-18-17-18-17-15-13-T-^---T-/  \------------_____----------------------|
-------------------18-17-18-17-15-T-^---T-/     \------------_____----|
----------------------------------19-17-19-17-15-14-T-^-----/     \---|
----------------------------------------------------19-17-19-17-15-14-|
----------------------------------------------------------------------|
----------------------------------------------------------------------|
2
---------------------------------------|
---------------------------------------|
-------------------10-9-10-1210-9------|
------0-------------X-X--X--X-X-X------|
-0-00-0---0-00-0-0--8-7--8-10-8-7-0----|
-0-00-0---0-00-0-0----------------0-|--|
 * **     * ** * *




\\\\\\\\\\\\\\\\\\\\\\\\\\\\\\\\\\\\\\\\\\\\\\\\\\\\\\\\\
\\\\\\\\\\\\\\\\\\\\\\\\\\\\\\\\\\\\\\\\\\\\\\\\\\\\\\\\\\
\\\\\\\\\\\\\\\\\\\\\\\\\\\\\\\\\\\\\\\\\\\\\\\\\\\\\\\\\\
\\\\\\\\\\\\\\\\\\\\\\\\\\\\\\\\\\\\\\\\\\\\\\\\\\\\\\\\\\






03 PANDORA

1
------------------------------------------------------------------|
------------------------------------------------------------------|
-141414141010101012121212--------141414141010101012121212---------|
-------------------------14141414------------------------14141414-|
------------------------------------------------------------------|
------------------------------------------------------------------|
2
------------------------------------------------------------------|
------------------------------------------------------------------|
------------------------------------------------------------------|
-0----------------------------------------------------------------|
-0----------------------------------------------------------------|
-0----------------------------------------------------------------|


1
-------------------------------------------------------------------|
-------------------------------------------------------------------|
-10101010------------------------10101010--------------------------|
---------121212121414141410101010---------121212121414141410101010-|
-------------------------------------------------------------------|
-------------------------------------------------------------------|
2
-------------------------------------------------------------------|
-------------------------------------------------------------------|
-------------------------------------------------------------------|
-12-------------------------------12-------------------------------|
-8--------------------------------10-------------------------------|
-8--------------------------------10-------------------------------|


1
------------------------------------------------------------------|
------------------------------------------------------------------|
-141414141010101012121212--------141414141010101012121212---------|
-------------------------14141414------------------------14141414-|
------------------------------------------------------------------|
------------------------------------------------------------------|
2
------------------------------------------------------------------|
------------------------------------------------------------------|
------------------------------------------------------------------|
-0----------------------------------------------------------------|
-0----------------------------------------------------------------|
-0----------------------------------------------------------------|


1
-------------------------------------------------------------------|
-------------------------------------------------------------------|
-10101010------------------------10101010--------------------------|
---------121212121414141410101010---------121212121414141410101010-|
-------------------------------------------------------------------|
-------------------------------------------------------------------|
2
-------------------------------------------------------------------|
-------------------------------------------------------------------|
-------------------------------------------------------------------|
-12-------------------------------12------P------------------------|
-8--------------------------------10-------S-----------------------|
-8--------------------------------10--------\----------------------|



1
------------------------------------------------------------------|
------------------------------------------------------------------|
-141414141010101012121212--------141414141010101012121212---------|
-------------------------14141414------------------------14141414-|
------------------------------------------------------------------|
------------------------------------------------------------------|
CONT.
-------------------------------------------------------------------|
-------------------------------------------------------------------|
-10101010------------------------10101010--------------------------|
---------121212121414141410101010---------121212121414141410101010-|
-------------------------------------------------------------------|
-------------------------------------------------------------------|
2
---------------------------------------------------------------------|
---------------------------------------------------------------------|
---------------------------------------------------------------------|
---------------------------------------------------------------------|
-----7---8---7-5-----7---8---7-5-----7---8---7-5-------8----10---8-7-|
-0-0---0---0-----0-0---0---0-----8-8---8---8-----10-10---10----10----|
 * *   *   *     * *   *   *     * *   *   *      *  *    *     *




1
------------------------------------------------------------------|
------------------------------------------------------------------|
-141414141010101012121212--------141414141010101012121212---------|
-------------------------14141414------------------------14141414-|
------------------------------------------------------------------|
------------------------------------------------------------------|
CONT.
-------------------------------------------------------------------|
-------------------------------------------------------------------|
-10101010------------------------10101010--------------------------|
---------121212121414141410101010---------121212121414141410101010-|
-------------------------------------------------------------------|
-------------------------------------------------------------------|
2
---------------------------------------------------------------------|
---------------------------------------------------------------------|
---------------------------------------------------------------------|
---------------------------------------------------------------------|
-----7---8---7-5-----7---8---7-5-----7---8---7-5-------8----10---8-7-|
-0-0---0---0-----0-0---0---0-----8-8---8---8-----10-10---10----10----|
 * *   *   *     * *   *   *     * *   *   *      *  *    *     *



0:22


1
------------------------------------------------------|
------------------------------------------------------|
------------------------------------------------------|
-0----------------10------5-------------3-------------|
-0----------------10------5-------------3-------------|
-0----------------10------5-------------3-------------|

2
------------------------------------------------------|
------------------------------------------------------|
------------------------------------------------------|
-777------------------------------------555-----------|
----888555888555---777---------555777888---888777555--|
----------------777---101010555-----------------------|


1
--------------------------------------------------------------------|
-----------------------------------------------------------_--------|
--------------------------------------12------------------/ \-------|
0------------------------------12-------12-10\7-----7----5-7-5------|
0-----------------5--------------------------------------------8----|
0-----------------5------10-10----10------------8-8----8------------|
                          *  *     *            * *    *
2
------------------------------------------------------|
------------------------------------------------------|
------------------------------------------------------|
-777------------------------------------555-----------|
----888555888555---777---------555777888---888777555--|
----------------777---101010555-----------------------|




0:33

L
-------------------------------------------------------------|
-------------------------------------------------------------|
------10--------10--------10---------------------------------|
-------X---------X---------X---------------------------------|
-00000-8\--00000-8\--00000-8\---8888101010101212121210101010-|
-00000-----00000-----00000-----------------------------------|
 *****     *****     *****

----------------------------------------------------|
----------------------------------------------------|
-------7---------7---------7------------------------|
-------X---------X---------X------------------------|
-00000-5\--00000-5\--00000-5\---5555777788887777----|
-00000-----00000-----00000--------------------------|
 *****     *****     *****

L
-------------------------------------------------------------|
-------------------------------------------------------------|
------10--------10--------10---------------------------------|
-------X---------X---------X---------------------------------|
-00000-8\--00000-8\--00000-8\---8888101010101212121210101010-|
-00000-----00000-----00000-----------------------------------|
 *****     *****     *****

----------------------------------------------------|
----------------------------------------------------|
-------7---------7---------7------------------------|
-------X---------X---------X------------------------|
-00000-5\--00000-5\--00000-5\---5555777788887777----|
-00000-----00000-----00000--------------------------|
 *****     *****     *****




0:44

1
------------------------------------------------------------------|
------------------------------------------------------------------|
-141414141010101012121212--------141414141010101012121212---------|
-------------------------14141414------------------------14141414-|
------------------------------------------------------------------|
------------------------------------------------------------------|
2
------------------------------------------------------------------|
------------------------------------------------------------------|
------------------------------------------------------------------|
-0-----------------------------------------------10---------------|
-0-----------------------------------------------10---------------|
-0-----------------------------------------------10---------------|


1
-------------------------------------------------------------------|
-------------------------------------------------------------------|
-10101010------------------------10101010--------------------------|
---------121212121414141410101010---------121212121414141410101010-|
-------------------------------------------------------------------|
-------------------------------------------------------------------|
2
---------------------------------------------------|
---------------------------------------------------|
------------------------------------------2--------|
-3-----------------------------------2------3-2~---|
-3-------------------------------------------------|
-3-------------------------------0-0---0-----------|
                                 * *   *


1
------------------------------------------------------------------|
------------------------------------------------------------------|
-141414141010101012121212--------141414141010101012121212---------|
-------------------------14141414------------------------14141414-|
------------------------------------------------------------------|
------------------------------------------------------------------|
2
------------------------------------------------------------------|
------------------------------------------------------------------|
------------------------------------------------------------------|
-0-----------------------------------------------10---------------|
-0------------------------------------------------8---------------|
-0------------------------------------------------8---------------|


1
-------------------------------------------------------------------|
-------------------------------------------------------------------|
-10101010------------------------10101010--------------------------|
---------121212121414141410101010---------121212121414141410101010-|
-------------------------------------------------------------------|
-------------------------------------------------------------------|
2
---------------------------------------------------------|
------------------------------------------------_--------|
-----------------12----------------------------/ \-------|
---------12--------12-10\7-------------7------5-7-5------|
----------------------------------------------------8----|
-10--10------10------------------8--8------8-------------|
  *   *       *                  *  *      *



1
------------------------------------------------------------------|
------------------------------------------------------------------|
-141414141010101012121212--------141414141010101012121212---------|
-------------------------14141414------------------------14141414-|
------------------------------------------------------------------|
------------------------------------------------------------------|
HARMONY
-------------------------------------------------------------------|
-------------------------------------------------------------------|
-171717171414141415151515--------171717171414141415151515----------|
-------------------------17171717------------------------17171717--|
-------------------------------------------------------------------|
-------------------------------------------------------------------|
1 CONT
-------------------------------------------------------------------|
-------------------------------------------------------------------|
-10101010------------------------10101010--------------------------|
---------121212121414141410101010---------121212121414141410101010-|
-------------------------------------------------------------------|
-------------------------------------------------------------------|
HARM CONT.
------------------------------------------------------------------|
------------------------------------------------------------------|
-14141414------------------------14141414-------------------------|
---------151515151717171714141414--------151515151717171714141414-|
------------------------------------------------------------------|
------------------------------------------------------------------|
RYTHM
---------------------------------------------------------------------|
---------------------------------------------------------------------|
---------------------------------------------------------------------|
---------------------------------------------------------------------|
-----7---8---7-5-----7---8---7-5-----7---8---7-5-------8----10---8-7-|
-0-0---0---0-----0-0---0---0-----8-8---8---8-----10-10---10----10----|
 * *   *   *     * *   *   *     * *   *   *      *  *    *     *


1
------------------------------------------------------------------|
------------------------------------------------------------------|
-141414141010101012121212--------141414141010101012121212---------|
-------------------------14141414------------------------14141414-|
------------------------------------------------------------------|
------------------------------------------------------------------|
HARMONY
-------------------------------------------------------------------|
-------------------------------------------------------------------|
-171717171414141415151515--------171717171414141415151515----------|
-------------------------17171717------------------------17171717--|
-------------------------------------------------------------------|
-------------------------------------------------------------------|
1 CONT
-------------------------------------------------------------------|
-------------------------------------------------------------------|
-10101010------------------------10101010--------------------------|
---------121212121414141410101010---------121212121414141410101010-|
-------------------------------------------------------------------|
-------------------------------------------------------------------|
HARM CONT.
-------------------------------------|
-------------------------------------|
-14141414----------------------------|
---------151515151717171714141414----|
-------------------------------------|
-------------------------------------|
RYTHM
------------------------------------------------------|
------------------------------------------------------|
------------------------------------------------------|
------------------------------------------------------|
-----7---8---7-5-----7---8---7-5-----7---8---7-5-10---|
-0-0---0---0-----0-0---0---0-----8-8---8---8-----10---|
 * *   *   *     * *   *   *     * *   *   *        |


1:06

B
---------------------------------------------------|
---------------------------------------------------|
---------------------------------------------------|
-0----------------12---------------12--------------|
-0-----------------8---------------10--------------|
-0-----------------8---------------10--------------|

---------------------------------------------------|
---------------------------------------------------|
---------------------------------------------------|
-0----------------12---------------12--------------|
-0-----------------8---------------10--------------|
-0-----------------8---------------10--------------|


1:17

L
----------------------------------------------------------|
----------------------------------------------------------|
------------14------------------------10--------------12--|
-14---14-15-----15--14----------10-12-----------12-14-----|
-12---------------------15--8--------------10-------------|
-12-------------------------8--------------10-------------|
                                 *  *
R
-----------------------------------------------------------|
-------------------------------------11----------------13--|
-------------10-----------------8-10-------------10-12-----|
-14----10-12----12--10-------------------------------------|
-12---------------------12--8---------------10-------------|
-12-------------------------8---------------10-------------|
                                *  *              *  *

L
----------------------------------------------------------|
----------------------------------------------------------|
------------14------------------------10--------------12--|
------14-15-----15--14----------10-12-----------12-14-----|
--0---------------------15--8--------------10-------------|
--0-------------------------8--------------10-------------|
                                 *  *
R
-----------------------------------------------------------|
-------------------------------------11----------------13--|
-------------10-----------------8-10-------------10-12-----|
-------10-12----12--10-------------------------------------|
--0---------------------12--8---------------10-------------|
--0-------------------------8---------------10-------------|
                                *  *              *  *


B                       H
-----------------------------|
------------------------9----|
------------------------9----|
------------------------9----|
-0--00-0-----0--00-0---------|
-0--00-0-----0--00-0---------|
 *  ** *     *  ** *


1:30
B
---------------------------------------------------------------------------|
---------------------------------------------------------------------------|
----------14----12-14-----------14------------------9----7----------7---5-4|
-------------12--------------------12-15-14-----------10---9----------5----|
0--00-0----------------0--00-0---------------77777------------55555--------|
0--00-0----------------0--00-0---------------77777------------55555--------|
*  **                  *  **                 ****             ****

---------------------------------------------------------------------------|
---------------------------------------------------------------------------|
----------14----12-14-----------14------------------9----7----------7---5-4|
-------------12--------------------12-15-14-----------10---9----------5----|
0--00-0----------------0--00-0---------------77777------------55555--------|
0--00-0----------------0--00-0---------------77777------------55555--------|
*  **                  *  **                 ****             ****

L
----------------------------------------------------------------------------|
------------------------------------------------------------------------PH--|
---------------------------------------------------9/12~-7~---------7---5-PH|
---------15----14-15------------15----12-10---------------------------5---5-|
0--00-0-----12---------0--00-0-----12-------------------------55555---------|
0--00-0----------------0--00-0---------------77777------------55555---------|
*  ** *                *  ** *               ****             ****
R
----------------------------------------------------------------------------|
------------------------------------------------------------------------PH--|
---------14----12-14-----------14------------------9----7-----------7---5-PH|
------------12--------------------12-15-14-----------10---9-----------5---5-|
0--00-0---------------0--00-0---------------77777------------55555----------|
0--00-0---------------0--00-0---------------77777------------55555----------|
 *  **                 *  **                 ****             ****
L
----------------------------------------------------------------------------|
------------------------------------------------------------------------PH--|
---------------------------------------------------9/12~-7~---------7---5-PH|
---------15----14-15------------15----12-10---------------------------5---5-|
0--00-0-----12---------0--00-0-----12-------------------------55555---------|
0--00-0----------------0--00-0---------------77777------------55555---------|
*  ** *                *  ** *               ****             ****
R
----------------------------------------------------------------------------|
-----------------------------------------------------------------------PH---|
---------14----12-14-----------14------------------9----7-----------7---5-PH|
------------12--------------------12-15-14-----------10---9-----------5---5-|
0--00-0---------------0--00-0---------------77777------------55555----------|
0--00-0---------------0--00-0---------------77777------------55555----------|
*  **                 *  **                 ****             ****

1:55

L
-------------------------------------------------------------|
-------------------------------------------------------------|
------10--------10--------10---------------------------------|
-------X---------X---------X---------------------------------|
-00000-8\--00000-8\--00000-8\---8888101010101212121210101010-|
-00000-----00000-----00000-----------------------------------|
 *****     *****     *****
R
----------------------------------------------------|
----------------------------------------------------|
-------7---------7---------7------------------------|
-------X---------X---------X------------------------|
-00000-5\--00000-5\--00000-5\---5555777788887777----|
-00000-----00000-----00000--------------------------|
 *****     *****     *****

L
------------------------------------|
------------------------------------|
------10--------10--------10--------|
-------X---------X---------X--------|
-00000-8\--00000-8\--00000-8\--8-PS-|
-00000-----00000-----00000-----8---\|
 *****     *****     *****       |

------------------------------------|
------------------------------------|
-------7---------7---------7--------|
-------X---------X---------X------P-|
-00000-5\--00000-5\--00000-5\--8--S-|
-00000-----00000-----00000-----8---\|
 *****     *****     *****       |


2:06

B
---------------------------------------------------|
---------------------------------------------------|
---------------------------------------------------|
-0----------------12---------------12--------------|
-0-----------------8---------------10--------------|
-0-----------------8---------------10--------------|

---------------------------------------------------|
---------------------------------------------------|
---------------------------------------------------|
-0----------------12---------------12--------------|
-0-----------------8---------------10--------------|
-0-----------------8---------------10--------------|


2:16

MELODY 1
----------------------------------------------------------|
----------------------------------------------------------|
------------14------------------------10--------------12--|
------14-15-----15--14----------10-12-----------12-14-----|
--0---------------------15--8--------------10-------------|
--0-------------------------8--------------10-------------|
                                 *  *            *  *
2
-----------------------------------------------------------|
-------------------------------------11----------------13--|
-------------10-----------------8-10-------------10-12-----|
-------10-12----12--10-------------------------------------|
--0---------------------12----8---------------10-----------|
--0---------------------------8---------------10-----------|
                                *  *              *  *
RYTHM 3
-----------------------------------------------------------|
-----------------------------------------------------------|
-----------------------------------------------------------|
0-----------------------------12--------------12-----------|
0-0-0-0-0-0-0-0-0-0-0-0-0-0-0-8---------------10-----------|
0-0-0-0-0-0-0-0-0-0-0-0-0-0-0-8---------------10-----------|
  * * * * * * * * * * * * * *



MELODY 1
----------------------------------------------------------|
----------------------------------------------------------|
------------14------------------------10--------------12--|
------14-15-----15--14----------10-12-----------12-14-----|
--0---------------------15--8--------------10-------------|
--0-------------------------8--------------10-------------|
                                 *  *            *  *
2
-----------------------------------------------------------|
-------------------------------------11----------------13--|
-------------10-----------------8-10-------------10-12-----|
-------10-12----12--10-------------------------------------|
--0---------------------12----8---------------10-----------|
--0---------------------------8---------------10-----------|
                                *  *              *  *
RYTHM 3
-----------------------------------------------------------|
-----------------------------------------------------------|
-----------------------------------------------------------|
0-----------------------------12--------------12-----------|
0-0-0-0-0-0-0-0-0-0-0-0-0-0-0-8---------------10-----------|
0-0-0-0-0-0-0-0-0-0-0-0-0-0-0-8---------------10-----------|
  * * * * * * * * * * * * * *


----------------------------------------|
----------------------------------------|
----------------------------------------|
-0--------------------------------------|
-0--------------------------------------|
-0--------------------------------------|



2:30

-----------------------------------------------------------------|
-----------------------------------------------------------------|
--------9-----9---------9-----9----------5---3-2-----------------|
----10---10---------10---10----------3---------------3---5---3-2-|
--0----0----0-----0----0----0------3---3---3-------3---3---3-----|
0---------------8----------------3---------------3---------------|

-----------------------------------------------------------------|
-----------------------------------------------------------------|
--------9-----9---------9-----9----------5---3-2-----------------|
----10---10---------10---10----------3---------------3---5---3-2-|
--0----0----0-----0----0----0------3---3---3-------3---3---3-----|
0---------------8----------------3---------------3---------------|

-----------------------------------------------------------------|
-----------------------------------------------------------------|
--------9-----9---------9-----9----------5---3-2-----------------|
----10---10---------10---10----------3---------------3---5---3-2-|
--0----0----0-----0----0----0------3---3---3-------3---3---3-----|
0---------------8----------------3---------------3---------------|

------------------------------------------------------------|
------------------------------------------------------------|
--------9-----9---------9-----9----------5---3-2------------|
----10---10---------10---10----------3---------------3---5--|
--0----0----0-----0----0----0------3---3---3-------3---3----|
0---------------8----------------3---------------3----------|




2:54

--------------------------------------------------------------------|
--------------------------------------------------------------------|
-----------9~----------------9~---------------5~-3-2----------------|
------10------10--------10------10--------5--------------3---5~-3-2-|
-0-0-----0-------12-8-8----8-------12-3-3---3--------3-3---3--------|
-0-0----------------8-8---------------3-3------------3-3------------|
 * *     *          * *    *          * *   *        * *   *

--------------------------------------------------------------------|
--------------------------------------------------------------------|
-----------9~----------------9~---------------5~-3-2----------------|
------10------10--------10------10--------5--------------3---5~-3-2-|
-0-0-----0-------12-8-8----8-------12-3-3---3--------3-3---3--------|
-0-0----------------8-8---------------3-3------------3-3------------|
 * *     *          * *    *          * *   *        * *   *



3:06

L
---------------------------------------------------------------------|
---------------------------------------------------------------------|
-----------9-10-9~-----------9-10-9~----------PH-3-2-----------------|
------10----------------8-10--------------5---3~---------3---PH-3-2--|
-0-0-----0----------8-8---------------3-3---3--------3-3---3-3~------|
-0-0----------------8-8---------------3-3------------3-3-------------|
 * *     *                            * *   *        * *   *
R
---------------------------------------------------------------------|
---------------------------------------------------------------------|
-----------12-14-12~----------14--12~--------PH-3-2------------------|
-----14---------------12-14-15--15-------5----3~---------3---PH-3-2--|
-0-0----0-----------8-----------------3-3---3--------3-3---3-3~------|
-0-0----------------8-----------------3-3------------3-3-------------|
 * *    *                             * *   *        * *   *


L
---------------------------------------------------------------------|
---------------------------------------------------------------------|
-----------9-10-9~-----------9-10-9~----------PH-3-2-----------------|
------10----------------8-10--------------5---3~---------3---PH-3-2--|
-0-0-----0----------8-8---------------3-3---3--------3-3---3-3~------|
-0-0----------------8-8---------------3-3------------3-3-------------|
 * *     *                            * *   *        * *   *
R
---------------------------------------------------------------------|
---------------------------------------------------------------------|
-----------12-14-12~----------14--12~--------PH-3-2------------------|
-----14---------------12-14-15--15--------5---3~---------3---PH-3-2--|
-0-0----0-----------8-----------------3-3---3--------3-3---3-3~------|
-0-0----------------8-----------------3-3------------3-3-------------|
 * *    *                             * *   *        * *   *



3:18

---------------------------------------------|
---------------------------------------------|
---------------------------------------------|
---------------------------10---------12-----|
-000-0-0---000-0-0---000-0--8---000-0-10-----|
-000-0-0---000-0-0---000-0--8---000-0-10-\---|
 *** * *   *** * *   *** *      *** *
---------------------------------------------|
---------------------------------------------|
---------------------------------------------|
---------------------------10---------12-----|
-000-0-0---000-0-0---000-0--8---000-0-10-----|
-000-0-0---000-0-0---000-0--8---000-0-10-\---|
 *** * *   *** * *   *** *      *** *


3:30

L
------------------------------------------------------------------|
------------------------------------------------------------------|
-------7---------------7---------------7-----------^---^---^---^--|
-------X---------------X---------------X----------750-750-320-320-|
-000-0-5-0-0-000-000-0-5-0-0-000-000-0-5-0-0-000------------------|
-000-0---0-0-000-000-0---0-0-000-000-0---0-0-000------------------|
 *** *   * * *** *** *   * * *** *** *   * * ***
R
------------------------------------------------------------------|
------------------------------------------------------------------|
-------7---------------7---------------7--------------------------|
-------X---------------X---------------X-----------^---^---^---^--|
-000-0-5-0-0-000-000-0-5-0-0-000-000-0-5-0-0-000--870-870-530-530-|
-000-0---0-0-000-000-0---0-0-000-000-0---0-0-000------------------|
 *** *   * * *** *** *   * * *** *** *   * * ***

L
------------------------------------------------------------------|
------------------------------------------------------------------|
-------7---------------7---------------7-----------^---^---^---^--|
-------X---------------X---------------X----------750-750-320-320-|
-000-0-5-0-0-000-000-0-5-0-0-000-000-0-5-0-0-000------------------|
-000-0---0-0-000-000-0---0-0-000-000-0---0-0-000------------------|
 *** *   * * *** *** *   * * *** *** *   * * ***
R
------------------------------------------------------------------|
------------------------------------------------------------------|
-------7---------------7---------------7--------------------------|
-------X---------------X---------------X-----------^---^---^---^--|
-000-0-5-0-0-000-000-0-5-0-0-000-000-0-5-0-0-000--870-870-530-530-|
-000-0---0-0-000-000-0---0-0-000-000-0---0-0-000------------------|
 *** *   * * *** *** *   * * *** *** *   * * ***


3:42
L
------------------------------------------------------------------|
------------------------------------------------------------------|
------10--------------10--------------10-----------^---^---^---^--|
-------X---------------X---------------X----------750-750-320-320-|
-000-0-8-0-0-000-000-0-8-0-0-000-000-0-8-0-0-000------------------|
-000-0---0-0-000-000-0---0-0-000-000-0---0-0-000------------------|
 *** *   * * *** *** *   * * *** *** *   * * ***
R
------------------------------------------------------------------|
------------------------------------------------------------------|
-------7---------------7---------------7--------------------------|
-------X---------------X---------------X-----------^---^---^---^--|
-000-0-5-0-0-000-000-0-5-0-0-000-000-0-5-0-0-000--870-870-530-530-|
-000-0---0-0-000-000-0---0-0-000-000-0---0-0-000------------------|
 *** *   * * *** *** *   * * *** *** *   * * ***

L
-------------------------------------------------------------------------|
-------------------------------------------------------------------------|
------10--------------10--------------10-----------^---^---^---^--10-----|
-------X---------------X---------------X----------750-750-320-320-X------|
-000-0-8-0-0-000-000-0-8-0-0-000-000-0-8-0-0-000------------------8\-000-|
-000-0---0-0-000-000-0---0-0-000-000-0---0-0-000---------------------000-|
 *** *   * * *** *** *   * * *** *** *   * * ***
R
-------------------------------------------------------------------------|
-------------------------------------------------------------------------|
-------7---------------7---------------7--------------------------7------|
-------X---------------X---------------X-----------^---^---^---^--X------|
-000-0-5-0-0-000-000-0-5-0-0-000-000-0-5-0-0-000--870-870-530-530-5\-000-|
-000-0---0-0-000-000-0---0-0-000-000-0---0-0-000---------------------000-|
 *** *   * * *** *** *   * * *** *** *   * * ***





\\\\\\\\\\\\\\\\\\\\\\\\\\\\\\\\\\\\\\\\\\\\\\\\\\\\\\\\\
\\\\\\\\\\\\\\\\\\\\\\\\\\\\\\\\\\\\\\\\\\\\\\\\\\\\\\\\\\
\\\\\\\\\\\\\\\\\\\\\\\\\\\\\\\\\\\\\\\\\\\\\\\\\\\\\\\\\\
\\\\\\\\\\\\\\\\\\\\\\\\\\\\\\\\\\\\\\\\\\\\\\\\\\\\\\\\\\



04 ROMANCE IS DEAD


L
------------------------------------------------------------------|
------------------------------------------------------------------|
------------------------------------------------------------------|
------------------------------------------------------------------|
---------------------0-0-000-0-0----------------------------------|
---------------------0-0-000-0-0----------------------------------|
.                    * * *** * *
R
------------------------------------------------------------------|
------------------------------------------------------------------|
------------------------------------------------------------------|
-3-----3---------3---------------3-----3---------3-----3--2-----2-|
---7-7---7-7-3-5---5-0-0-000-0-0---7-7---7-7-3-5---3--------3-----|
---------------------0-0-000-0-0---------------------3--------5---|
.                    * * *** * *

L
------------------------------------------------------------------|
------------------------------------------------------------------|
------------------------------------------------------------------|
------------------------------------------------------------------|
---------------------0-0-000-0-0----------------------------------|
---------------------0-0-000-0-0----------------------------------|
.                    * * *** * *

R
------------------------------------------------------------------|
------------------------------------------------------------------|
---------------------------------------------------------1010-9---|
-3-----3---------3---------------3-----3---------3-----3--X-X-X---|
---7-7---7-7-3-5---5-0-0-000-0-0---7-7---7-7-3-5---3------8-8-7---|
---------------------0-0-000-0-0---------------------3------------|
.                    * * *** * *



0:11

------------------------------------------------------------------|
------------------------------------------------------------------|
------------------------------------------------------------------|
-3-----3---------3---------------3-----3---------3-----3--2-----2-|
---7-7---7-7-3-5---5-0-0-000-0-0---7-7---7-7-3-5---3--------3-----|
---------------------0-0-000-0-0---------------------3--------5---|
.                    * * *** * *

------------------------------------------------------------------|
------------------------------------------------------------------|
---------------------------------------------------------1010-9---|
-3-----3---------3---------------3-----3---------3-----3--X-X-X---|
---7-7---7-7-3-5---5-0-0-000-0-0---7-7---7-7-3-5---3------8-8-7---|
---------------------0-0-000-0-0---------------------3------------|
.                    * * *** * *

------------------------------------------------------------------|
------------------------------------------------------------------|
------------------------------------------------------------------|
-3-----3---------3---------------3-----3---------3-----3--2-----2-|
---7-7---7-7-3-5---5-0-0-000-0-0---7-7---7-7-3-5---3--------3-----|
---------------------0-0-000-0-0---------------------3--------5---|
.                    * * *** * *
                                                          L   R
-------------------------------------------------------------------|
-------------------------------------------------------------------|
---------------------------------------------------------10--------|
-3-----3---------3---------------3-----3---------3-----3--X---10---|
---7-7---7-7-3-5---5-0-0-000-0-0---7-7---7-7-3-5---3------8------8-|
---------------------0-0-000-0-0---------------------3-------------|
.                    * * *** * *




0:32
-------------------------------------------------------------------|
-------------------------------------------------------------------|
-------------------------------------------------------------------|
-----------7----------------10-------------7-----------------10----|
-5-------------8----3---7------8-5-------------/10--8-7--8-7----8--|
---0-0-0-0---0----0---0---0--------0-0-0-0---0---------------------|
.  * *   *   *    *   *   *        * *   *   *

L
-------------------------------------------------------------------|
-------------------------------------------------------------------|
-------------------------------------------------------------------|
-----------7----------------10-------------7-----------------10----|
-5-------------8----3---7------8-5-------------/7--5-3--5-3-----8--|
---0-0-0-0---0----0---0---0--------0-0-0-0---0---------------------|
.  * *   *   *    *   *   *        * *   *   *
R
----------------------------------------------------------------|
----------------------------------------------------------------|
----------------------------------------------------------------|
-----------7----------------10-------------7--------------------|
-5-------------8----3---7------8-5-------------/10--8-7--8-7-3--|
---0-0-0-0---0----0---0---0--------0-0-0-0---0------------------|
.  * *   *   *    *   *   *        * *   *   *



-------------------------------------------------------------------|
-------------------------------------------------------------------|
-------------------------------------------------------------------|
-----------7----------------10-------------7-----------------10----|
-5-------------8----3---7------8-5-------------/10--8-7--8-7----8--|
---0-0-0-0---0----0---0---0--------0-0-0-0---0---------------------|
.  * *   *   *    *   *   *        * *   *   *

L
----------------------------------------------------------------|
----------------------------------------------------------------|
----------------------------------------------------------------|
-----------7----------------10-------------7--------------------|
-5-------------8----3---7------8-5--------------/7--5-3--5-3-7--|
---0-0-0-0---0----0---0---0--------0-0-0-0---0------------------|
.  * *   *   *    *   *   *        * *   *   *
R
----------------------------------------------------------------|
----------------------------------------------------------------|
----------------------------------------------------------------|
-----------7----------------10-------------7--------------------|
-5-------------8----3---7------8-5-------------/10--8-7--8-7-3--|
---0-0-0-0---0----0---0---0--------0-0-0-0---0------------------|
.  * *   *   *    *   *   *        * *   *   *



0:53
L
------------------------------------------------------------------|
------------------------------------------------------------------|
------------------------------------------------------------------|
---------------------------7-7-7--------------------7-7-7-5-5-5-5-|
-0-----0---0-0-----0---0---8-8-8--0-----0---0-0-----8-8-8-7-7-7-7-|
-0-0-0-0-0-0-0-0-0-0-0-0-0--------0-0-0-0-0-0-0-0-0---------------|
   * *   *     * *   *   *          * *   *     * *
R
------------------------------------------------------------------|
------------------------------------------------------------------|
------------------------------------------------------------------|
---------------------------7-7-7--------------------5-5-5-2-2-2-2-|
-0-----0---0-0-----0---0---8-8-8--0-----0---0-0-----7-7-7-3-3-3-3-|
-0-0-0-0-0-0-0-0-0-0-0-0-0--------0-0-0-0-0-0-0-0-0---------------|
   * *   *     * *   *   *          * *   *     * *


1:04
L
---------------------------------------------------------------|
---------------------------------------------------------------|
---------------------------------------------------------------|
-------------------------7-7-7-------------------7-7-7-5-5-5-5-|
-0-----0---0-0-----------8-8-8-0-----0---0-0-----8-8-8-7-7-7-7-|
-0-0-0-0-0-0-0-|-0-0-0-0-------0-0-0-0-0-0-0-0-0---------------|
   * *   *       * * * *         * *   *     * *
R
---------------------------------------------------------------|
---------------------------------------------------------------|
---------------------------------------------------------------|
-------------------------7-7-7-------------------5-5-5-2-2-2-2-|
-0-----0---0-0-----------8-8-8-0-----0---0-0-----7-7-7-3-3-3-3-|
-0-0-0-0-0-0-0-|-0-0-0-0-------0-0-0-0-0-0-0-0-0---------------|
   * *   *       * * * *         * *   *     * *
L
---------------------------------------------------------------|
---------------------------------------------------------------|
---------------------------------------------------------------|
-------------------------7-7-7-------------------7-7-7-5-5-5-5-|
-0-----0---0-0-----------8-8-8-0-----0---0-0-----8-8-8-7-7-7-7-|
-0-0-0-0-0-0-0-|-0-0-0-0-------0-0-0-0-0-0-0-0-0---------------|
   * *   *       * * * *         * *   *     * *
R
---------------------------------------------------------------|
---------------------------------------------------------------|
---------------------------------------------------------------|
-------------------------7-7-7-------------------5-5-5-2-2-2-2-|
-0-----0---0-0-----------8-8-8-0-----0---0-0-----7-7-7-3-3-3-3-|
-0-0-0-0-0-0-0-|-0-0-0-0-------0-0-0-0-0-0-0-0-0---------------|
   * *   *       * * * *         * *   *     * *



1:15
L
------------------------------------------------------------------|
------------------------------------------------------------------|
------------------------------------------------------------------|
-3-----3---------3---------------3-----3---------3-----3--2-----2-|
---7-7---7-7-3-5---5-0-0-000-0-0---7-7---7-7-3-5---3--------3-----|
---------------------0-0-000-0-0---------------------3--------5---|
.                    * * *** * *

L
------------------------------------------------------------------|
------------------------------------------------------------------|
---------------------------------------------------------1010-9---|
-3-----3---------3---------------3-----3---------3-----3--X-X-X---|
---7-7---7-7-3-5---5-0-0-000-0-0---7-7---7-7-3-5---3------8-8-7---|
---------------------0-0-000-0-0---------------------3------------|
.                    * * *** * *
R
-------------------------------------------------------------------|
-------------------------------------------------------------------|
----------------------------------------------------------14-14-12-|
-----------------------------------------------------------X--X--X-|
----------------------------------------------------------12-12-10-|
-------------------------------------------------------------------|



1:26
------------------------------------------------------------------|
------------------------------------------------------------------|
------------------------------------------------------------------|
-3-----3---------3---------------3-----3---------3-----3--2-----2-|
---7-7---7-7-3-5---5-000-000-000---7-7---7-7-3-5---3--------3-----|
---------------------000-000-000---------------------3--------5---|
.                    *** *** ***

L
------------------------------------------------------------------|
------------------------------------------------------------------|
---------------------------------------------------------1010-9---|
-3-----3---------3---------------3-----3---------3-----3--X-X-X---|
---7-7---7-7-3-5---5-000-000-000---7-7---7-7-3-5---3------8-8-7---|
---------------------000-000-000---------------------3------------|
.                    *** *** ***
R
------------------------------------------------------------------|
------------------------------------------------------------------|
---------------------------------------------------------14-14-12-|
-3-----3---------3---------------3-----3---------3-----3--X--X--X-|
---7-7---7-7-3-5---5-000-000-000---7-7---7-7-3-5---3-----12-12-10-|
---------------------000-000-000---------------------3------------|
.                    *** *** ***



1:37
----------------------------------------------------------|
----------------------------------------------------------|
----------------------------------------------------------|
-3-5-3---7-5-----0000-0000-0000-0000-0000-0000-0000-0000--|
-1-3-1-3-5-3-3-5-0000-0000-0000-0000-0000-0000-0000-0000--|
-------3-----3-5-0000-0000-0000-0000-0000-0000-0000-0000--|
.* * * * * * * * **** **** **** **** **** **** **** ****

LXXXXXXXXXXXXXXXXXXX
----------------------------------------|
----------------------------------------|
----------------------------------------|
-0000-0000-0000-0000-----------8--------|
-0000-0000-0000-0000-----------8\-------|
-0000-0000-0000-0000--------------------|
 **** **** **** ****
RXXXXXXXXXXXXXXXXXXX
----------------------------------------|
----------------------------------------|
----------------------------------------|
-0000-0000-0000-0000-3-----3-2----3-2---|
-0000-0000-0000-0000---3-------3--------|
-0000-0000-0000-0000-----3--------------|



1:47
L
---------------------------------------------------------------|
---------------------------------------------------------------|
----------------------------------------------3---3------------|
-0-0-0-0-00-00--0-0-0-0-00-00--0-0-0-0-00-00----7---7--3-----3-|
-0-0-0-0-00-00--0-0-0-0-00-00--0-0-0-0-00-00-------------7-----|
-0-0-0-0-00-00--0-0-0-0-00-00--0-0-0-0-00-00---------------5---|
.* * * * ** **  * * * * ** **  * * * * ** **
R
---------------------------------------------------------------|
---------------------------------------------------------------|
---------------------------------------------------------------|
-0-0-0-0-00-00--0-0-0-0-00-00--0-0-0-0-00-00--3-----3-2-----2--|
-0-0-0-0-00-00--0-0-0-0-00-00--0-0-0-0-00-00----3-------3------|
-0-0-0-0-00-00--0-0-0-0-00-00--0-0-0-0-00-00------3-------5----|



-----------------------------------------------|
-----------------------------------------------|
-----------------------------------------------|
-0-0-0-0-00-00--0-0-0-0-00-00--0-0-0-0-00-00---|
-0-0-0-0-00-00--0-0-0-0-00-00--0-0-0-0-00-00---|
-0-0-0-0-00-00--0-0-0-0-00-00--0-0-0-0-00-00---|
.* * * * ** **  * * * * ** **  * * * * ** **


L
--------------------------------------------------------------|
--------------------------------------------------------------|
----------------------------------------------3---3-----------|
-00000-0-00-00--00000-0-00-00--00000-0-00-00----7---7-3-----3-|
-00000-0-00-00--00000-0-00-00--00000-0-00-00------------7-----|
-00000-0-00-00--00000-0-00-00--00000-0-00-00--------------5---|
.***** * ** **  ***** * ** **  ***** * ** **
R
---------------------------------------------------------------|
---------------------------------------------------------------|
---------------------------------------------10------9-9-----9-|
-00000-0-00-00--00000-0-00-00--00000-0-00-00---14-10----10-----|
-00000-0-00-00--00000-0-00-00--00000-0-00-00--------------12---|
-00000-0-00-00--00000-0-00-00--00000-0-00-00-------------------|
.***** * ** **  ***** * ** **  ***** * ** **

L
--------------------------------------------------------------|
--------------------------------------------------------------|
----------------------------------------------3---3-----------|
-00000-0-00-00--00000-0-00-00--00000-0-00-00----7---7-3-------|
-00000-0-00-00--00000-0-00-00--00000-0-00-00------------7-----|
-00000-0-00-00--00000-0-00-00--00000-0-00-00--------------15\-|
.***** * ** **  ***** * ** **  ***** * ** **
R
---------------------------------------------------------------|
---------------------------------------------------------------|
---------------------------------------------------------------|
-00000-0-00-00--00000-0-00-00--00000-0-00-00--3-----3-2--------|
-00000-0-00-00--00000-0-00-00--00000-0-00-00----3-------3------|
-00000-0-00-00--00000-0-00-00--00000-0-00-00------3-------15\--|
.***** * ** **  ***** * ** **  ***** * ** **




L
---------------------------------------------------------------|
---------------------------------------------------------------|
---------------------------------------------------------------|
---------------------------10----------------------------------|
------------------------------8-5------------------------------|
---------------------------------------------------------------|

R
-------------------------------------------------------------------|
-------------------------------------------------------------------|
-------------------------------------------------------------------|
-----------7----------------10-------------7-----------------10----|
-5-------------8----3---7------8-5-------------/10--8-7--8-7----8--|
---0-0-0-0---0----0---0---0--------0-0-0-0---0---------------------|
.  * *   *   *    *   *   *        * *   *

L
-----------------------------------------------------------------|
-----------------------------------------------------------------|
-----------------------------------------------------------------|
---------------------------10-------------------------------10---|
-0----------------------------8-5--------------/7--5-3--5-3----8-|
-0-|-------------------------------------------------------------|

R
-------------------------------------------------------------------|
-------------------------------------------------------------------|
-------------------------------------------------------------------|
-----------7----------------10-------------7-----------------10----|
-5-------------8----3---7------8-5-------------/10--8-7--8-7----8--|
---0-0-0-0---0----0---0---0--------0-0-0-0---0---------------------|
.  * *   *   *    *   *   *        * *   *



-------------------------------------------------------------------|
-------------------------------------------------------------------|
-------------------------------------------------------------------|
-----------7----------------10-------------7-----------------10----|
-5-------------8----3---7------8-5-------------/10--8-7--8-7----8--|
---0-0-0-0---0----0---0---0--------0-0-0-0---0---------------------|
.  * *   *   *    *   *   *        * *   *

L
------------------------------------------------------------------|
------------------------------------------------------------------|
------------------------------------------------------------------|
-----------7----------------10-------------7-----------------10---|
-5-------------8----3---7------8-5--------------/7--5-3--5-3----8-|
---0-0-0-0---0----0---0---0--------0-0-0-0---0--------------------|
.  * *   *   *    *   *   *        * *   *
R
-----------------------------------------------------------------|
-----------------------------------------------------------------|
-----------------------------------------------------------------|
-----------7----------------10-------------7---------------------|
-5-------------8----3---7------8-5-------------/10--8-7--8-7-7-8-|
---0-0-0-0---0----0---0---0--------0-0-0-0---0-------------------|
.  * *   *   *    *   *   *        * *   *


L
-------------------------------------------------------------------|
-------------------------------------------------------------------|
-------------------------------------------------------------------|
-----------7----------------10-------------7-----------------10----|
-5-------------8----3---7------8-5-------------/10--8-7--8-7----8--|
---0-0-0-0---0----0---0---0--------0-0-0-0---0---------------------|
.  * *   *   *    *   *   *        * *   *

-------------------------------------------------------------------|
-------------------------------------------------------------------|
-------------------------------------------------------------------|
----------------3--3-3-5-5-5-5-5----------------10-10-10-5-5-5-5-5-|
-0--------------1--1-1-3-3-3-3-3-0--------------8--8--8--3-3-3-3-3-|
-0-000000000000------------------0-000000000000--------------------|
.  ************                    ************


L
-----------------------------------------------------------------------|
-----------------------------------------------------------------------|
------------------------------------------------------------------5----|
-----------7----------------10-------------7-----------------7-5-3--3-2|
-5-------------8----3---7------8-5------------/10--8-7--8-7-3----------|
---0-0-0-0---0----0---0---0--------0-0-0-0---0-------------------------|
.  * *   *   *    *   *   *        * *   *

----------------------------------------------------------------------|
----------------------------------------------------------------------|
----------------------------------------------------------------------|
---------------3-3-3-5-5-5-5-5----------------------------------------|
0--------------1-1-1-3-3-3-3-3-0-------------131210-12108-12108-7-5-3-|
0-000000000000-----------------0-000000000000-------------------------|
. ************                   ************




               2
----------------------------------|
----------------------------------|
----------------------------------|
----------------------------------|
-000-000-000-000-XXX-XXX-XXX-XXX--|
-000-000-000-000-XXX-XXX-XXX-XXX--|



L
--------------------------------------------------|
--------------------------------------------------|
-99-00-55-77-99-77-55-00-99-00-55-77-99-77-55-00--|
--------------------------------------------------|
--------------------------------------------------|
--------------------------------------------------|

R
--------------------------------------------------|
--------------------------------------------------|
-------------------------------------7------------|
-------------------------------------X------------|
-3-----------------------------------5------------|
-3------------------------------------------------|


L
---------------------------------------------------------------|
---------------------------------------------------------------|
-77-00-44-55-77-55-44-00-77-00-44-55-77-55-44-00---------------|
---------------------------------------------------------------|
---------------------------------------------------------------|
---------------------------------------------------------------|

R
---------------------------------------------------------------|
---------------------------------------------------------------|
------------------------------------10-------------------------|
-------------------------------------X-------------------------|
-0-----------------------------------8-------------------------|
-0-------------------------------------------------------------|


L
--------------------------------------------------|
--------------------------------------------------|
-99-00-55-77-99-77-55-00-99-00-55-77-99-77-55-00--|
--------------------------------------------------|
--------------------------------------------------|
--------------------------------------------------|

R
--------------------------------------------------|
--------------------------------------------------|
-------------------------------------7------------|
-------------------------------------X------------|
-3-----------------------------------5------------|
-3------------------------------------------------|


L
---------------------------------------------------------------|
---------------------------------------------------------------|
-77-00-44-55-77-55-44-00-77-00-44-55-77-55-44-00---------------|
---------------------------------------------------------------|
---------------------------------------------------------------|
---------------------------------------------------------------|

R
---------------------------------------------------------------|
---------------------------------------------------------------|
------------------------------------12-------------------------|
-------------------------------------X-------------------------|
-0----------------------------------10-------------------------|
-0-------------------------------------------------------------|

---------------------------------------------------------------|
---------------------------------------------------------------|
---------------------------------------------------------------|
---------------------------------------------------------------|
---------------------------------------------------------------|
---------------------------------------------------------------|


L
--------------------------------------------------|
--------------------------------------------------|
-99-00-55-77-99-77-55-00-99-00-55-77-99-77-55-00--|
--------------------------------------------------|
--------------------------------------------------|
--------------------------------------------------|

R
--------------------------------------------------|
--------------------------------------------------|
-------------------------------------7------------|
-------------------------------------X------------|
-3-----------------------------------5------------|
-3------------------------------------------------|


L
---------------------------------------------------------------|
---------------------------------------------------------------|
-77-00-44-55-77-55-44-00-77-00-44-55-77-55-44-00---------------|
---------------------------------------------------------------|
---------------------------------------------------------------|
---------------------------------------------------------------|

R
---------------------------------------------------------------|
---------------------------------------------------------------|
------------------------------------10-------------------------|
-------------------------------------X-------------------------|
-0-----------------------------------8-------------------------|
-0-------------------------------------------------------------|


L
--------------------------------------------------|
--------------------------------------------------|
-99-00-55-77-99-77-55-00-99-00-55-77-99-77-55-00--|
--------------------------------------------------|
--------------------------------------------------|
--------------------------------------------------|

R
--------------------------------------------------|
--------------------------------------------------|
-------------------------------------7------------|
-------------------------------------X------------|
-3-----------------------------------5------------|
-3------------------------------------------------|


L
---------------------------------------------------------------|
---------------------------------------------------------------|
-77-00-44-55-77-55-44-00-77-00-44-55-77-55-44-00---------------|
---------------------------------------------------------------|
---------------------------------------------------------------|
---------------------------------------------------------------|

R
---------------------------------------------------------------|
---------------------------------------------------------------|
------------------------------------12-12-12-------------------|
-------------------------------------X--X--X-------------------|
-0----------------------------------10-10-10-------------------|
-0-------------------------------------------------------------|


L
--------------------------------------------------|
--------------------------------------------------|
-99-00-55-77-99-77-55-00-99-00-55-77-99-77-55-00--|
--------------------------------------------------|
--------------------------------------------------|
--------------------------------------------------|
 ************************************************

---------------------------------------------------|
---------------------------------------------------|
------------------------------------7-7-7----------|
------------------------------------X-X-X----------|
-3-------3--------3-------3---------5-5-5----------|
-3---3-3-3--3-3-3-3---3-3-3---3-3------------------|
     * *    * * *     * *     * *

L
---------------------------------------------------------------|
---------------------------------------------------------------|
-77-00-44-55-77-55-44-00-77-00-44-55-77-55-44-00---------------|
---------------------------------------------------------------|
---------------------------------------------------------------|
---------------------------------------------------------------|
*************************************************

R
---------------------------------------------------------------|
---------------------------------------------------------------|
-----------------------------------10-10-10--------------------|
------------------------------------X--X--X--------------------|
-0-------0--------0-------0---------8--8--8--------------------|
-0---0-0-0--0-0-0-0---0-0-0---0-0------------------------------|
     * *    * * *     * *     * *
L
--------------------------------------------------|
--------------------------------------------------|
-99-00-55-77-99-77-55-00-99-00-55-77-99-77-55-00--|
--------------------------------------------------|
--------------------------------------------------|
--------------------------------------------------|
 ************************************************

---------------------------------------------------|
---------------------------------------------------|
------------------------------------7-7-7----------|
------------------------------------X-X-X----------|
-3-------3--------3-------3---------5-5-5----------|
-3---3-3-3--3-3-3-3---3-3-3---3-3------------------|
     * *    * * *     * *     * *

L
---------------------------------------------------------------|
---------------------------------------------------------------|
-77-00-44-55-77-55-44-00-77-00-44-55-77-55-44-00---------------|
---------------------------------------------------------------|
---------------------------------------------------------------|
---------------------------------------------------------------|
****************

R
---------------------------------------------------------------|
---------------------------------------------------------------|
-----------------------------------12-12-12--------------------|
------------------------------------X--X--X--------------------|
-0-------0--------0-------0--------10-10-10--------------------|
-0---0-0-0--0-0-0-0---0-0-0---0-0------------------------------|
     * *    * * *     * *     * *



3:32


  ^    ^    ^    ^    ^    ^    ^    ^
13-5-12-5-15-5-13-5-12-5-10-5-13-5-12-5---|
------------------------------------------|
-T----T----T----T----T----T----T----T-----|
------------------------------------------|
------------------------------------------|
------------------------------------------|

---^----^----^----^----^----^----^----^---|
-13-8-12-8-15-8-13-8-12-8-10-8-13-8-12-8--|
------------------------------------------|
--T----T----T----T----T----T----T----T----|
------------------------------------------|
------------------------------------------|


  ^    ^    ^    ^    ^    ^    ^    ^
13-5-12-5-15-5-13-5-12-5-10-5-13-5-12-5---|
------------------------------------------|
-T----T----T----T----T----T----T----T-----|
------------------------------------------|
------------------------------------------|
------------------------------------------|

---^----^----^----^----^----^----^----^---|
-13-8-12-8-15-8-13-8-12-8-10-8-13-8-12-8--|
------------------------------------------|
--T----T----T----T----T----T----T----T----|
------------------------------------------|
------------------------------------------|


3:38

L
  ^    ^    ^    ^    ^    ^    ^    ^
13-5-12-5-15-5-13-5-12-5-10-5-13-5-12-5---|
------------------------------------------|
-T----T----T----T----T----T----T----T-----|
------------------------------------------|
------------------------------------------|
------------------------------------------|

   _      _      _      _      _      _      _      _
R / \    / \    / \    / \    / \    / \    / \    / \
171012-171012-171012-171012-171012-171012-171012-171012-|
--------------------------------------------------------|
-T-----T------T------T------T------T------T------T------|
--------------------------------------------------------|
--------------------------------------------------------|
--------------------------------------------------------|

L
---^----^----^----^----^----^----^----^---|
-13-8-12-8-15-8-13-8-12-8-10-8-13-8-12-8--|
------------------------------------------|
--T----T----T----T----T----T----T----T----|
------------------------------------------|
------------------------------------------|
R   _      _      _      _      _      _      _      _
   / \    / \    / \    / \    / \    / \    / \    / \
-15-810-15-810-15-810-15-810-15-810-15-810-15-810-15-810-|
--T-----T------T------T------T------T------T-----T-------|
---------------------------------------------------------|
---------------------------------------------------------|
---------------------------------------------------------|
---------------------------------------------------------|


L
  ^    ^    ^    ^    ^    ^    ^    ^
13-5-12-5-15-5-13-5-12-5-10-5-13-5-12-5---|
------------------------------------------|
-T----T----T----T----T----T----T----T-----|
------------------------------------------|
------------------------------------------|
------------------------------------------|

   _      _      _      _      _      _      _      _
R / \    / \    / \    / \    / \    / \    / \    / \
171012-171012-171012-171012-171012-171012-171012-171012-|
--------------------------------------------------------|
-T-----T------T------T------T------T------T------T------|
--------------------------------------------------------|
--------------------------------------------------------|
--------------------------------------------------------|

L
---^----^----^----^----^----^----^----^---|
-13-8-12-8-15-8-13-8-12-8-10-8-13-8-12-8--|
------------------------------------------|
--T----T----T----T----T----T----T----T----|
------------------------------------------|
------------------------------------------|
R   _      _      _      _      _      _      _      _
   / \    / \    / \    / \    / \    / \    / \    / \
-15-810-15-810-15-810-15-810-15-810-15-810-15-810-15-810-|
--T-----T------T------T------T------T------T-----T-------|
---------------------------------------------------------|
---------------------------------------------------------|
---------------------------------------------------------|
---------------------------------------------------------|


3:45
-----------------------------------------------------------|
-----------------------------------------------------------|
------/12--------------------------------------------------|
-7--------10-9----5----/9-5-7----3----5-7-9---5----/9-5-7--|
-7----------------5--------------3------------5------------|
-7----------------5--------------3------------5------------|

-----------------------------------------------------------|
-----------------------------------------------------------|
------/12--------------------------------------------------|
-7--------10-9----5----/9-5-7----3----5-7-9---5----/9-5-7--|
-7----------------5--------------3------------5------------|
-7----------------5--------------3------------5------------|


3:58
+ BOTH TAPPING RIFFS
-----------------------------------------------------------|
-----------------------------------------------------------|
------/12--------------------------------------------------|
-7--------10-9----5----/9-5-7----3----5-7-9---5----/9-5-7--|
-7----------------5--------------3------------5------------|
-7----------------5--------------3------------5------------|

-----------------------------------------------------------|
-----------------------------------------------------------|
------/12--------------------------------------------------|
-7--------10-9----5----/9-5-7----3----5-7-9---5----/9-5-7--|
-7----------------5--------------3------------5------------|
-7----------------5--------------3------------5------------|



4:12
-------------------------------------------------------------|
-------------------------------------------------------------|
------/12----------------------------/12---------------------|
-7--------10-9----5----/9-5-7---7--------10-9----5----/9-5-7-|
-7----------------5-------------7----------------5-----------|
-7----------------5-------------7----------------5-----------|

-------------------------------------------------------------|
-------------------------------------------------------------|
------/12----------------------------/12---------------------|
-7--------10-9----5----/9-5-7---7--------10-9----5----/9-5-7-|
-7----------------5-------------7----------------5-----------|
-7----------------5-------------7----------------5-----------|





\\\\\\\\\\\\\\\\\\\\\\\\\\\\\\\\\\\\\\\\\\\\\\\\\\\\\\\\\
\\\\\\\\\\\\\\\\\\\\\\\\\\\\\\\\\\\\\\\\\\\\\\\\\\\\\\\\\\
\\\\\\\\\\\\\\\\\\\\\\\\\\\\\\\\\\\\\\\\\\\\\\\\\\\\\\\\\\
\\\\\\\\\\\\\\\\\\\\\\\\\\\\\\\\\\\\\\\\\\\\\\\\\\\\\\\\\\




05 GUNS ARE FOR SHOW,KNIVES FOR A PRO




B
------------------------------------------------------------------|
------------------------------------------------------------------|
------------------------------------------------------------------|
-5555----6666----5555----3333-----5555----6666----5555----3333----|
-----3333----3333----3333----1111-----3333----3333----3333----1111|
------------------------------------------------------------------|

------------------------------------------------------------------|
------------------------------------------------------------------|
------------------------------------------------------------------|
-5555----6666----5555----3333-----5555----6666----5555----3333----|
-----3333----3333----3333----1111-----3333----3333----3333----1111|
------------------------------------------------------------------|




0:12

------------------------------------------------------------------------|
------------------------------------------------------------------------|
--------__------------------------__-----------___-----____------___----|
-------/  \----------------------/  \---------/   \---/    \----/   \---|
-0--0-585858-0--0--0-------0--0-585858-0--0--5-8-5-8-7-10-7-10-3-7-3-7--|
-0--0--------0--0--0-------0--0--------0--0-----------------------------|
 *  *        *  *  *       *  *        *  *
------------------------------------------------------------------------|
------------------------------------------------------------------------|
--------__------------------------__-----------___-----____------___----|
-------/  \----------------------/  \---------/   \---/    \----/   \---|
-0--0-585858-0--0--0-------0--0-585858-0--0--5-8-5-8-7-10-7-10-3-7-3-7--|
-0--0--------0--0--0-------0--0--------0--0-----------------------------|
 *  *        *  *  *       *  *        *  *


0:24

L
------------------------------------------------------------------------|
------------------------------------------------------------------------|
--------__------------------------__-----------___-----____------___----|
-------/  \----------------------/  \---------/   \---/    \----/   \---|
-0--0-585858-0--0--0-------0--0-585858-0--0--5-8-5-8-7-10-7-10-3-7-3-7--|
-0--0--------0--0--0-------0--0--------0--0-----------------------------|
 *  *        *  *  *       *  *        *  *
R
-------------------------------------------------------------------------|
-------------------------------------------------------------------------|
-------__----------------------____----------____------------------------|
------/  \--------------------/    \--------/    \-----_____------____---|
0--0-585858-0--0--0----0--0-812812812-0--0-8-12-8-12--/     \----/    \--|
0--0--------0--0--0----0--0-----------0--0----------10-14-10-14-7-10-7-10|
*  *        *  *  *    *  *           *  *


0:37


L
----------------------------------------------------------------|
----------------------------------------------------------------|
----------------------------------------------------------------|
-5555----6666----5555----3333-----5555----6666----5555-----P----|
-----3333----3333----3333----1111-----3333----3333----3333--S---|
-------------------------------------------------------------\--|
R
----------------------------------------------------------------|
----------------------------------------------------------------|
----------------------------------------------------------------|
-5555----6666----5555----3333-----5555----6666----8888-----P----|
-----3333----3333----3333----1111-----3333----6666----8888--S---|
-------------------------------------------------------------\--|




                                R
--------------------------------------|
--------------------------------------|
--------------------------------------|
-0------------------------------2222--|
-0-------------------12---------------|
-0-------------------12\--------------|



0:46

---------------------------------------------------------------|
---------------------------------------------------------------|
---------------------------------------------------------------|
-----------------5---7-----------------------33332222----2222--|
---0--0-0---------------8---5---0--0-0---3333--------3333------|
-0-0--0-0-0-0-0----0--0---0---0-0--0-0-0-----------------------|
 *        * * *    *  *   *   *        *

---------------------------------------------------------------|
---------------------------------------------------------------|
---------------------------------------------------------------|
-----------------5---7-----------------------33332222-----PH---|
---0--0-0---------------8---5---0--0-0---3333--------3333-3~~--|
-0-0--0-0-0-0-0----0--0---0---0-0--0-0-0-----------------------|
 *        * * *    *  *   *   *        *

---------------------------------------------------------------|
---------------------------------------------------------------|
---------------------------------------------------------------|
-----------------5---7-----------------------33332222----2222--|
---0--0-0---------------8---5---0--0-0---3333--------3333------|
-0-0--0-0-0-0-0----0--0---0---0-0--0-0-0-----------------------|
 *        * * *    *  *   *   *        *

-----------------------------------------------------------------|
-----------------------------------------------------------------|
-----------------------------------------------------------------|
-----------------5---7-----------------------33332222-----2----0-|
---0--0-0---------------8---5---0--0-0---3333--------3333------0-|
-0-0--0-0-0-0-0----0--0---0---0-0--0-0-0-----------------------0||
 *        * * *    *  *   *   *        *


1:12

-----------------------------------------------------------------------|
-----------------------------------------------------------------------|
-----------------------------------------------------___--------___----|
--------0----------------0----------------0---------/   \------/   \---|
0-1-0---0---0000-0-1-0---0---0000-0-1-0---0---0000-0-1-3-0----0-3-4-0--|
0-1-0-0-0-0-0000-0-1-0-0-0-0-0000-0-1-0-0-0-0-0000---------1----------3|
      *   * ****       *   * ****       *   * ****

-----------------------------------------------------------------------|
-----------------------------------------------------------------------|
-----------------------------------------------------___--------___----|
--------0----------------0----------------0---------/   \------/   \---|
0-1-0---0---0000-0-1-0---0---0000-0-1-0---0---0000-0-1-3-0----0-3-4-0--|
0-1-0-0-0-0-0000-0-1-0-0-0-0-0000-0-1-0-0-0-0-0000---------1----------3|
      *   * ****       *   * ****       *   * ****                     V

1;31

-----------------------------------------------------------------|
-----------------------------------------------------------------|
-----------------------------------------------------------------|
-----------------------------------------------------------------|
0--1--0---0--0-0-0-0--0--1--0---0--0-0-0-0--0--1--0---0--0-0-0-0-|
0--1--0---0--0-0-0-0--0--1--0---0--0-0-0-0--0--1--0---0--0-0-0-0-|
*  *  *   *  * * * *  *  *  *   *  * * * *  *  *  *   *  * * * *

------------------------|
------------------------|
---___---------___------|
--/   \-------/   \-----|
-0-1-3-0-1---0-3-4-0-3--|
---------1-----------3--|

-----------------------------------------------------------------|
-----------------------------------------------------------------|
-----------------------------------------------------------------|
-----------------------------------------------------------------|
0--1--0---0--0-0-0-0--0--1--0---0--0-0-0-0--0--1--0---0--0-0-0-0-|
0--1--0---0--0-0-0-0--0--1--0---0--0-0-0-0--0--1--0---0--0-0-0-0-|
*  *  *   *  * * * *  *  *  *   *  * * * *  *  *  *   *  * * * *

1:47

------------------------------------------|
------------------------------------------|
---___---------___---------___------------|
--/   \-------/   \-------/   \-----------|
-0-1-3-0-1---0-3-4-0-3---3-6-3-0-0--------|
---------1-----------3-----------0--------|

------------------------------------------|
------------------------------------------|
---___---------___---------___------------|
--/   \-------/   \-------/   \-----------|
-0-1-3-0-1---0-3-4-0-3---3-6-3-0-0--------|
---------1-----------3-----------0--------|

------------------------------------------|
------------------------------------------|
---___---------___---------___------------|
--/   \-------/   \-------/   \-----------|
-0-1-3-0-1---0-3-4-0-3---3-6-3-0-0--------|
---------1-----------3-----------0--------|

----------------------------------|
----------------------------------|
---___---------___---------___----|
--/   \-------/   \-------/   \---|
-0-1-3-0-1---0-3-4-0-3---3-6-3-0--|
---------1-----------3------------|



L
--------------------------------------------------------------|
--------------------------------------------------------------|
-------------------------------------___-----____------___----|
------------------------------------/   \---/    \----/   \---|
0--0----0--0--0----0--0--0---0--0--5-8-5-8-7-10-7-10-3-7-3-7--|
0--0----0--0--0----0--0--0---0--0-----------------------------|
*  *    *  *  *    *  *  *   *  *
R
---------------------------------------------------------------|
---------------------------------------------------------------|
---------------------------------------------------------------|
---------------------------------------------------------------|
0--0----------------------------0------------------------------|
0--0----------------------------0------------------------------|
*                               *


L
--------------------------------------------------------------|
--------------------------------------------------------------|
-------------------------------------___-----____------___----|
------------------------------------/   \---/    \----/   \---|
0--0----0--0--0----0--0--0---0--0--5-8-5-8-7-10-7-10-3-7-3-7--|
0--0----0--0--0----0--0--0---0--0-----------------------------|
*  *    *  *  *    *  *  *   *  *
R
--------------------------------------------------------------|
--------------------------------------------------------------|
-------------------------------------___-----____------___----|
------------------------------------/   \---/    \----/   \---|
0--0-------0--0-------0--0------0--5-8-5-8-7-10-7-10-3-7-3-7--|
0--0-------0--0-------0--0------0-----------------------------|
*  *       *  *       *  *      *

B
--------------------------------------------------------------|
--------------------------------------------------------------|
-------------------------------------___-----____------___----|
------------------------------------/   \---/    \----/   \---|
0--0----0--0--0----0--0--0---0--0--5-8-5-8-7-10-7-10-3-7-3-7--|
0--0----0--0--0----0--0--0---0--0-----------------------------|
*  *    *  *  *    *  *  *   *  *

-----------------------------------|
-----------------------------------|
-----------------------------------|
-----------------------------------|
0--0----0--0--0----0--0--0---0--0--|
0--0----0--0--0----0--0--0---0--0--|
*  *    *  *  *    *  *  *   *  *



L
------------------------------------------------------------|
------------------------------------------------------------|
------------------------------------------------------------|
-------------------------------------------------------PH---|
0--0----0--0--0----0--0--0---0--0-0-888888101010101010-10~~~|
0--0----0--0--0----0--0--0---0--0-0-------------------------|
*  *    *  *  *    *  *  *   *  * *

R
-----------------------------------------------------|
-----------------------------------------------------|
-------------------------------------------------PH--|
------------------------------------777777-------7~~~|
0--0----0--0--0----0--0--0---0--0-0-------777777-----|
0--0----0--0--0----0--0--0---0--0-0------------------|
*  *    *  *  *    *  *  *   *  * *

B
-----------|
-----------|
-----------|
-----------|
-0--0------|
-0--0------|
 *  *




\\\\\\\\\\\\\\\\\\\\\\\\\\\\\\\\\\\\\\\\\\\\\\\\\\\\\\\\\
\\\\\\\\\\\\\\\\\\\\\\\\\\\\\\\\\\\\\\\\\\\\\\\\\\\\\\\\\\
\\\\\\\\\\\\\\\\\\\\\\\\\\\\\\\\\\\\\\\\\\\\\\\\\\\\\\\\\\
\\\\\\\\\\\\\\\\\\\\\\\\\\\\\\\\\\\\\\\\\\\\\\\\\\\\\\\\\\


06 BLACKOUT



1
---------------------------------------------------------------------|
---------------------------------------------------------------------|
------------_----------------_----------------_----------------_-----|
-----0-----/ \--5----^------/ \--5----^------/ \--5----^------/ \----|
-0-0-0----0-5-8---7-057-3--0-5-8---7-5-7-1--0-5-8---7-5-7-3--0-7-8-5-|
-0-0-0-|-------------------------------------------------------------|
 * *
2
----------------------------------------------------------------------|
----------------------------------------------------------------------|
----------------------------------------------------------------_-----|
-----0---------------------------------------------------------/ \----|
-0-0-0--------------------------------------------------------0-7-8-5-|
-0-0-0-|--------------------------------------------------------------|
 * *


B
---------------------------------------------------------------------|
---------------------------------------------------------------------|
------------_----------------_----------------_----------------_-----|
-----0-----/ \--5----^------/ \--5----^------/ \--5----^------/ \----|
-0-0-0----0-5-8---7-057-3--0-5-8---7-5-7-1--0-5-8---7-5-7-3--0-7-8-5-|
-0-0-0-|-------------------------------------------------------------|
 * *
---------------------------------------------------------------------|
---------------------------------------------------------------------|
------------_----------------_----------------_----------------_-----|
-----0-----/ \--5----^------/ \--5----^------/ \--5----^------/ \----|
-0-0-0----0-5-8---7-057-3--0-5-8---7-5-7-1--0-5-8---7-5-7-3--0-7-8-5-|
-0-0-0-|-------------------------------------------------------------|
 * *



0:14

-------------------------------------------------------|
-------------------------------------------------------|
-------------------------------------------------------|
-00-00--------5------00-00----00-00--------5-----00-00-|
-00-00--0-5-8---7-5--00-00----00-00--0-5-8---7-5-00-00-|
-00-00---------------00-00----00-00--------------00-00-|
 ** **               ** **    ** **              ** **
-------------------------------------------------------|
-------------------------------------------------------|
-------------------------------------------------------|
-00-00--------5------00-00----00-00--------5-----00-00-|
-00-00--0-5-8---7-5--00-00----00-00--0-5-8---7-5-00-00-|
-00-00---------------00-00----00-00--------------00-00-|
 ** **               ** **    ** **              ** **


0:25
                          L  L  L                          R  R  R
--------------------------------------------------------------------|
--------------------------------------------------------------------|
--------------------------------------------------------------------|
-00-00--------5------00-0----------00-00--------5-----00-0----------|
-00-00--0-5-8---7-5--00-0----------00-00--0-5-8---7-5-00-0----------|
-00-00---------------00-0-0|-0|-0|-00-00--------------00-0-0|-0|-0|-|
 ** **               ** *          ** **              ** *

                          L  L  L
--------------------------------------------------------------|
--------------------------------------------------------------|
--------------------------------------------------------------|
-00-00--------5------00-0----------00-00--------5-----00-00---|
-00-00--0-5-8---7-5--00-0----------00-00--0-5-8---7-5-00-00---|
-00-00---------------00-0-0|-0|-0|-00-00--------------00-00---|
 ** **               ** *          ** **              ** **



0:35


------------------------------------------------------------------|
------------------------------------------------------------------|
--------------------------------------------------101010--121212--|
-7-------------------7-------5---7----------------101010--121212--|
-------8---10---5--8---8-7-8---7-------8---10---5--8-8-8--101010--|
---0-0---0----0--------------------0-0---0----0-------------------|
   * *   *    *                    * *   *    *

------------------------------------------------------------------|
------------------------------------------------------------------|
------------------------------------------------------------------|
-7-------------------7-------5---7--------------------------------|
-------8---10---5--8---8-7-8---7-------8---10---3---7-8-10-8-7-5--|
---0-0---0----0--------------------0-0---0----0-------------------|
   * *   *    *                    * *   *    *


0:45

L
---------------------------------------------------------------------|
-----------------------------------------------------------_---------|
----------------------------------------------------------/ \--------|
-7-------------------7-------5---7-----------------8-7-5-5-7-5-------|
-------8---10---5--8---8-7-8---7-------8---10---5--------------7-8---|
---0-0---0----0--------------------0-0---0----0----------------------|
   * *   *    *                    * *   *    *
R
-------------------------------------------------------------------|
-------------------------------------------------------------------|
-----------------------------------------------------------_-------|
----------------7-7-10-7-5-7-8-5----------------7---------/ \------|
-8-----5----7--------------------8-----5----7-----10-8-7-7-8-7-3-5-|
---0-0---0----0--------------------0-0---0----0--------------------|
   * *   *    *                    * *   *    *

L
---------------------------------------------------------------------|
-----------------------------------------------------------_---------|
----------------------------------------------------------/ \--------|
-7-------------------7-------5---7-----------------8-7-5-5-7-5-------|
-------8---10---5--8---8-7-8---7-------8---10---5--------------7-8---|
---0-0---0----0--------------------0-0---0----0----------------------|
   * *   *    *                    * *   *    *
R
-------------------------------------------------------------------|
-------------------------------------------------------------------|
-----------------------------------------------------------_-------|
----------------7-7-10-7-5-7-8-5----------------7---------/ \------|
-8-----5----7--------------------8-----5----7-----10-8-7-7-8-7-3-5-|
---0-0---0----0--------------------0-0---0----0--------------------|
   * *   *    *                    * *   *    *

----------------|
----------------|
----------------|
-0-0-0--0-0-0---|
-0-0-0--0-0-0---|
-0-0-0--0-0-0---|
 * * *  * * *



0:59

-------------------------------------------------------------------|
-------------------------------------------------------------------|
------------------------------^---------------------------------^--|
-0-0-0---0-0-0---00000---0-0-0-1---0-0-0---00000---0-0-0---0-0-0-1-|
-0-0-0---0-0-0---00000---0-0-0-1---0-0-0---00000---0-0-0---0-0-0-1-|
-0-0-0---0-0-0---00000---0-0-0-1---0-0-0---00000---0-0-0---0-0-0-1-|
 * * *   * * *   *****   * *       * * *   *****   * * *   * *


L
----------------------------------------------------------------------|
---------9--------9---------------------------------------------------|
--------12-------12--------------^------------------------------------|
-00000-----0-0-0----00000---0-0-0-1---00000---0-0-0-------------7-----|
-00000-----0-0-0----00000---0-0-0-1---00000---0-0-0---3--7-8-10---10-8|
-00000-----0-0-0----00000---0-0-0-1---00000---0-0-0-------------------|
 *****     * * *    * * *   * *       *****   * * *
R
----------------------------------------------------------------------|
----------------------------------------------------------------------|
---------------------------------^------------------------------------|
-00000-----0-0-0----00000---0-0-0-1---00000---0-0-0-------------------|
-00000-----0-0-0----00000---0-0-0-1---00000---0-0-0---3--7-8-10-8-7-5-|
-00000-----0-0-0----00000---0-0-0-1---00000---0-0-0-------------------|
 *****     * * *    * * *   * *       *****   * * *


1:12

--------------------------------------------------------------------|
--------------------------------------------------------------------|
--------------------------------------------------------------------|
-----0-------0-------0---1-3-3-4-------0-------0-------0---1-3-3-4--|
-0-0-0---0-0-0---0-0-0---1-1-3-4---0-0-0---0-0-0---0-0-0---1-1-3/4--|
-0-0-0---0-0-0---0-0-0---1---3/4---0-0-0---0-0-0---0-0-0---1---3/4--|
 * *     * *     * *               * *     * *     * *


L
----------------------------------------------------------------------|
----------------------------------------------------------------------|
----------------------------------------------------------------------|
------0-------0--------0---1-3-3-4-----------------------------7------|
-0000-0---0-0-0---0000-0---1-1-3/4---0-0-0---0-0-0---3--7-8-10---10-8-|
-0000-0---0-0-0---0000-0---1---3/4---0-0-0---0-0-0--------------------|
 ****     * *     ****               * * *   * * *
R
----------------------------------------------------------------------|
----------------------------------------------------------------------|
----------------------------------------------------------------------|
------0-------0--------0---1-3-3-4------------------------------------|
-0000-0---0-0-0---0000-0---1-1-3/4---0-0-0---0-0-0---3--7-8-10-8-7-5--|
-0000-0---0-0-0---0000-0---1---3/4---0-0-0---0-0-0--------------------|
 ****     * *     ****               * * *   * * *



1:27

------------------------------------------------------------------|
------------------------------------------------------------------|
--------------------------------------------------101010--121212--|
-7-------------------7-------5---7----------------101010--121212--|
-------8---10---5--8---8-7-8---7-------8---10---5--8-8-8--101010--|
---0-0---0----0--------------------0-0---0----0-------------------|
   * *   *    *                    * *   *    *

------------------------------------------------------------------|
------------------------------------------------------------------|
------------------------------------------------------------------|
-7-------------------7-------5---7--------------------------------|
-------8---10---5--8---8-7-8---7-------8---10---3---7-8-10-8-7-5--|
---0-0---0----0--------------------0-0---0----0-------------------|
   * *   *    *                    * *   *    *


L
---------------------------------------------------------------------|
-----------------------------------------------------------_---------|
----------------------------------------------------------/ \--------|
-7-------------------7-------5---7-----------------8-7-5-5-7-5-------|
-------8---10---5--8---8-7-8---7-------8---10---5--------------7-8---|
---0-0---0----0--------------------0-0---0----0----------------------|
   * *   *    *                    * *   *    *
R
-------------------------------------------------------------------|
-------------------------------------------------------------------|
-----------------------------------------------------------_-------|
----------------7-7-10-7-5-7-8-5----------------7---------/ \------|
-8-----5----7--------------------8-----5----7-----10-8-7-7-8-7-3-5-|
---0-0---0----0--------------------0-0---0----0--------------------|
   * *   *    *                    * *   *    *

L
---------------------------------------------------------------------|
-----------------------------------------------------------_---------|
----------------------------------------------------------/ \--------|
-7-------------------7-------5---7-----------------8-7-5-5-7-5-------|
-------8---10---5--8---8-7-8---7-------8---10---5--------------7-8---|
---0-0---0----0--------------------0-0---0----0----------------------|
   * *   *    *                    * *   *    *
R
-------------------------------------------------------------------|
-------------------------------------------------------------------|
-----------------------------------------------------------_-------|
----------------7-7-10-7-5-7-8-5----------------7---------/ \------|
-8-----5----7--------------------8-----5----7-----10-8-7-7-8-7-3-5-|
---0-0---0----0--------------------0-0---0----0--------------------|
   * *   *    *                    * *   *    *


1:47

---------------------------------------------------------------|
---------------------------------------------------------------|
----------------------------------------------L------R---------|
----------------------------------------------P------P---------|
-0---------------------------0-----------------S------S--------|
-0---------------------------0------------------\------\-------|




1:58

1
----------------------------------------------------|
----------------------------------------------------|
---___________________________________________------|
--/                                           \-----|
-0-3-5-7-5-3-0-3-5-7-5-3-0-3-5-7-5-3-0-3-5-7-5-3----|
----------------------------------------------------|
2
-------------------------------------------------------|
-------------------------------------------------------|
-------------------------------------------------------|
-------------------------------------------------------|
-0-0-0-0-0-0-0-0-0-0----------------------0-0-0-0------|
-0-0-0-0-0-0-0-0-0-0----------------------0-0-0-0------|
 * * * * * * * * * *                      * * * *

1
----------------------------------------------------|
----------------------------------------------------|
---___________________________________________------|
--/                                           \-----|
-0-5-7-8-7-5-0-5-7-8-7-5-0-5-7-8-7-5-0-5-7-8-7-5----|
----------------------------------------------------|
2
-------------------------------------------------------|
-------------------------------------------------------|
-------------------------------------------------------|
-------------------------------------------------------|
-0-0-0-0-0-0-0-0-0-0----------------------0-0-0-0------|
-0-0-0-0-0-0-0-0-0-0----------------------0-0-0-0------|
 * * * * * * * * * *                      * * * *

1
------------------------------------------------------|
---_______________________________________________----|
--/                                               \---|
-0-7-8-10-8-7-0-7-8-10-8-7-0-7-8-10-8-7-0-7-8-10-8-7--|
------------------------------------------------------|
------------------------------------------------------|
2
-------------------------------------------------------|
-------------------------------------------------------|
-------------------------------------------------------|
-------------------------------------------------------|
-0-0-0-0-0-0-0-0-0-0----------------------0-0-0-0------|
-0-0-0-0-0-0-0-0-0-0----------------------0-0-0-0------|
 * * * * * * * * * *                      * * * *

1
--------------------------------------------------|
---___________________________________________----|
--/                                           \---|
-0-5-7-8-7-5-0-5-7-8-7-5-0-5-7-8-7-5-0-5-7-8-7-5--|
--------------------------------------------------|
--------------------------------------------------|
2
-------------------------------------------------------|
-------------------------------------------------------|
-------------------------------------------------------|
-------------------------------------------------------|
-0-0-0-0-0-0-0-0-0-0----------------------0-0-0-0------|
-0-0-0-0-0-0-0-0-0-0----------------------0-0-0-0------|
 * * * * * * * * * *                      * * * *



2:08

1
----------------------------------------------------|
----------------------------------------------------|
---___________________________________________------|
--/                                           \-----|
-0-3-5-7-5-3-0-3-5-7-5-3-0-3-5-7-5-3-0-3-5-7-5-3----|
----------------------------------------------------|
2
------------------------------------------------------|
------------------------------------------------------|
---_______________________________________________----|
--/                                               \---|
-0-7-8-10-8-7-0-7-8-10-8-7-0-7-8-10-8-7-0-7-8-10-8-7--|
------------------------------------------------------|


1
----------------------------------------------------|
----------------------------------------------------|
---___________________________________________------|
--/                                           \-----|
-0-5-7-8-7-5-0-5-7-8-7-5-0-5-7-8-7-5-0-5-7-8-7-5----|
----------------------------------------------------|
2
---------------------------------------------------------------|
---------------------------------------------------------------|
---_______________________________________________________-----|
--/                                                       \----|
-0-8-10-12-10-8-0-8-10-12-10-8-0-8-10-12-10-8-0-8-10-12-10-8---|
---------------------------------------------------------------|


1
------------------------------------------------------|
---_______________________________________________----|
--/                                               \---|
-0-7-8-10-8-7-0-7-8-10-8-7-0-7-8-10-8-7-0-7-8-10-8-7--|
------------------------------------------------------|
------------------------------------------------------|
2
------------------------------------------------------|
------------------------------------------------------|
---_______________________________________________----|
--/                                               \---|
-0-7-8-10-8-7-0-7-8-10-8-7-0-7-8-10-8-7-0-7-8-10-8-7--|
------------------------------------------------------|


1
--------------------------------------------------|
---___________________________________________----|
--/                                           \---|
-0-5-7-8-7-5-0-5-7-8-7-5-0-5-7-8-7-5-0-5-7-8-7-5--|
--------------------------------------------------|
--------------------------------------------------|
2
---------------------------------------------------------------|
---_______________________________________________________-----|
--/                                                       \----|
-0-8-10-12-10-8-0-8-10-12-10-8-0-8-10-12-10-8-0-8-10-12-10-8---|
---------------------------------------------------------------|
---------------------------------------------------------------|



2:19

------------------------------------------|
------------------------------------------|
------------------------------------------|
-0-------0-------0------------------------|
-0--0-0--0--0-0--0--0-0-----0-0--0-0------|
-0--0-0--0--0-0--0--0-0-----0-0--0-0------|
    * *     * *     * *     * *  * *

----------------------------------------------------------|
----------------------------------------------------------|
----------------------------------------------------------|
-0-------0-------0----------------------------------------|
-0--0-0--0--0-0--0--0-0-----0-0--0-0----------------------|
-0--0-0--0--0-0--0--0-0-----0-0--0-0----000-0-000-0-000---|
    * *     * *     * *     * *  * *    *** * *** * ***


2:29

1
-------------------------------------------------------------------|
-------------------------------------------------------------------|
---____________________________________________________________----|
--/                                                            \---|
-0235753202357532023575320235753203578753035787530357875303578753--|
-----T-------T-------T-------T-------T-------T-------T-------T-----|
2
--------------------------------------------|
--------------------------------------------|
--------------------------------------------|
-0-------0-------0--------------------------|
-0--0-0--0--0-0--0--0-0-------0-0--0-0------|
-0--0-0--0--0-0--0--0-0-------0-0--0-0------|
    * *     * *     * *       * *  * *


2:35

1
----------------------------------------------------------|
----------------------------------------------------------|
-T/\-------T/\-------T/\---------____________________-----|
-7532-T/\--7532-T/\--7532-T/\---/                    \----|
------7532------7532------7532-035787530235753202357532---|
----------------------------------------------------------|
2
--------------------------------------------|
--------------------------------------------|
--------------------------------------------|
-0-------0-------0--------------------------|
-0--0-0--0--0-0--0--0-0-------0-0--0-0------|
-0--0-0--0--0-0--0--0-0-------0-0--0-0------|
    * *     * *     * *       * *  * *

B
-----------------|
-----------------|
-----------------|
-----------------|
-----------------|
-000-0-000-0-000-|
 *** * *** * ***





\\\\\\\\\\\\\\\\\\\\\\\\\\\\\\\\\\\\\\\\\\\\\\\\\\\\\\\\\
\\\\\\\\\\\\\\\\\\\\\\\\\\\\\\\\\\\\\\\\\\\\\\\\\\\\\\\\\\
\\\\\\\\\\\\\\\\\\\\\\\\\\\\\\\\\\\\\\\\\\\\\\\\\\\\\\\\\\
\\\\\\\\\\\\\\\\\\\\\\\\\\\\\\\\\\\\\\\\\\\\\\\\\\\\\\\\\\




07 PICTURE PERFECT ,PATHETIC





L
--------------------------------------------------------|
--------------------------------------------------------|
--------------------------------------------------------|
--/\---/\-------------------/\---/\---------------------|
-5858-3737-0-----8---5-----5858-3737-0-----10---8-------|
-----------0-0-0---0---0-0-----------0-0-0----0---0-0---|
             * *   *   * *             * *    *   * *
R
--------------------------------------------------------|
--------------------------------------------------------|
--------------------------------------------------------|
--/\---/\-------------------/\---/\---------------------|
-5858-3737-0---------------5858-3737-0------------------|
-----------0-|-----------------------0-|----------------|


L
--------------------------------------------------------------------|
--------------------------------------------------------------------|
--------------------------------------------------------------------|
--/\---/\------------------1010101088887777777788887777-------------|
-5858-3737-0-----8---5---------------------------------101010108888-|
-----------0-0-0---0---0-0------------------------------------------|
             * *   *   * *
R
---------------------------------------------------------------------|
---------------------------------------------------------------------|
---------------------------------------------------------------------|
--/\---/\------------------1010101088887777777788887777--------------|
-5858-3737-0-------------------------------------------101010108888--|
-----------0-|-------------------------------------------------------|



0:09

B
--------------------------------------------------------|
--------------------------------------------------------|
--------------------------------------------------------|
--/\---/\-------------------/\---/\---------------------|
-5858-3737-0-----8---5-----5858-3737-0-----10---8-------|
-----------0-0-0---0---0-0-----------0-0-0----0---0-0---|
             * *   *   * *             * *    *   * *
--------------------------------------------------------------------|
--------------------------------------------------------------------|
--------------------------------------------------------------------|
--/\---/\------------------1010101088887777777788887777-------------|
-5858-3737-0-----8---5---------------------------------101010108888-|
-----------0-0-0---0---0-0------------------------------------------|
             * *   *   * *

0:17
L
--------------------------------------------------------|
--------------------------------------------------------|
--------------------------------------------------------|
--/\---/\-------------------/\---/\---------------------|
-5858-3737-0-----8---5-----5858-3737-0-----10---8-------|
-----------0-0-0---0---0-0-----------0-0-0----0---0-0---|
             * *   *   * *             * *    *   * *
R
--------------------------------------------------------|
--------------------------------------------------------|
--------------------------------------------------------|
--/\---/\--------7----------/\---/\--------8----7-------|
-5858-3737-0---------8-----5858-3737-0------------------|
-----------0-0-0---0---0-0-----------0-0-0----0---0-0---|
             * *   *   * *             * *    *   * *

L
--------------------------------------------------------------------|
--------------------------------------------------------------------|
--------------------------------------------------------------------|
--/\---/\------------------1010101088887777777788887777-------------|
-5858-3737-0-----8---5---------------------------------101010108888-|
-----------0-0-0---0---0-0------------------------------------------|
             * *   *   * *
R
-----------------------------------------------------------------------|
-----------------------------------------------------------------------|
-----------------------------_------_------____------------------------|
--/\---/\--------7----------/ \----/ \----/    \-----------------------|
-5858-3737-0---------8-----812812-810810-78787878-10101010888877775555-|
-----------0-0-0---0---0-0---------------------------------------------|
             * *   *   * *


0:26

L
--------------------------------------------------------|
--------------------------------------------------------|
--------------------------------------------------------|
--/\---/\-------------------/\---/\---------------------|
-5858-3737-0-----8---5-----5858-3737-0-----10---8-------|
-----------0-0-0---0---0-0-----------0-0-0----0---0-0---|
             * *   *   * *             * *    *   * *
R
--------------------------------------------------------|
--------------------------------------------------------|
--------------------------------------------------------|
--/\---/\--------7----------/\---/\--------8----7-------|
-5858-3737-0---------8-----5858-3737-0------------------|
-----------0-0-0---0---0-0-----------0-0-0----0---0-0---|
             * *   *   * *             * *    *   * *

L
-------------------------------------------------------------------------|
-------------------------------------------------------------------------|
--------------------------5-3-2---3-2-----7-5-----5-------7-5-----5------|
-/\---/\------------------------5----5-3------8-7---8-7-5-----8-7---8-7-5|
5858-3737-0-----8---5----------------------------------------------------|
----------0-0-0---0---0-0------------------------------------------------|
            * *   *   * *
R
-------------------------------------------------------------------------|
-------------------------------------------------------------------------|
--------------------------5-3-2---3-2-----7-5-----5-------10-9-7--9-7----|
-/\---/\--------7---------------5----5-3------8-7---8-7-5-------10---10-8|
5858-3737-0---------8----------------------------------------------------|
----------0-0-0---0---0-0------------------------------------------------|
            * *   *   * *


0:35

L
--------------------------------------------------------------------|
----------------------------------------------------------/\--------|
---------------------------------------------------------01012--/\--|
----7-----------5--------------------7-----------5-------------01012|
--------8---5-------7----5---3-5---------8---5-------7--------------|
0-0---0---0---0---0---0----0-----0-0---0---0---0---0---0------------|
* *   *   *   *   *   *    *     * *   *   *   *   *   *
R
--------------------------------------------------------------------|
----------------------------------------------------------/\--------|
---------------------------------------------------------01012--/\--|
----------------5---7----------------10--7-------5---7---------01012|
0-0---------------------8----7-8-------------8----------------------|
0-0---------------0---0----0-----0-0---0---0---0---0---0------------|
* *               *   *    *     * *   *   *   *   *   *


L
----------------------------------------------------------------------------|
----------------------------------------------------------------------------|
----------------------------------------------------------------------------|
----7-----------5--------------------7--------------------------------------|
--------8---5-------7----5---3-5---------8---5---1212-8-1212-8-1010-7-1010-7|
0-0---0---0---0---0---0----0-----0-0---0---0---0----------------------------|
* *   *   *   *   *   *    *     * *   *   *   *  * * *  * * *  * * *  * * *
R
-----------------------------------------------------------------------------|
-----------------------------------------------------------------------------|
-----------------------------------------------------------------------------|
----10---7-------5---7----------------10--7----------------------------------|
-------------8-----------8----7-8-------------8---1212-8-1212-8-1010-7-1010-7|
0-0----0---0---0---0---0----0-----0-0---0---0---0----------------------------|
* *    *   *   *   *   *    *     * *   *   *   *  * * *  * * *  * * *  * * *


0:45
L
--------------------------------------------------------------------|
----------------------------------------------------------/\--------|
---------------------------------------------------------01012--/\--|
----7-----------5--------------------7-----------5-------------01012|
--------8---5-------7----5---3-5---------8---5-------7--------------|
0-0---0---0---0---0---0----0-----0-0---0---0---0---0---0------------|
* *   *   *   *   *   *    *     * *   *   *   *   *   *
R
--------------------------------------------------------------------|
----------------------------------------------------------/\--------|
---------------------------------------------------------01012--/\--|
0---------------7----------------8-------------5---------------01012|
0---------------7----------------8-------------5--------------------|
0---------------7----------------8-------------5--------------------|

L
----------------------------------------------------------------------------|
----------------------------------------------------------------------------|
----------------------------------------------------------------------------|
----7-----------5--------------------7--------------------------------------|
--------8---5-------7----5---3-5---------8---5---1212-8-1212-8-1010-7-1010-7|
0-0---0---0---0---0---0----0-----0-0---0---0---0----------------------------|
* *   *   *   *   *   *    *     * *   *   *   *  * * *  * * *  * * *  * * *
R
----------------------------------------------------------------------------|
----------------------------------------------------------------------------|
----------------------------------------------------------------------------|
0---------------7----------------8------------------------------------------|
0---------------7----------------8---------------1212-8-1212-8-1010-7-1010-7|
0---------------7----------------8------------------------------------------|
                                                  * * *  * * *  * * *  * * *


0:55
L
--------------------------------------------------------------------|
----------------------------------------------------------/\--------|
---------------------------------------------------------01012--/\--|
----7-----------5--------------------7-----------5-------------01012|
--------8---5-------7----5---3-5---------8---5-------7--------------|
0-0---0---0---0---0---0----0-----0-0---0---0---0---0---0------------|
* *   *   *   *   *   *    *     * *   *   *   *   *   *
R
---------------------------------------------------------------------|
----------------------------------------------------------/\---------|
---------------------------------------------------------01012--/\---|
---------------------------------------------------------------01012-|
0-0--------------0-0---0-0--------0-0--------------0-0---------------|
0-0---------0000-0-0---0-0--------0-0---------0000-0-0---------------|
* *         **** * *   * *        * *         **** * *

L
----------------------------------------------------|
----------------------------------------------------|
----------------------------------------------------|
----7-----------5--------------------7--------------|
--------8---5-------7----5---3-5---------8---5------|
0-0---0---0---0---0---0----0-----0-0---0---0---0----|
* *   *   *   *   *   *    *     * *   *   *   *
R
---------------------------------------------------|
---------------------------------------------------|
---------------------------------------------------|
---------------------------------------------------|
0-0--------------0-0---0-0--------0-0---------0----|
0-0---------0000-0-0---0-0--------0-0---------0----|
* *         **** * *   * *        * *         *

L
----------_------------_------------_-----------_-----|
---_-----/ \----_-----/ \----_-----/ \----_----/ \----|
--/ \---01012--/ \---01012--/ \---01012--/ \--01012---|
-01012--------01012--------01012--------01012---------|
------------------------------------------------------|
------------------------------------------------------|
R
---_------------_------------_-----------_------------|
--/ \----_-----/ \----_-----/ \----_----/ \----_------|
-01012--/ \---01012--/ \---01012--/ \--01012--/ \-----|
-------01012--------01012--------01012-------01012----|
------------------------------------------------------|
------------------------------------------------------|



1:07

L
----------------------------------------------------------------|
----------------------------------------------------------------|
----------------------------------------------------------------|
-0--------------------------------------------0-------0-----0---|
-0--------------------------------------------0-0-0-0-0-0-0-0---|
-0-|------------------------------------------0-0-0-0-0-0-0-0-|-|

R
----------------------------------------------------------------|
----------------------------------------------------------------|
------------------^---------^----^---^---^---^------------------|
-0-------0-------870-------8-0-10-0-8-0-750-870-------0-----0---|
-0-0-0-0-0-0-0-0-----0-0-0----------------------0-0-0-0-0-0-0---|
-0-0-0-0-0-0-0-0-----0-0-0----------------------0-0-0-0-0-0-0-|-|
   * * *   * * *     * * *                      * * *   * *

1:15

B
-----------------------------------------------|
-----------------------------------------------|
--^-----------------^---------^----^---^---^---|
-870-------0-------870-------8-0-10-0-8-0-750--|
-----0-0-0-0-0-0-0-----0-0-0-------------------|
-----0-0-0-0-0-0-0-----0-0-0-------------------|
     * * *   * * *     * * *
-----------------------------------------------|
-----------------------------------------------|
--^-----------------^---------^----^---^---^---|
-870-------0-------870-------8-0-10-0-8-0-750--|
-----0-0-0-0-0-0-0-----0-0-0-------------------|
-----0-0-0-0-0-0-0-----0-0-0-------------------|
     * * *   * * *     * * *
-----------------------------------------------|
-----------------------------------------------|
--^-----------------^---------^----^---^---^---|
-870-------0-------870-------8-0-10-0-8-0-750--|
-----0-0-0-0-0-0-0-----0-0-0-------------------|
-----0-0-0-0-0-0-0-----0-0-0-------------------|
     * * *   * * *     * * *
------------------------------------------|
------------------------------------------|
--^-----------------^---------^----^---^--|
-870-------0-------870-------8-0-10-0-8-0-|
-----0-0-0-0-0-0-0-----0-0-0--------------|
-----0-0-0-0-0-0-0-----0-0-0--------------|
     * * *   * * *     * * *


1:28

L
-----------------------------------------|
-----------------------------------------|
-----------------------------------------|
--^--------0-------^--------777555777888-|
-870-0-0-0-0------870-0-0-0--------------|
-----0-0-0-0----------0-0-0--------------|
     * * *            * * *
R
--------------------------------------------|
--------------------------------------------|
--^----------------^------------------------|
-870-------0------870-------777888101010888-|
-----0-0-0-0----------0-0-0-----------------|
-----0-0-0-0----------0-0-0-----------------|
     * * *            * * *

L
-----------------------------------------|
-----------------------------------------|
-----------------------------------------|
--^--------0-------^--------777555777888-|
-870-0-0-0-0------870-0-0-0--------------|
-----0-0-0-0----------0-0-0--------------|
     * * *            * * *
R
--------------------------------------------|
--------------------------------------------|
--^----------------^------------------------|
-870-------0------870-------777888101010888-|
-----0-0-0-0----------0-0-0-----------------|
-----0-0-0-0----------0-0-0-----------------|
     * * *            * * *

L
-----------------------------------------|
-----------------------------------------|
-----------------------------------------|
--^--------0-------^--------777555777888-|
-870-0-0-0-0------870-0-0-0--------------|
-----0-0-0-0----------0-0-0--------------|
     * * *            * * *
R
--------------------------------------------|
--------------------------------------------|
--^----------------^------------------------|
-870-------0------870-------777888101010888-|
-----0-0-0-0----------0-0-0-----------------|
-----0-0-0-0----------0-0-0-----------------|
     * * *            * * *

L
-----------------------------------------|
-----------------------------------------|
-----------------------------------------|
--^--------0-------^-----------P---------|
-870-0-0-0-0------870-0-0-0-----S--------|
-----0-0-0-0----------0-0-0------\-------|
     * * *            * * *
R
----------------------------------------|
----------------------------------------|
--^----------------^--------------------|
-870-------0------870----------P--------|
-----0-0-0-0----------0-0-0-----S-------|
-----0-0-0-0----------0-0-0------\------|
     * * *            * * *


1:44

B
--------------------------------------------------------|
--------------------------------------------------------|
--------------------------------------------------------|
--/\---/\-------------------/\---/\---------------------|
-5858-3737-0-----8---5-----5858-3737-0-----10---8-------|
-----------0-0-0---0---0-0-----------0-0-0----0---0-0---|
             * *   *   * *             * *    *   * *
L
--------------------------------------------------------------------|
--------------------------------------------------------------------|
--------------------------------------------------------------------|
--/\---/\------------------1010101088887777777788887777-------------|
-5858-3737-0-----8---5---------------------------------101010108888-|
-----------0-0-0---0---0-0------------------------------------------|
             * *   *   * *
R
-----------------------------------------------------------------------|
-----------------------------------------------------------------------|
-----------------------------_------_------____------------------------|
--/\---/\-------------------/ \----/ \----/    \-----------------------|
-5858-3737-0-----8---5-----812812-810810-78787878-10101010888877775555-|
-----------0-0-0---0---0-0---------------------------------------------|
             * *   *   * *

L
--------------------------------------------------------|
--------------------------------------------------------|
--------------------------------------------------------|
--/\---/\-------------------/\---/\---------------------|
-5858-3737-0-----8---5-----5858-3737-0-----10---8-------|
-----------0-0-0---0---0-0-----------0-0-0----0---0-0---|
             * *   *   * *             * *    *   * *
R
--------------------------------------------------------|
--------------------------------------------------------|
--------------------------------------------------------|
--/\---/\--------7----------/\---/\--------8----7-------|
-5858-3737-0---------8-----5858-3737-0------------------|
-----------0-0-0---0---0-0-----------0-0-0----0---0-0---|
             * *   *   * *             * *    *   * *

L
-------------------------------------------------------------------------|
-------------------------------------------------------------------------|
--------------------------5-3-2---3-2-----7-5-----5-------7-5-----5------|
-/\---/\------------------------5----5-3------8-7---8-7-5-----8-7---8-7-5|
5858-3737-0-----8---5----------------------------------------------------|
----------0-0-0---0---0-0------------------------------------------------|
            * *   *   * *
R
-------------------------------------------------------------------------|
-------------------------------------------------------------------------|
--------------------------5-3-2---3-2-----7-5-----5-------10-9-7--9-7----|
-/\---/\--------7---------------5----5-3------8-7---8-7-5-------10---10-8|
5858-3737-0---------8----------------------------------------------------|
----------0-0-0---0---0-0------------------------------------------------|
            * *   *   * *


2:02

L
--------------------------------------------------|
--------------------------------------------------|
--------------------------------------------------|
--------------------------------------------------|
-00000---00000---0000000000000---00000---000-000--|
-00000---00000---0000000000000---00000---000-000--|
 *****   *****   *************   *****   *** ***
R
--------------------------------------------------|
--------------------------------------------------|
--------------------------------------------------|
-0------------------------------------------------|
-0---------------------------------------000-000--|
-0---------------------------------------000-000--|
                                         *** ***

L
--------------------------------------------------|
--------------------------------------------------|
--------------------------------------------------|
--------------------------------------------------|
-00000---00000---0000000000000---00000---000-000--|
-00000---00000---0000000000000---00000---000-000--|
 *****   *****   *************   *****   *** ***
R
--------------------------------------------------|
--------------------------------------------------|
--------------------------------------------------|
-0------------------------------------------------|
-0---------------------------------------000-000--|
-0---------------------------------------000-000--|
                                         *** **


B
--------------------------------------------------|
--------------------------------------------------|
--------------------------------------------------|
--------------------------------------------------|
-00000---00000---0000000000000---00000---000-000--|
-00000---00000---0000000000000---00000---000-000--|
 *****   *****   *************   *****   *** ***

L
--------------------------------------------------|
---------------------------------------H-----H----|
--------------------------------------3.1----4----|
-----------------------------------------VVV---V--|
-00000---00000---0000000000000---0000-------------|
-00000---00000---0000000000000---0000-------------|
 *****   *****   *************   ****
R
--------------------------------------------------|
--------------------------------------H-----------|
--------------------------------------5-----2.75--|
----------------------------------------VVV-----V-|
-00000---00000---0000000000000---0000-------------|
-00000---00000---0000000000000---0000-------------|
 *****   *****   *************   ****


B
-------------------------------------------------|
-------------------------------------------------|
-------------------------------------------------|
-------------------------------------------------|
-00000----00000---------00000----00000-----------|
-00000----00000---------00000----00000-----------|
 *****    *****         *****    *****

-------------------------------------------|
-------------------------------------------|
--------------------------------------10---|
--------------------------------------9----|
-00000----00000---------00000----0000-8-\--|
-00000----00000---------00000----0000------|
 *****    *****         *****    ****

-------------------------------------------|
-------------------------------------------|
-------------------------------------------|
-------------------------------------------|
-00000---00000---0000000000000---00000-----|
-00000---00000---0000000000000---00000-----|
 *****   *****   *************   *****





\\\\\\\\\\\\\\\\\\\\\\\\\\\\\\\\\\\\\\\\\\\\\\\\\\\\\\\\\
\\\\\\\\\\\\\\\\\\\\\\\\\\\\\\\\\\\\\\\\\\\\\\\\\\\\\\\\\\
\\\\\\\\\\\\\\\\\\\\\\\\\\\\\\\\\\\\\\\\\\\\\\\\\\\\\\\\\\
\\\\\\\\\\\\\\\\\\\\\\\\\\\\\\\\\\\\\\\\\\\\\\\\\\\\\\\\\\




08 IT'S HARD TO SPEAK WITHOUT A TONGUE




INTRO
------------------------------------------------------------------------|
------------------------------------------------------------------------|
------------0----------------5-----------------9-----------------5------|
-------7------7----------8-----8-7-------10------10----------5-----5-3--|
-----8---8------8------5---5-----------8----8-------8------3---3--------|
-8-----------------5---------------0-------------------3----------------|

------------------------------------------------------------------------|
------------------------------------------------------------------------|
------------0----------------5-----------------9-----------------5------|
-------7------7----------8-----8-7-------10------10----------5-----5-3--|
-----8---8------8------5---5-----------8----8-------8------3---3--------|
/8-----------------5---------------0-------------------3----------------|

------------------------------------------------------------------------|
------------------------------------------------------------------------|
------------0----------------5-----------------9-----------------5------|
-------7------7----------8-----8-7-------10------10----------5-----5-3--|
-----8---8------8------5---5-----------8----8-------8------3---3--------|
/8-----------------5---------------0-------------------3----------------|

-------------------------------------|
-------------------------------------|
------------0----------------5-------|
-------7------7----------8-----8-7---|
-----8---8------8------5---5---------|
/8-----------------5-----------------|



0:25

B
-----------------------------------------------------------------|
--------------------------------------------------------8--------|
------------------9---10---9-10-9------------------9----9---9-10-|
------------------7---7----7--7-7------------------7---10---7-7--|
-0-0-0-0-0-0-0-0----8----8---------0-0-0-0-0-0-0-0---0----0------|
-0-0-0-0-0-0-0-0-------------------0-0-0-0-0-0-0-0---------------|
   * * *   * * *    *    *           * * *   * * *   *    *
LET RING
----------------------------------|
----------------------------------|
----------0---------------5-------|
------7-----7---------8-----8-7---|
----8---8-----8-----5---5---------|
-8---------------5----------------|
    *   *           *   *



-----------------------------------------------------------------|
--------------------------------------------------------8--------|
------------------9---10---9-10-9------------------9----9--10-10-|
------------------7---7----7--7-7------------------7---10---7-7--|
-0-0-0-0-0-0-0-0----8----8---------0-0-0-0-0-0-0-0---0----0------|
-0-0-0-0-0-0-0-0-------------------0-0-0-0-0-0-0-0---------------|
   * * *   * * *    *    *           * * *   * * *   *    *
LET RING
----------------------------------|
----------------------------------|
----------0---------------5-------|
------7-----7---------8-----8-7---|
----8---8-----8-----5---5---------|
-8---------------5----------------|
    *   *           *   *



-----------------------------------------------------------------|
--------------------------------------------------------8--------|
------------------9---10---9-10-9------------------9----9--10-10-|
------------------7---7----7--7-7------------------7---10---7-7--|
-0-0-0-0-0-0-0-0----8----8---------0-0-0-0-0-0-0-0---0----0------|
-0-0-0-0-0-0-0-0-------------------0-0-0-0-0-0-0-0---------------|
   * * *   * * *    *    *           * * *   * * *   *    *
LET RING
-----------------------------------|
-----------------------------------|
----------0---------------5--------|
------7-----7---------8-----8-7----|
----8---8-----8-----5---5--------0-|
-8---------------5---------------0-|
    *   *           *   *


0:54

1
--------------------------__----------------------------------_-------|
--------------------8----/  \--------------------------------/ \------|
--10---7---9---10-------9-10-9-7------10---7---9---10---9---7-9-7-----|
7----7---7---7----7---7----------7--7----7---7---7----7---7-------10--|
---------------------------------------------------------------------8|
----------------------------------------------------------------------|
*    *   *   *    *   *             *    *   *   *    *   *
2
----------------------------------------------------------------|
----------------------------------------------------------------|
----------------------------------------------------------------|
---------------------------------p------------------------------|
0---------------------------------s-----------------------------|
0----------------------------------\----------------------------|

1
-------_-------------_-----------|
------/ \-----------/ \----------|
-----7-9-7---------7-9-7---------|
-----------10-5----------10-7----|
---------------------------------|
---------------------------------|
2
---------------------------------|
---------------------------------|
---------------------------------|
10-------------12----------14----|
-8-------------10----------12----|
-8-------------10----------12\---|



1
--------------------------__----------------------------------_-------|
--------------------8----/  \--------------------------------/ \------|
--10---7---9---10-------9-10-9-7------10---7---9---10---9---7-9-7-----|
7----7---7---7----7---7----------7--7----7---7---7----7---7-------10--|
---------------------------------------------------------------------8|
----------------------------------------------------------------------|
*    *   *   *    *   *             *    *   *   *    *   *
2
--------------------------------------------------------------|
--------------------------------------------------------------|
--------------------------------------------------------------|
--00--00--00--00--00101010-12-14----00--00--00--00--00--00-0--|
--00--00--00--00--00-8-8-8-10-12----00--00--00--00--00--00-0--|
--00--00--00--00--00-8-8-8-10-12\---00--00--00--00--00--00-0--|
  **  **  **  **  **                **  **  **  **  **  ** *
1
-------_-------------_-----------|
------/ \-----------/ \----------|
-----7-9-7---------7-9-7---------|
-----------10-5----------10-7----|
---------------------------------|
---------------------------------|
2
---------------------------------|
---------------------------------|
---------------------------------|
10-------------12----------14----|
-8-------------10----------12----|
-8-------------10----------12\---|


1
--------------------------__----------------------------------_-------|
--------------------8----/  \--------------------------------/ \------|
--10---7---9---10-------9-10-9-7------10---7---9---10---9---7-9-7-----|
7----7---7---7----7---7----------7--7----7---7---7----7---7-------10--|
---------------------------------------------------------------------8|
----------------------------------------------------------------------|
*    *   *   *    *   *             *    *   *   *    *   *
2
--------------------------------------------------------------|
--------------------------------------------------------------|
--------------------------------------------------------------|
--00--00--00--00--00101010-12-14----00--00--00--00--00--00-0--|
--00--00--00--00--00-8-8-8-10-12----00--00--00--00--00--00-0--|
--00--00--00--00--00-8-8-8-10-12\---00--00--00--00--00--00-0--|
  **  **  **  **  **                **  **  **  **  **  ** *
1
-------_-------------_-----------|
------/ \-----------/ \----------|
-----7-9-7---------7-9-7---------|
-----------10-5----------10-7----|
---------------------------------|
---------------------------------|
2
---------------------------------|
---------------------------------|
---------------------------------|
10-------------12----------14----|
-8-------------10----------12----|
-8-------------10----------12\---|


1
--------------------------__----------------------------------_-------|
--------------------8----/  \--------------------------------/ \------|
--10---7---9---10-------9-10-9-7------10---7---9---10---9---7-9-7-----|
7----7---7---7----7---7----------7--7----7---7---7----7---7-------10--|
---------------------------------------------------------------------8|
----------------------------------------------------------------------|
*    *   *   *    *   *             *    *   *   *    *   *
2
--------------------------------------------------------------|
--------------------------------------------------------------|
--------------------------------------------------------------|
--------------------------------------------------------------|
--0-0-0-0----00000---0-0-0-0--------0-0-0-0----00000---0-0-0--|
--0-0-0-0----00000---0-0-0-0--------0-0-0-0----00000---0-0-0--|
  * * * *    *****   * * * *        * * * *    *****   * * *
1
-------_-------------_-----------|
------/ \-----------/ \----------|
-----7-9-7---------7-9-7---------|
-----------10-5----------10-7----|
---------------------------------|
---------------------------------|
2
---------------------------------|
---------------------------------|
---------------------------------|
10-------------12----------14----|
-8-------------10----------12----|
-8-------------10----------12\---|


1
--------------------------__----------------------------------_-------|
--------------------8----/  \--------------------------------/ \------|
--10---7---9---10-------9-10-9-7------10---7---9---10---9---7-9-7-----|
7----7---7---7----7---7----------7--7----7---7---7----7---7-------10--|
---------------------------------------------------------------------8|
----------------------------------------------------------------------|
*    *   *   *    *   *             *    *   *   *    *   *
2
--------------------------------------------------------------|
--------------------------------------------------------------|
--------------------------------------------------------------|
--------------------------------------------------------------|
--0-0-0-0----00000---0-0-0-0--------0-0-0-0----00000---0-0-0--|
--0-0-0-0----00000---0-0-0-0--------0-0-0-0----00000---0-0-0--|
  * * * *    *****   * * * *        * * * *    *****   * * *
1
-------_-------------_-----------|
------/ \-----------/ \----------|
-----7-9-7---------7-9-7---------|
-----------10-5----------10-7----|
---------------------------------|
---------------------------------|
2
---------------------------------|
---------------------------------|
---------------------------------|
10-------------12----------14----|
-8-------------10----------12----|
-8-------------10----------12\---|




1;30

-----------------------------------------------------------------|
-----------------------------------------------------------------|
-----------------------------------------------------------------|
----------------------------------------7------------------------|
-0-----5---7-8-5-0-----5---10-8---0---------8-10-7-0-----3---7-5-|
-0-0-0---0-------0-0-0---0------0-0-0-0---0--------0-0-0---0-----|
   * *   *         * *   *      *   * *   *          * *   *

--------------------------------------------------------------------|
--------------------------------------------------------------------|
--------------------------------------------------------------------|
-------------------5---------------7-----------------------5-----7--|
---0-----5---7-8-7-------8---7-8-5-------10---8-10-7-3-5---3-----5--|
-0-0-0-0---0---------0-0---0---------0-0----0--------3/5-0---0-0----|
 *   * *   *         * *   *         * *    *            *   * *


-----------------------------------------------------------------|
-----------------------------------------------------------------|
-----------------------------------------------------------------|
----------------------------------------7------------------------|
-0-----5---7-8-5-0-----5---10-8---0---------8-10-7-0-----3---7-5-|
-0-0-0---0-------0-0-0---0------0-0-0-0---0--------0-0-0---0-----|
   * *   *         * *   *      *   * *   *          * *   *

--------------------------------------------------------------------|
--------------------------------------------------------------------|
--------------------------------------------------------------------|
-------------------5---------------7-----------------------5-----7--|
---0-----5---7-8-7-------8---7-8-5-------10---8-10-7-3-5---3-----5--|
-0-0-0-0---0---------0-0---0---------0-0----0--------3/5-0---0-0----|
 *   * *   *         * *   *         * *    *            *   * *


1;50

L
--------------------------__----------------------------------_-------|
--------------------8----/  \--------------------------------/ \------|
--10---7---9---10-------9-10-9-7------10---7---9---10---9---7-9-7-----|
7----7---7---7----7---7----------7--7----7---7---7----7---7-------10--|
---------------------------------------------------------------------8|
----------------------------------------------------------------------|
*    *   *   *    *   *             *    *   *   *    *   *
R
-----------------------------------------------------------------------|
-------------------11---/\-----------------------------------/\--------|
--14---10---12--14----121412-10-------14---10---12--14-12--101210------|
0----0----0----0--0--0----------12--0----0----0----0--0--0-------14-10-|
-----------------------------------------------------------------------|
-----------------------------------------------------------------------|
*    *    *    *  *  *              *    *    *    *  *  *
L
-------_-------------_-----------|
------/ \-----------/ \----------|
-----7-9-7---------7-9-7---------|
-----------10-5----------10-7----|
---------------------------------|
---------------------------------|
R
---------------------------------|
------/\------------/\-----------|
----101210--------101210----10---|
-----------14-12---------14------|
---------------------------------|
---------------------------------|


L
--------------------------__----------------------------------_-------|
--------------------8----/  \--------------------------------/ \------|
--10---7---9---10-------9-10-9-7------10---7---9---10---9---7-9-7-----|
7----7---7---7----7---7----------7--7----7---7---7----7---7-------10--|
---------------------------------------------------------------------8|
----------------------------------------------------------------------|
*    *   *   *    *   *             *    *   *   *    *   *
R
-----------------------------------------------------------------------|
-------------------11---/\-----------------------------------/\--------|
--14---10---12--14----121412-10-------14---10---12--14-12--101210------|
0----0----0----0--0--0----------12--0----0----0----0--0--0-------14-10-|
-----------------------------------------------------------------------|
-----------------------------------------------------------------------|
*    *    *    *  *  *              *    *    *    *  *  *
L
-------_-------------_-----------|
------/ \-----------/ \----------|
-----7-9-7---------7-9-7---------|
-----------10-5----------10-7----|
---------------------------------|
---------------------------------|
R
---------------------------------|
------/\------------/\-----------|
----101210--------101210----10---|
-----------14-12---------14------|
---------------------------------|
---------------------------------|


L
---_------------_------------_------------_------------_------------_-----|
--/ \----------/ \----------/ \----------/ \----------/ \----------/ \----|
-7-9-7--------7-9-7--------7-9-7--------7-9-7--------7-9-7--------7-9-7---|
-------10-----------10-5---------10-7---------10-----------10-5---------10|
----------8--------------------------------------8------------------------|
--------------------------------------------------------------------------|
R
--------------------------------------------------------------------------|
--/\-----------/\------------/\----------/\-----------/\------------/\----|
101210-------101210--------101210--10--101210-------101210--------101210--|
------14-10---------14-12--------14----------14-10---------14-12--------14|
--------------------------------------------------------------------------|
--------------------------------------------------------------------------|



-------------------|
-------------------|
----------0--------|
------7-----7------|
----8---8-----8--0-|
-8---------------0-|
                 *

2:17

-----------------------------------------------------------------|
--------------------------------------------------------8--------|
------------------9---10---9-10-9------------------9----9--10-10-|
------------------7---7----7--7-7------------------7---10---7-7--|
-0-0-0-0-0-0-0-0----8----8---------0-0-0-0-0-0-0-0---0----0------|
-0-0-0-0-0-0-0-0-------------------0-0-0-0-0-0-0-0---------------|
   * * *   * * *    *    *           * * *   * * *   *    *
LET RING
----------------------------------|
----------------------------------|
----------0---------------5-------|
------7-----7---------8-----8-7---|
----8---8-----8-----5---5---------|
-8---------------5----------------|
    *   *           *   *


-----------------------------------------------------------------|
--------------------------------------------------------8--------|
------------------9---10---9-10-9------------------9----9--10-10-|
------------------7---7----7--7-7------------------7---10---7-7--|
-0-0-0-0-0-0-0-0----8----8---------0-0-0-0-0-0-0-0---0----0------|
-0-0-0-0-0-0-0-0-------------------0-0-0-0-0-0-0-0---------------|
   * * *   * * *    *    *           * * *   * * *   *    *
LET RING
------------------------------------------------|
------------------------------------------------|
----------0---------------5---------------------|
------7-----7---------8-----8-7---0--0---0-0-0--|
----8---8-----8-----5---5---------0--0---0-0-0--|
-8---------------5----------------0--0---0-0-0--|
    *   *           *   *         *  *   * * *


2:37

L
--------------------------------------------------------|
--------------------------------------------------------|
--------------------------------------------------------|
-2--22-22--------------------2222--22-------------------|
-2--22-22--------------------2222--22-------------------|
-2--22-22--------------------2222--22-------------------|
 *  ** **                    ****  **
R
-------------___-------------------------___------------|
------------/   \----___----------------/   \----___----|
-----------2-4-2-0--/   \--------------2-4-2-0--/   \---|
-2--22-22----------4-5-4-0---2222--22----------4-5-4-0--|
-2--22-22--------------------2222--22-------------------|
-2--22-22--------------------2222--22-------------------|
 *  ** **                    ****  **

L
--------------------------------------------|
--------------------------------------------|
--------------------------------------------|
-2--22-22-----------------------2------4----|
-2--22-22---------------------5------5---0--|
-2--22-22-------------------2------4-----0--|
 *  ** **
R
-------------___----------------------------|
------------/   \----___--------------------|
-----------2-4-2-0--/   \-------------------|
-2--22-22----------4-5-4-0------2------4----|
-2--22-22---------------------5------5---0--|
-2--22-22-------------------2------4-----0--|
 *  ** **

L
--------------------------------------------------------|
--------------------------------------------------------|
--------------------------------------------------------|
-2--22-22--------------------2222--22-------------------|
-2--22-22--------------------2222--22-------------------|
-2--22-22--------------------2222--22-------------------|
 *  ** **                    ****  **
R
-------------___-------------------------___------------|
------------/   \----___----------------/   \----___----|
-----------2-4-2-0--/   \--------------2-4-2-0--/   \---|
-2--22-22----------4-5-4-0---2222--22----------4-5-4-0--|
-2--22-22--------------------2222--22-------------------|
-2--22-22--------------------2222--22-------------------|
 *  ** **                    ****  **

L
--------------------------------------------|
--------------------------------------------|
--------------------------------------------|
-2--22-22-----------------------2------4----|
-2--22-22---------------------5------5---0--|
-2--22-22-------------------2------4-----0--|
 *  ** **
R
-------------___----------------------------|
------------/   \----___--------------------|
-----------2-4-2-0--/   \-------------------|
-2--22-22----------4-5-4-0------2------4----|
-2--22-22---------------------5------5---0--|
-2--22-22-------------------2------4-----0--|
 *  ** **


L
-------------___-------------------------___------------|
------------/   \----___----------------/   \----___----|
-----------2-4-2-0--/   \--------------2-4-2-0--/   \---|
-2--22-22----------4-5-4-0---2222--22----------4-5-4-0--|
-2--22-22--------------------2222--22-------------------|
-2--22-22--------------------2222--22-------------------|
 *  ** **                    ****  **
R             _                          _
-------------/ \-------_----------------/ \-------_-----|
------------5-7-5-----/ \--------------5-7-5-----/ \----|
------------------7--6-7-6-------------------7--6-7-6---|
-2--22-22------------------9-2222--22-----------------9-|
-2--22-22--------------------2222--22-------------------|
-2--22-22--------------------2222--22-------------------|
 *  ** **                    ****  **

L
-------------___----------------------------|
------------/   \----___--------------------|
-----------2-4-2-0--/   \-------------------|
-2--22-22----------4-5-4-0------2------4----|
-2--22-22---------------------5------5---0--|
-2--22-22-------------------2------4-----0--|
 *  ** **
R            _
------------/ \------_----------------------|
-----------5-7-5----/ \---------------------|
-----------------7-6-7-6--------------------|
-2--22-22----------------9----4-5-----5-4-2-|
-2--22-22-----------------------------------|
-2--22-22-------------------2------4--------|
 *  ** **

L
-------------___-------------------------___------------|
------------/   \----___----------------/   \----___----|
-----------2-4-2-0--/   \--------------2-4-2-0--/   \---|
-2--22-22----------4-5-4-0---2222--22----------4-5-4-0--|
-2--22-22--------------------2222--22-------------------|
-2--22-22--------------------2222--22-------------------|
 *  ** **                    ****  **
R             _                          _
-------------/ \-------_----------------/ \-------_-----|
------------5-7-5-----/ \--------------5-7-5-----/ \----|
------------------7--6-7-6-------------------7--6-7-6---|
-2--22-22------------------9-2222--22-----------------9-|
-2--22-22--------------------2222--22-------------------|
-2--22-22--------------------2222--22-------------------|
 *  ** **                    ****  **

L
-------------___----------------------------------------|
------------/   \----___--------------------------------|
-----------2-4-2-0--/   \-------------------------------|
-2--22-22----------4-5-4-0------2------4------2------4--|
-2--22-22---------------------5------5------5------5----|
-2--22-22-------------------2------4------2------4------|
 *  ** **
R            _
------------/ \------_-----------------------------------|
-----------5-7-5----/ \----------------------------------|
-----------------7-6-7-6----------------------2---2-4-7--|
-2--22-22----------------9----4-5-----5-4---4--------/---|
-2--22-22---------------------------------------0--------|
-2--22-22-------------------2------4------2--------------|
 *  ** **



3;05

-----------------------------------------------------------------|
--------------------------------------------------------8--------|
------------------9---10---9-10-9------------------9----9--10-10-|
------------------7---7----7--7-7------------------7---10---7-7--|
-0-0-0-0-0-0-0-0----8----8---------0-0-0-0-0-0-0-0---0----0------|
-0-0-0-0-0-0-0-0-------------------0-0-0-0-0-0-0-0---------------|
   * * *   * * *    *    *           * * *   * * *   *    *
LET RING
----------------------------------|
----------------------------------|
----------0---------------5-------|
------7-----7---------8-----8-7---|
----8---8-----8-----5---5---------|
-8---------------5----------------|
    *   *           *   *

-----------------------------------------------------------------|
--------------------------------------------------------8--------|
------------------9---10---9-10-9------------------9----9--10-10-|
------------------7---7----7--7-7------------------7---10---7-7--|
-0-0-0-0-0-0-0-0----8----8---------0-0-0-0-0-0-0-0---0----0------|
-0-0-0-0-0-0-0-0-------------------0-0-0-0-0-0-0-0---------------|
   * * *   * * *    *    *           * * *   * * *   *    *



3:20

SOLO
1
--------------------------------------------|
----10----------------------------10--------|
/10----12-10-12-10-9-10-9----9-10----12-10--|
--------------------------12----------------|
--------------------------------------------|
--------------------------------------------|
2
LET RING
----------------------------------|
----------------------------------|
----------0---------------5-------|
------7-----7---------8-----8-7---|
----8---8-----8-----5---5---------|
-8---------------5----------------|
    *   *           *   *


TO GET THE CORRECT TONE, PICK THE PH THE STRING CLOSE TO THE EDGE OF WHERE
 THE FRETBOARD STARTS
 PLAY LIKE THAT EVERY TIME THERES A '*' OVER THE NOTE

1 *                              *
-PH______________________________------------------------------|
--)----------------------------(PH-----------------------------|
-7-------------------------------7~~~~~~~~~~~~~~~~~~~~~~-------|
---------------------------------------------------------------|
---------------------------------------------------------------|
---------------------------------------------------------------|
2
-----------------------------------------------------------------|
--------------------------------------------------------8--------|
------------------9---10---9-10-9------------------9----9--10-10-|
------------------7---7----7--7-7------------------7---10---7-7--|
-0-0-0-0-0-0-0-0----8----8---------0-0-0-0-0-0-0-0---0----0------|
-0-0-0-0-0-0-0-0-------------------0-0-0-0-0-0-0-0---------------|
   * * *   * * *    *    *           * * *   * * *   *    *

1                    * * *
----------________--------)(--|
-PH)()()()--------(----5-4----|
-5-------------------4--------|
--------------------PH-PHPH---|
------------------------------|
------------------------------|
2
LET RING
----------------------------------|
----------------------------------|
----------0---------------5-------|
------7-----7---------8-----8-7---|
----8---8-----8-----5---5---------|
-8---------------5----------------|
    *   *           *   *

1* * *__________________  * ____ *
------)                 (--)    -------------------------------|
---4-3--------------------4------3~~~~~~~~~~~------------------|
-4-PH--------------------PH------PH----------------------------|
-PH------------------------------------------------------------|
---------------------------------------------------------------|
---------------------------------------------------------------|
2
-----------------------------------------------------------------|
--------------------------------------------------------8--------|
------------------9---10---9-10-9------------------9----9--10-10-|
------------------7---7----7--7-7------------------7---10---7-7--|
-0-0-0-0-0-0-0-0----8----8---------0-0-0-0-0-0-0-0---0----0------|
-0-0-0-0-0-0-0-0-------------------0-0-0-0-0-0-0-0---------------|
   * * *   * * *    *    *           * * *   * * *   *    *


---_____________________------_______-----------------------|
--/                     \----/       \----------------------|
/7107107107107107107107107/129129129129-14-12-10--12-10-----|
------------------------------------------------14-----14-12|
------------------------------------------------------------|
------------------------------------------------------------|
2
LET RING
----------------------------------|
----------------------------------|
----------0---------------5-------|
------7-----7---------8-----8-7---|
----8---8-----8-----5---5---------|
-8---------------5----------------|
    *   *           *   *


1
---------------------------------------------------------------|
---------------------------------------------------------------|
-10-9-----10---10---10-9-9-9-7---7-10-7-9--12-9-10--10-7-9-----|
------7~-----14--14-----------7--------------------------------|
---------------------------------------------------------------|
---------------------------------------------------------------|
2
-----------------------------------------------------------------|
--------------------------------------------------------8--------|
------------------9---10---9-10-9------------------9----9--10-10-|
------------------7---7----7--7-7------------------7---10---7-7--|
-0-000-000-000-00---8----8--------0-000-000-000-00---0----0------|
-0-000-000-000-00-----------------0-000-000-000-00---------------|
   *** *** *** **   *    *          *** *** *** **   *    *

1
------8-----8-------10-8-6----6-----------------|
--6-5---6-5---6-5----------10---10-8-6-10-8-6-5-|
------------------------------------------------|
------------------------------------------------|
------------------------------------------------|
------------------------------------------------|
2
LET RING
----------------------------------|
----------------------------------|
----------0---------------5-------|
------7-----7---------8-----8-7---|
----8---8-----8-----5---5---------|
-8---------------5----------------|
    *   *           *   *

1               ________                      ____
---------------/        \--------------------/    \---------|
---)(---------858585858585---)(-------------858585858/10----|
--5--~~---------------------9--~~---------------------------|
-ph---------------------------------------------------------|
------------------------------------------------------------|
------------------------------------------------------------|
2
-----------------------------------------------------------------|
--------------------------------------------------------8--------|
------------------9---10---9-10-9------------------9----9--10-10-|
------------------7---7----7--7-7------------------7---10---7-7--|
-0-0-0-0-0-0-0-0----8----8---------0-0-0-0-0-0-0-0---0----0------|
-0-0-0-0-0-0-0-0-------------------0-0-0-0-0-0-0-0---------------|
   * * *   * * *    *    *           * * *   * * *   *    *

1
--------151515171717131313151515-------------------------|
-151515-------------------------131313151515101010131313-|
---------------------------------------------------------|
---------------------------------------------------------|
---------------------------------------------------------|
---------------------------------------------------------|
CONT
---------------------------|
-888101010666888555666-----|
----------------------555--|
---------------------------|
---------------------------|
---------------------------|
2
LET RING
----------------------------------|
----------------------------------|
----------0---------------5-------|
------7-----7---------8-----8-7---|
----8---8-----8-----5---5---------|
-8---------------5----------------|
    *   *           *   *


1 *             *
--_____________------------------------------------------------|
--)------------------------------------------------------------|
-3--------------2~~~~~~~~~~~~----------------------------------|
-PH------------PH----------------------------------------------|
---------------------------------------------------------------|
---------------------------------------------------------------|
2
---------------------------------------------------------------|
---------------------------------------------------------------|
---------------------------------------------------------------|
---------------------------------------------------------------|
-0-------------------------------------------------------------|
-0-------------------------------------------------------------|






\\\\\\\\\\\\\\\\\\\\\\\\\\\\\\\\\\\\\\\\\\\\\\\\\\\\\\\\\
\\\\\\\\\\\\\\\\\\\\\\\\\\\\\\\\\\\\\\\\\\\\\\\\\\\\\\\\\\
\\\\\\\\\\\\\\\\\\\\\\\\\\\\\\\\\\\\\\\\\\\\\\\\\\\\\\\\\\
\\\\\\\\\\\\\\\\\\\\\\\\\\\\\\\\\\\\\\\\\\\\\\\\\\\\\\\\\\




09 MUTINY




L
---------------------------------------------------------------------|
---------------------------------------------------------------------|
---------------------------------------------------------------------|
---------------------------------------------------------------------|
-1-0---1-0-1-4-1-0---1-0-1-4-1-0---1-0-1-4-3-3-3-3-4-4-4-4-1-1-1-1-4~|
-1-0---1-0-1-4-1-0---1-0-1-4-1-0---1-0-1-4---------------------------|
 *       * * * *       * * * *       * * *
R
---------------------------------------------------------------------|
---------------------------------------------------------------------|
---------------------------------------------------------------------|
---------------------------------------------------------------------|
-1-0---------------------------------------3-3-3-3-4-4-4-4-1-1-1-1-4~|
-1-0-----------------------------------------------------------------|
 *

B
----------------------------------------------------------------------|
----------------------------------------------------------------------|
----------------------------------------------------------------------|
----------------------------------------------------------------------|
-1-0---1-0-1-4-1-0---1-0-1-4-1-0---1-0-1-4-3-3-3-3--------------------|
-1-0---1-0-1-4-1-0---1-0-1-4-1-0---1-0-1-4---------4-4-4-4-3-3-3-3-1~-|
 *       * * * *       * * * *       * * *

---------------------------------------------------------------------|
---------------------------------------------------------------------|
---------------------------------------------------------------------|
---------------------------------------------------------------------|
-1-0---1-0-1-4-1-0---1-0-1-4-1-0---1-0-1-4-3-3-3-3-4-4-4-4-1-1-1-1-4~|
-1-0---1-0-1-4-1-0---1-0-1-4-1-0---1-0-1-4---------------------------|
 *       * * * *       * * * *       * * *

----------------------------------------------------------------------|
----------------------------------------------------------------------|
----------------------------------------------------------------------|
----------------------------------------------------------------------|
-1-0---1-0-1-4-1-0---1-0-1-4-1-0---1-0-1-4-3-3-3-3--------------------|
-1-0---1-0-1-4-1-0---1-0-1-4-1-0---1-0-1-4---------4-4-4-4-3-3-3-3-1~-|
 *       * * * *       * * * *       * * *


0:30

L
-----------------------------------------------------------------|
-----------------------------------------------------------------|
-----------------------------------------------------------------|
-----------------------------------------------------------------|
-5-------------------------------------------------------15------|
-5-------------------------------------------------------15\-----|
  |
R
------------------------------------------------------------------|
------------------------------------------------------------------|
------------------------------------------------------------------|
------------------------------------------------------------------|
-----55556666----55556666----1111----55556666----5555666688885555-|
-5555--------6666--------1111----3333--------5555-----------------|


L
---------------------------------------------------------------|
---------------------------------------------------------------|
---------------------------------------------------------------|
--------------------------------------------------------P------|
-5-----------6-----------1------3------------5-----------S-----|
-5-----------6-----------1------3------------5------------\----|
   |           |                  |            |
R
------------------------------------------------------------------|
------------------------------------------------------------------|
------------------------------------------------------------------|
------------------------------------------------------------------|
-----55556666----55556666----1111----55556666----5555666688885555-|
-5555--------6666--------1111----3333--------5555-----------------|



0:39
B
------------------------------------------------------------------|
------------------------------------------------------------------|
------------------------------------------------------------------|
------------------------------------------------------------------|
-----55556666----55556666----1111----55556666----5555666688885555-|
-5555--------6666--------1111----3333--------5555-----------------|

------------------------------------------------------------------|
------------------------------------------------------------------|
------------------------------------------------------------------|
------------------------------------------------------------------|
-----55556666----55556666----1111----55556666----5555666688885555-|
-5555--------6666--------1111----3333--------5555-----------------|


0:48
L
-----------------------------------------------------------------|
-----------------------------------------------------------------|
-----------------------------------------------------------------|
-----------------------------------------------------------------|
-----------------------------------------------------------------|
-555-555-555-666-666-666-111-111-333-333-333-555-555-555-555-555-|
 *** *** *** *** *** *** *** *** *** *** *** *** *** *** *** ***
R
------------------------------------------------------------------|
------------------------------------------------------------------|
------------------------------------------------------------------|
------------------------------------------------------------------|
-----55556666----55556666----1111----55556666----5555666688885555-|
-5555--------6666--------1111----3333--------5555-----------------|

L
-----------------------------------------------------------------|
-----------------------------------------------------------------|
-----------------------------------------------------------------|
-----------------------------------------------------------------|
-----------------------------------------------------------------|
-555-555-555-666-666-666-111-111-333-333-333-555-555-555-555-555-|
 *** *** *** *** *** *** *** *** *** *** *** *** *** *** *** ***
R
------------------------------------------------------------------|
------------------------------------------------------------------|
------------------------------------------------------------------|
------------------------------------------------------------------|
-----55556666----55556666----1111----55556666----5555666688885555-|
-5555--------6666--------1111----3333--------5555-----------------|



0:58

L
------------------------------------------------------------------|
---------------------------------------------------------H-H------|
---------------------------------------------------------5-5-H-H--|
-------------------------------------------------------------5-5--|
-----5-5-6-6-----5-5-6-6-8-8-6-6-----5-5-6-6-----5-5-6-6----------|
-5-5---------6-6-----------------3-3---------5-5------------------|
 * *         * *                 * *         * *
R
------------------------------------------------------------------|
---------------------------------------------------------H-H------|
---------------------------------------------------------5-5-H-H--|
-------------------------6-6-5-5-----------------------------5-5--|
-----5-5-6-6-----5-5-6-6-------------5-5-6-6-----5-5-6-6----------|
-5-5---------6-6-----------------3-3---------5-5------------------|
 * *         * *                 * *         * *


L
------------------------------------------------------------------|
---------------------------------------------------------H-H------|
---------------------------------------------------------5-5-H-H--|
-------------------------------------------------------------5-5--|
-----5-5-6-6-----5-5-6-6-8-8-6-6-----5-5-6-6-----5-5-6-6----------|
-5-5---------6-6-----------------3-3---------5-5------------------|
 * *         * *                 * *         * *
R
------------------------------------------------------------------|
---------------------------------------------------------H-H------|
---------------------------------------------------------5-5-H-H--|
-------------------------6-6-5-5-----------------------------5-5--|
-----5-5-6-6-----5-5-6-6-------------5-5-6-6-----5-5-6-6----------|
-5-5---------6-6-----------------3-3---------5-5------------------|
 * *         * *                 * *         * *


L
------------------------------------------------------------------|
---------------------------------------------------------H-H------|
---------------------------------------------------------5-5-H-H--|
-------------------------------------------------------------5-5--|
-----5-5-6-6-----5-5-6-6-8-8-6-6-----5-5-6-6-----5-5-6-6----------|
-5-5---------6-6-----------------3-3---------5-5------------------|
 * *         * *                 * *         * *
R
------------------------------------------------------------------|
---------------------------------------------------------H-H------|
---------------------------------------------------------5-5-H-H--|
-----3-3-5-5-----5-5-5-5-6-6-5-5-----3-3-5-5-----5-5-5-5-----5-5--|
------------------------------------------------------------------|
-5-5---------6-6-----------------3-3---------5-5------------------|
 * *         * *                 * *         * *


L
----------------------------------------------------------------|
----------------------------------------------------------------|
----------------------------------------------------------------|
----------------------------------------------------------------|
-----5-5-6-6-----5-5-6-6-8-8-6-6-----5-5-6-6-----5-5-6-6--------|
-5-5---------6-6-----------------3-3---------5-5-----------17\--|
 * *         * *                 * *         * *
R
----------------------------------------------------------------|
----------------------------------------------------------------|
----------------------------------------------------------------|
-----3-3-5-5-----5-5-5-5-6-6-5-5-----3-3-5-5-----5-5-5-5--------|
----------------------------------------------------------------|
-5-5---------6-6-----------------3-3---------5-5------------17\-|
 * *         * *                 * *         * *



1:20
B
---------------------------------------------------------------------|
---------------------------------------------------------------------|
---------------------------------------------------------------------|
---------------------------------------------------------------------|
-1-0---1-0-1-4-1-0---1-0-1-4-1-0---1-0-1-4-3-3-3-3-4-4-4-4-1-1-1-1-4~|
-1-0---1-0-1-4-1-0---1-0-1-4-1-0---1-0-1-4---------------------------|
 *       * * * *       * * * *       * * *

-----------------------------------------------------------------------|
-----------------------------------------------------------------------|
-----------------------------------------------------------------------|
-------------------------------------------------------------------PH--|
-1-0---1-0-1-4-1-0---1-0-1-4-1-0---1-0-1-4-3-3-3-3-----------------4~~-|
-1-0---1-0-1-4-1-0---1-0-1-4-1-0---1-0-1-4---------4-4-4-4-3-3-3-3-----|
 *       * * * *       * * * *       * * *



--------------------------------------------------------------------------|
--------------------------------------------------------------------------|
--------------------------------------------------------------------------|
--------------------------------------------------------------------------|
1-0-0-0-1-0-1-4-1-0-0-0-1-0-1-4-1-0-0-0-1-0-1-4-3-3-3-3-4-4-4-4-1-1-1-1-4~|
1-0-0-0-1-0-1-4-1-0-0-0-1-0-1-4-1-0-0-0-1-0-1-4---------------------------|
* * * * * * * * * * * * * * * * * * * * * * * *

-------------------------------------------------------------------------|
-------------------------------------------------------------------------|
-------------------------------------------------------------------------|
-------------------------------------------------------------------------|
1-0-0-0-1-0-1-4-1-0-0-0-1-0-1-4-1-0-0-0-1-0-1-4-3-3-3-3------------------|
1-0-0-0-1-0-1-4-1-0-0-0-1-0-1-4-1-0-0-0-1-0-1-4---------4-4-4-4-3-3-3-3-1|
* * * * * * * * * * * * * * * * * * * * * * * *



1;46

B
------------------------------------------------------------------|
------------------------------------------------------------------|
------------------------------------------------------------------|
------------------------------------------------------------------|
-----55556666----55556666----1111----55556666----5555666688885555-|
-5555--------6666--------1111----3333--------5555-----------------|

------------------------------------------------------------------|
------------------------------------------------------------------|
------------------------------------------------------------------|
------------------------------------------------------------------|
-----55556666----55556666----1111----55556666----5555666688885555-|
-5555--------6666--------1111----3333--------5555-----------------|



L
------------------------------------------------------------------------|
------------------------------------------------------------------------|
------------------------------------------------------------------------|
------------------------------------------------------------------------|
666633338888555510101010666688885555666633338888555510101010666688885555|
------------------------------------------------------------------------|
R
---------------------------------------------------------|
---------------------------------------------------------|
---------------------------------------------------------|
---------------------------------------------------------|
10101010888812121212101010101313131310101010121212128888-|
---------------------------------------------------------|
RCONT.
---------------------------------------------------------|
---------------------------------------------------------|
---------------------------------------------------------|
---------------------------------------------------------|
10101010888812121212101010101313131310101010121212128888-|
---------------------------------------------------------|


L
------------------------------------------------------------------------|
------------------------------------------------------------------------|
------------------------------------------------------------------------|
------------------------------------------------------------------------|
66663333888855551010101066668888555566663333888855551010101066668888-3~~|
------------------------------------------------------------------------|
R
---------------------------------------------------------|
---------------------------------------------------------|
---------------------------------------------------------|
---------------------------------------------------------|
10101010888812121212101010101313131310101010121212128888-|
---------------------------------------------------------|
RCONT.
-------------------------------------------------------------|
-------------------------------------------------------------|
-------------------------------------------------------------|
-------------------------------------------------------------|
1010101088881212121210101010131313131010101012121212-8~~~----|
-------------------------------------------------------------|



2:08

B                 L    R       B                R    B
-------------------------------------------------------------|
-------------------------------------------------------------|
-------------------------------------------------------------|
-------------------------------------------------------------|
-0--0--0--0--000--000--000-----0--0--0--0--000--000--00-3-5--|
-0--0--0--0--000--000--000-----0--0--0--0--000--000--00-3-5--|
 *  *  *     ***  ***  ***     *  *  *     ***  ***  **

-------------------------------------------------------------|
-------------------------------------------------------------|
--------------------------------------------------------5-7--|
--------------------------------------------------------X-X--|
-0--0--0--0--000--000--000-----0--0--0--0--000--000--00-3-5--|
-0--0--0--0--000--000--000-----0--0--0--0--000--000--00------|
 *  *  *     ***  ***  ***     *  *  *     ***  ***  **


2:29

-------------------------------------------------------------------|
-------------------------------------------------------------------|
-------------7-10---9-5------5-9---------------7-10---9-5------9-5-|
-------------X-X----X-X------X-X---------------X-X----X-X------X-X-|
-0-000-00-0--5/8----7\3------3/7---0-000-00-0--5/8----7\3------7\3-|
-0-000-00-0------00-----0000-------0-000-00-0------00-----0000-----|
 * *** **        **     ****       * *** **        **     ****


------------------------------------------------------|
------------------------------------------------------|
-------------7-10---9-5------5-9---------------7-10---|
-------------X-X----X-X------X-X---------------X-X----|
-0-000-00-0--5/8----7\3------3/7---0-000-00-0--5/8----|
-0-000-00-0------00-----0000-------0-000-00-0------00-|
 * *** **        **     ****       * *** **        **

L
----___________________---------|
---/                   \--------|
-10-0-9-0-7-0-9-0-7-0-5-0-------|
--------------------------5~----|
--------------------------PH----|
--------------------------------|
R
----_______________________------|
---/                       \-----|
-14-0-12-0-10-0-12-0-10-0-9-0----|
------------------------------9~-|
------------------------------PH-|
---------------------------------|



2:43
L
--------------------------------------------------------------------|
--------------------------------------------------------------------|
-------------7-10---9-5------5-9---------------7-10---9-5------9-5--|
-------------X-X----X-X------X-X---------------X-X----X-X------X-X--|
-0-000-00-0--5/8----7\3------3/7---0-000-00-0--5/8----7\3------7\3--|
-0-000-00-0------00-----0000-------0-000-00-0------00-----0000------|
 * *** **        **     ****       * *** **        **     ****
R
-------------------------------------------------------------------|
-------------------------------------------------------------------|
-----------10-14---12-9------9-12--------------7-10---9-5------5-9-|
------------X-X-----X-X------X-X---------------X-X----X-X------X-X-|
-0-000-00-0-8/12---10\7------7/10--0-000-00-0--5/8----7\3------3/7-|
-0-000-00-0------00-----0000-------0-000-00-0------00-----0000-----|
 * *** **        **     ****       * *** **        **     ****

L
--------------------------------------------------------|
--------------------------------------------------------|
-------------7-10---9-5------5-9---------------7-10-----|
-------------X-X----X-X------X-X---------------X-X------|
-0-000-00-0--5/8----7\3------3/7---0-000-00-0--5/8------|
-0-000-00-0------00-----0000-------0-000-00-0------00---|
 * *** **        **     ****       * *** **        **
R
------------------------------------------------------|
------------------------------------------------------|
-----------10-14---12-9------9-12--------------7-10---|
------------X-X-----X-X------X-X---------------X-X----|
-0-000-00-0-8/12---10\7------7/10--0-000-00-0--5/8----|
-0-000-00-0------00-----0000-------0-000-00-0------00-|
 * *** **        **     ****       * *** **        **


L
----___________________---------|
---/                   \--------|
-10-0-9-0-7-0-9-0-7-0-5-0-------|
--------------------------5~----|
--------------------------PH----|
--------------------------------|
R
----_______________________------|
---/                       \-----|
-14-0-12-0-10-0-12-0-10-0-9-0----|
------------------------------9~-|
------------------------------PH-|
---------------------------------|



2:57
B
---------------------------------------------------------------------|
---------------------------------------------------------------------|
---------------------------------------------------------------------|
---------------------------------------------------------------------|
-1-0---1-0-1-4-1-0---1-0-1-4-1-0---1-0-1-4-3-3-3-3-4-4-4-4-1-1-1-1-4~|
-1-0---1-0-1-4-1-0---1-0-1-4-1-0---1-0-1-4---------------------------|
 *       * * * *       * * * *       * * *


---------------------------------------------------------------------|
---------------------------------------------------------------------|
---------------------------------------------------------------------|
---------------------------------------------------------------------|
-1-0---1-0-1-4-1-0---1-0-1-4-1-0---1-0-1-4-3-3-3-3-----------------1-|
-1-0---1-0-1-4-1-0---1-0-1-4-1-0---1-0-1-4---------4-4-4-4-3-3-3-3-1-|
 *       * * * *       * * * *       * * *


---------|
---------|
---------|
---------|
-1-0-----|
-1-0-----|
 *   |





\\\\\\\\\\\\\\\\\\\\\\\\\\\\\\\\\\\\\\\\\\\\\\\\\\\\\\\\\
\\\\\\\\\\\\\\\\\\\\\\\\\\\\\\\\\\\\\\\\\\\\\\\\\\\\\\\\\\
\\\\\\\\\\\\\\\\\\\\\\\\\\\\\\\\\\\\\\\\\\\\\\\\\\\\\\\\\\
\\\\\\\\\\\\\\\\\\\\\\\\\\\\\\\\\\\\\\\\\\\\\\\\\\\\\\\\\\




10 SMOKE 'EM IF YOU GOT 'EM




B
------------------------------------------------------------------|
------------------------------------------------------------------|
-999977775555444455554444------------------------4444-------------|
-------------------------777755554444555577775555----777755554444-|
------------------------------------------------------------------|
------------------------------------------------------------------|

----------------------------------------------------------|
----------------------------------------------------------|
-999977775555444455554444---------------------------------|
-------------------------777755554444555577775555---------|
---------------------------------------------------12-----|
---------------------------------------------------12\----|


0:10

1
------------------------------------------------------------------|
------------------------------------------------------------------|
-999977775555444455554444------------------------4444-------------|
-------------------------777755554444555577775555----777755554444-|
------------------------------------------------------------------|
------------------------------------------------------------------|
2
------------------------------------------------------------------|
------------------------------------------------------------------|
------------------------------------------------------------------|
-2---2---2---2---2---2---2---2---0---0---0---0----555-444---------|
-2---2---2---2---2---2---2---2---0---0---0---0------------555-222-|
-2---2---2---2---2---2---2---2---0---0---0---0--------------------|
 *   *   *   *   *   *   *   *   *   *   *   *    *** *** *** ***


1
------------------------------------------------------------------|
------------------------------------------------------------------|
-999977775555444455554444------------------------4444-------------|
-------------------------777755554444555577775555----777755554444-|
------------------------------------------------------------------|
------------------------------------------------------------------|
2
------------------------------------------------------------------|
------------------------------------------------------------------|
------------------------------------------------------------------|
-2---2---2---2---2---2---2---2---0---0---0---0----555-444---------|
-2---2---2---2---2---2---2---2---0---0---0---0------------555-222-|
-2---2---2---2---2---2---2---2---0---0---0---0--------------------|
 *   *   *   *   *   *   *   *   *   *   *   *    *** *** *** ***


0:20

1
------------------------------------------------------------------|
------------------------------------------------------------------|
-999977775555444455554444------------------------4444-------------|
-------------------------777755554444555577775555----777755554444-|
------------------------------------------------------------------|
------------------------------------------------------------------|
2
------------------------------------------------------------------|
------------------------------------------------------------------|
------------------------------------------------------------------|
-22--22--22--22--22--22--22--22--00--00--00--00---555-444---------|
-22--22--22--22--22--22--22--22--00--00--00--00-----------555-222-|
-22--22--22--22--22--22--22--22--00--00--00--00-------------------|
 **  **  **  **  **  **  **  **  **  **  **  **   *** *** *** ***


1
------------------------------------------------------------------|
------------------------------------------------------------------|
-999977775555444455554444------------------------4444-------------|
-------------------------777755554444555577775555----777755554444-|
------------------------------------------------------------------|
------------------------------------------------------------------|
2
------------------------------------------------------------------|
------------------------------------------------------------------|
------------------------------------------------------------------|
-22--22--22--22--22--22--22--22--00--00--00--00---555-444---------|
-22--22--22--22--22--22--22--22--00--00--00--00-----------555-222-|
-22--22--22--22--22--22--22--22--00--00--00--00-------------------|
 **  **  **  **  **  **  **  **  **  **  **  **   *** *** *** ***


B
------------------------|
------------------------|
------------------------|
-0-----------P----------|
-0------------S---------|
-0-------------\--------|



0:32

------------------------------------------------------------------|
------------------------------------------------------------------|
------------------------------------------------------------------|
---------------------5-------------------------------------^---^--|
-----8-7-5-------------7-8------------8-7-5-----3---5-----078-035-|
-0-0-------0-0-0-0-0--------0-0-0-0-0-------0-0---0---0-0---------|
 * *       * *   * *        * *   * *       * *   *   * *

------------------------------------------------------------------|
------------------------------------------------------------------|
------------------------------------------------------------------|
----------------------5------------------------------------^---^--|
-----8-7-5--------------7-8-----------8-7-5-----3---5-----078-035-|
-0-0-------0-0-0-0-0--------0-0-0-0-0-------0-0---0---0-0---------|
 * *       * *   * *        * *   * *       * *   *   * *

------------------------------------------------------------------|
------------------------------------------------------------------|
------------------------------------------------------------------|
----------------------5------------------------------------^---^--|
-----8-7-5--------------7-8-----------8-7-5-----3---5-----078-035-|
-0-0-------0-0-0-0-0--------0-0-0-0-0-------0-0---0---0-0---------|
 * *       * *   * *        * *   * *       * *   *   * *

------------------------------------------------------------------|
------------------------------------------------------------------|
------------------------------------------------------------------|
----------------------5------------------------------------^---^--|
-----8-7-5--------------7-8-----------8-7-5-----3---5-----078-035-|
-0-0-------0-0-0-0-0--------0-0-0-0-0-------0-0---0---0-0---------|
 * *       * *   * *        * *   * *       * *   *   * *


0:52

L                            R
--------------------------------------------------------|
--------------------------------------------------------|
--------------------------------------------------------|
--------------------------------------------------------|
-000-000-000-0000-0-0-0-0----000-000-000-0000-0-0-0-0---|
-000-000-000-0000-0-0-0-0----000-000-000-0000-0-0-0-0---|
 *** *** *** **** * * * *    *** *** *** **** * * * *

B
--------------------------------------------------------|
--------------------------------------------------------|
--------------------------------------------------------|
--------------------------------------------------------|
-000-000-000-0000-0-0-0-0----000-000-000-0000-0-0-0-0---|
-000-000-000-0000-0-0-0-0----000-000-000-0000-0-0-0-0---|
 *** *** *** **** * * * *    *** *** *** **** * * * *

--------------------------------------------------------|
--------------------------------------------------------|
--------------------------------------------------------|
--------------------------------------------------------|
-000-000-000-0000-0-0-0-0----000-000-000-0000-0-0-0-0---|
-000-000-000-0000-0-0-0-0----000-000-000-0000-0-0-0-0---|
 *** *** *** **** * * * *    *** *** *** **** * * * *



------------------------------------------------------------------|
------------------------------------------------------------------|
------------------------------------------------------------------|
----------------------5------------------------------------^---^--|
-----8-7-5--------------7-8-----------8-7-5-----3---5-----078-035-|
-0-0-------0-0-0-0-0--------0-0-0-0-0-------0-0---0---0-0---------|
 * *       * *   * *        * *   * *       * *   *   * *

------------------------------------------------------------------|
------------------------------------------------------------------|
------------------------------------------------------------------|
----------------------5------------------------------------^---^--|
-----8-7-5--------------7-8-----------8-7-5-----3---5-----078-035-|
-0-0-------0-0-0-0-0--------0-0-0-0-0-------0-0---0---0-0---------|
 * *       * *   * *        * *   * *       * *   *   * *


1:17

L
------------------------------------------------------------------|
------------------------------------------------------------------|
------------------------------------------------------------------|
----------------------5------------------------------------^---^--|
-----8-7-5--------------7-8-----------8-7-5-----3---5-----078-035-|
-0-0-------0-0-0-0-0--------0-0-0-0-0-------0-0---0---0-0---------|
 * *       * *   * *        * *   * *       * *   *   * *
R
----------------------------------------------------------------------|
----------------------------------------------------------------------|
---2-------------------5-----------------2--------------------^---^---|
-----5-3-----------------5-7---------------5-3-------2-3-----057-023--|
----------------------------------------------------------------------|
0-0---------0-0-0-0-0----------0-0-0-0-0---------0-0--0--0-0----------|
* *         * *   * *          * *   * *         * *  *  * *

L
------------------------------------------------------------------|
------------------------------------------------------------------|
------------------------------------------------------------------|
----------------------5------------------------------------^---^--|
-----8-7-5--------------7-8-----------8-7-5-----3---5-----078-035-|
-0-0-------0-0-0-0-0--------0-0-0-0-0-------0-0---0---0-0---------|
 * *       * *   * *        * *   * *       * *   *   * *
R
----------------------------------------------------------------------|
----------------------------------------------------------------------|
---2-------------------5-----------------2--------------------^---^---|
-----5-3-----------------5-7---------------5-3-------2-3-----057-023--|
----------------------------------------------------------------------|
0-0---------0-0-0-0-0----------0-0-0-0-0---------0-0--0--0-0----------|
* *         * *   * *          * *   * *         * *  *  * *


1:27

L
--------------------------------------------------------------------|
-----------------------------------------------------^--------------|
----------------------------------------------------057--^---^------|
----3-2-0---5-3-2-----7-5-3----2-3---------2----3-2-----057-023--^--|
---------------------------------------3-5----------------------035-|
0-0-------0--------0---------0-----0-0-------0----------------------|
* *       *        *         *     * *       *
R
--------------------------------------------------------------------|
-----------------------------------------------------^--------------|
----------------------------------------------------057--^---^------|
----0-2-3---2-3-5-----3-5-7----2-3---------2---3-2------057-023--^--|
---------------------------------------3-5----------------------035-|
0-0-------0--------0---------0-----0-0-------0----------------------|
* *       *        *         *     * *       *


L
--------------------------------------------------------------------|
-----------------------------------------------------^--------------|
----------------------------------------------------057--^---^------|
----3-2-0---5-3-2-----7-5-3----2-3---------2----3-2-----057-023--^--|
---------------------------------------3-5----------------------035-|
0-0-------0--------0---------0-----0-0-------0----------------------|
* *       *        *         *     * *       *
R
--------------------------------------------------------------------|
-----------------------------------------------------^--------------|
----------------------------------------------------057--^---^------|
----0-2-3---2-3-5-----3-5-7----2-3---------2---3-2------057-023--^--|
---------------------------------------3-5----------------------035-|
0-0-------0--------0---------0-----0-0-------0----------------------|
* *       *        *         *     * *       *

1
------------------|
--^---------------|
-057--^---^-------|
-----057-023--^---|
-------------035--|
------------------|
2
------------------|
------------------|
--^---^--------^--|
-057-023--^---023-|
---------035------|
------------------|


-----------------------------------------------|
--------------------------------------PH-------|
--------------------------------------3~~~-----|
-----------------------------------------------|
-0------0--0-0-----0------0--0-0-0-------------|
-0------0--0-0-----0------0--0-0-0-------------|
   |    *  * *     *      *  * * *


1:42

---------------------------------------------------------------------|
---------------------------------------------------------------------|
---------------------------------------------------------------------|
---------------------------------------------------------------------|
-0-----0--0-0----0-----0--0-0-0----0-----0--0-0----0-----0--0-0-0-PH~|
-0-----0--0-0----0-----0--0-0-0----0-----0--0-0----0-----0--0-0-0-3--|
 *     *  * *    *     *  * * *    *     *  * *    *     *  * * *

----------------------------------------------------------------|
----------------------------------------------------------------|
----------------------------------------------------------------|
----------------------------------------------------------------|
-0-----0--0-0----0-----0--0-0-0----0-----0--0-0----0-----0--P---|
-0-----0--0-0----0-----0--0-0-0----0-----0--0-0----0-----0---S\-|
 *     *  * *    *     *  * * *    *     *  * *    *     *


1:58

1
------------------_--------------------------------|
-----------------/ \-------------------------------|
----------------5-7-5---------------------5--------|
-8---8-7--5-7-8-------8-7--7---7-5--3-5-7---7-5-3--|
-5---5-5-------------------3---3-3-----------------|
-5---5-5-------------------3---3-3-----------------|
                                    * * *   * * *
2
---------------------------------------------------|
---------------------------------------------------|
---------------------------------------------------|
-8---8-7-------------------7---7-5-----------------|
-5---5-5-------------------3---3-3-----------------|
-5---5-5-------------------3---3-3-----------------|

1
------------------_--------------------------------|
-----------------/ \-------------------------------|
----------------5-7-5---------------------5--------|
-8---8-7--5-7-8-------8-7--7---7-5--3-5-7---7-5-3--|
-5---5-5-------------------3---3-3-----------------|
-5---5-5-------------------3---3-3-----------------|
                                    * * *   * * *
2
---------------------------------------------------|
---------------------------------------------------|
---------------------------------------------------|
-8---8-7-------------------7---7-5-----------------|
-5---5-5-------------------3---3-3-----------------|
-5---5-5-------------------3---3-3-----------------|


2:10

1
------------------------------------------------------------------------|
------------------------------------------------------------------------|
15---15--15-14--14-14--14-14-14-14---14---14--14-12--12-12--12-12-12-12-|
-X----X---X--X---X--X---X--X--X--X----X----X---X--X---X--X---X--X--X--X-|
13---13--13-12--12-12--12-12-12-12---12---12--12-10--10-10--10-10-10-10-|
------------------------------------------------------------------------|
2
------------------------------------------------------------------------|
------------------------------------------------------------------------|
------------------------------------------------------------------------|
-8----8---8--7---7--7---7--7--7--7----7----7---7--5---5--5----5--5--5--5|
-5----5---5--5---5--5---5--5--5--5----3----3---3--3---3--3----3--3--3--3|
-5----5---5--5---5--5---5--5--5--5----3----3---3--3---3--3----3--3--3--3|

1
------------------------------------------------------------------------|
------------------------------------------------------------------------|
15---15--15-14--14-14--14-14-14-14---14---14--14-12--12-12--12-12-12-12-|
-X----X---X--X---X--X---X--X--X--X----X----X---X--X---X--X---X--X--X--X-|
13---13--13-12--12-12--12-12-12-12---12---12--12-10--10-10--10-10-10-10-|
------------------------------------------------------------------------|
2
------------------------------------------------------------------------|
------------------------------------------------------------------------|
------------------------------------------------------------------------|
-8----8---8--7---7--7---7--7--7--7----7----7---7--5---5--5----5--5--5--5|
-5----5---5--5---5--5---5--5--5--5----3----3---3--3---3--3----3--3--3--3|
-5----5---5--5---5--5---5--5--5--5----3----3---3--3---3--3----3--3--3--3|



2;23


TAP 1
---___________________-------------------------------|
--/                   \-----___________________------|
127127127127127127127127---/                   \-----|
-------------------------127127127127127127127127----|
-----------------------------------------------------|
-----------------------------------------------------|
 T  T  T  T  T  T  T  T   T  T  T  T  T  T  T  T
TAP 2
---____________________--------___________________----|
--/                    \------/                   \---|
-157157157157157157157157---147147147147147147147147--|
------------------------------------------------------|
------------------------------------------------------|
------------------------------------------------------|
  T  T  T  T  T  T  T  T     T  T  T  T  T  T  T  T
RYTHM
------------------------------------------------------|
------------------------------------------------------|
------------------------------------------------------|
------------------------------------------------------|
-5----------------------------------------------------|
-5----------------------------------------------------|
   |

2:26

TAP 1
---__________________________------------------------------------|
--/                          \------__________________________---|
14101410141014101410141014101410---/                          \--|
---------------------------------14101410141014101410141014101410|
-----------------------------------------------------------------|
-----------------------------------------------------------------|
 T   T   T   T   T   T   T   T    T   T   T   T   T   T   T   T
TAP 2
----___________________----------------------------------|
---/                   \-----___________________---------|
-145145145145145145145145---/                   \--------|
--------------------------125125125125125125125125-------|
---------------------------------------------------------|
---------------------------------------------------------|
  T  T  T  T  T  T  T  T   T  T  T  T  T  T  T  T


2:29

TAP 1
---___________________-------------------------------|
--/                   \-----___________________------|
127127127127127127127127---/                   \-----|
-------------------------127127127127127127127127----|
-----------------------------------------------------|
-----------------------------------------------------|
 T  T  T  T  T  T  T  T   T  T  T  T  T  T  T  T
TAP 2
---____________________--------___________________----|
--/                    \------/                   \---|
-157157157157157157157157---147147147147147147147147--|
------------------------------------------------------|
------------------------------------------------------|
------------------------------------------------------|
  T  T  T  T  T  T  T  T     T  T  T  T  T  T  T  T
RYTHM
------------------------------------------------------|
------------------------------------------------------|
------------------------------------------------------|
-8----------------------------7-----------------------|
-5----------------------------5-----------------------|
-5----------------------------5-----------------------|


2:32
TAP 1
---__________________________------------------------------------|
--/                          \------__________________________---|
14101410141014101410141014101410---/                          \--|
---------------------------------14101410141014101410141014101410|
-----------------------------------------------------------------|
-----------------------------------------------------------------|
 T   T   T   T   T   T   T   T    T   T   T   T   T   T   T   T
TAP 2
----___________________----------------------------------|
---/                   \-----___________________---------|
-145145145145145145145145---/                   \--------|
--------------------------125125125125125125125125-------|
---------------------------------------------------------|
---------------------------------------------------------|
  T  T  T  T  T  T  T  T   T  T  T  T  T  T  T  T
RYTHM
---------------------------------------------------------|
---------------------------------------------------------|
---------------------------------------------------------|
--7------------------------5-----------------------------|
--3------------------------3-----------------------------|
--3------------------------3-----------------------------|


2:35

2 TAPPING RIFFS CONT.


---------------------------------------------------------------------|
---------------------------------------------------------------------|
---------------------------------------------------------------------|
-8------8------8----7-----7-----7----7-----7-----7---5-----5-----5---|
---------------------------------------------------------------------|
---5-5----5-5----5----5-5---5-5---5----3-3---3-3---3---3-3---3-3---3-|
   * *    * *    *    * *   * *   *    * *   * *   *   * *   * *   *

---------------------------------------------------------------|
---------------------------------------------------------------|
---------------------------------------------------------------|
-8------8------8----7-----7-----7----7-----7-----7---5-----5---|
---------------------------------------------------------------|
---5-5----5-5----5----5-5---5-5---5----3-3---3-3---3---3-3-----|
   * *    * *    *    * *   * *   *    * *   * *   *   * *


---------------------------------------------------------------------|
---------------------------------------------------------------------|
---------------------------------------------------------------------|
-8------8------8----7-----7-----7----7-----7-----7---5-----5-----5---|
---------------------------------------------------------------------|
---5-5----5-5----5----5-5---5-5---5----3-3---3-3---3---3-3---3-3---3-|
   * *    * *    *    * *   * *   *    * *   * *   *   * *   * *   *
---------------------------------------------------------------------|
---------------------------------------------------------------------|
---------------------------------------------------------------------|
-8------8------8----7-----7-----7----7-----7-----7---5-----5-----5---|
---------------------------------------------------------------------|
---5-5----5-5----5----5-5---5-5---5----3-3---3-3---3---3-3---3-3---3-|
   * *    * *    *    * *   * *   *    * *   * *   *   * *   * *   *


3:00

L
---------------------------------------|
---------------------------------------|
---------------------------------------|
---------------------------------------|
-5-5-5---5-5-5-5-5---5-5-5---5-5-5-5-5-|
-5-5-5---5-5-5-5-5---5-5-5---5-5-5-5-5-|
 * * *   * * * * *   * * *   * * * * *
R
---------------------------------------|
---------------------------------------|
-------2-3-2--------------2-3-2--------|
-5-3-5-------5-3----5-3-5-------5-3----|
---------------------------------------|
---------------------------------------|
 * * * *     * *    * * * *     * *

L
----------------------------------------|
----------------------------------------|
----------------------------------------|
----------------------------------------|
-3-3-3---3-3-3-3-3---3-3-3---3-3-3-3-3--|
-3-3-3---3-3-3-3-3---3-3-3---3-3-3-3-3--|
 * * *   * * * * *   * * *   * * * * *
R
----------------------------------------|
----------------------------------------|
----------2----------------2------------|
-3-2-3-5----5-3-2--3-2-3-5----5-3-2-----|
----------------------------------------|
----------------------------------------|
 * * *      * * *  * * *      * * *

L
---------------------------------------|
---------------------------------------|
---------------------------------------|
---------------------------------------|
-5-5-5---5-5-5-5-5---5-5-5---5-5-5-5-5-|
-5-5-5---5-5-5-5-5---5-5-5---5-5-5-5-5-|
 * * *   * * * * *   * * *   * * * * *
R
---------------------------------------|
---------------------------------------|
-------2-3-2--------------2-3-2--------|
-5-3-5-------5-3----5-3-5-------5-3----|
---------------------------------------|
---------------------------------------|
 * * * *     * *    * * * *     * *



                  PICK OVER NECK P.U.
L                    *
-------------------------|
----------------------)--|
---------------------2---|
---------------------PH--|
-3-3-3---3-3-3-3-3-------|
-3-3-3---3-3-3-3-3-------|
 * * *   * * * * *
                   PICK OVER NECK P.U.
R                    *
----------------------------|
----------------------)-----|
----------2----------3------|
-3-2-3-5----5-3-2----PH-----|
----------------------------|
----------------------------|
 * * *      * * *




---------------------------------------------------------------------------|
---------------------------------------------------------------------------|
----------8------------------8-----------------8------------------8----3-5-|
-1----0---X-----0---1----0---X----1-3-1----0---X-----0---1----0---X----X-X-|
-1-00-0---6--00-0---1-00-0---6-00-1-3-1-00-0---6--00-0---1-00-0---6-00-1-3-|
-1-00-0------00-0---1-00-0-----00-1-3-1-00-0------00-0---1-00-0-----00-----|
   **        **       **       **       **        **       **       **

---------------------------------------------------------------------------|
---------------------------------------------------------------------------|
----------8------------------8------------------8--------------------------|
-1----0---X-----0---1----0---X----3----1----0---X-----0--------------------|
-1-00-0---6--00-0---1-00-0---6-00-3-00-1-00-0---6--00-0---1111111144443333-|
-1-00-0------00-0---1-00-0-----00-3-00-1-00-0------00-0---1111111144443333-|
   **        **       **       **   **   **        **     ****************



-------------------------------------------------------------------------|
-------------------------------------------------------------------------|
-------------------------------------------------------------------------|
-------------------------------------------------------------------------|
-1-0000---1-0000---1-0000---1-0000---1-0000---1-0000---1111111144443333--|
-1-0000---1-0000---1-0000---1-0000---1-0000---1-0000---1111111144443333--|
 * ****   * ****   * ****   * ****   * ****   * ****   ****************

-------------------------------------------------------------------------|
-------------------------------------------------------------------------|
-------------------------------------------------------------------------|
-------------------------------------------------------------------------|
-1-0000---1-0000---1-0000---1-0000---1-0000---1-0000---1111111144443333--|
-1-0000---1-0000---1-0000---1-0000---1-0000---1-0000---1111111144443333--|
 * ****   * ****   * ****   * ****   * ****   * ****   ****************

------------------|
------------------|
------------------|
------------------|
-0------0---------|
-0------0---------|
   |      |






\\\\\\\\\\\\\\\\\\\\\\\\\\\\\\\\\\\\\\\\\\\\\\\\\\\\\\\\\
\\\\\\\\\\\\\\\\\\\\\\\\\\\\\\\\\\\\\\\\\\\\\\\\\\\\\\\\\\
\\\\\\\\\\\\\\\\\\\\\\\\\\\\\\\\\\\\\\\\\\\\\\\\\\\\\\\\\\
\\\\\\\\\\\\\\\\\\\\\\\\\\\\\\\\\\\\\\\\\\\\\\\\\\\\\\\\\\




11 A COLD DAY IN HELL




1
-----------------------------------------------------------------|
-----------------------------------------------------------------|
-----------------------------------------------------------------|
-4------------------------6---7----------------------------------|
-0------------------------2---4----------------------------------|
-0------------------------2---4----------------------------------|

2
---------------------------------------------------------------------|
---------------------------------------------------------------------|
--------------/\--6-^---/\--6-^--------------------/\--6-^---/\--9-7-|
--7-6-7------0679--976-0679--976-------7-6-7------0679--976-0679-----|
9-------9------------------------7---9-------9-----------------------|
---------------------------------------------------------------------|


0:06

1
---------------------------------------------------------------------|
----------------------------------------------------------------^----|
---------------------------------------------------------------4-6-4-|
11-----------------------11---6--------------------------------X-X-X-|
-7------------------------7---2--------------------------------2/4-2-|
-7------------------------7---2--------------------------------------|

2
---------------------------------------------------------------------|
---------------------------------------------------------------------|
--------------/\--6-^---/\--6-^--------------------/\--6-^---/\--9-7-|
--7-6-7------0679--976-0679--976-------7-6-7------0679--976-0679-----|
9-------9------------------------7---9-------9-----------------------|
---------------------------------------------------------------------|


1
-----------------------------------------------------------------|
-----------------------------------------------------------------|
-----------------------------------------------------------------|
-4------------------------6---7----------------------------------|
-0------------------------2---4----------------------------------|
-0------------------------2---4----------------------------------|

2
---------------------------------------------------------------------|
---------------------------------------------------------------------|
--------------/\--6-^---/\--6-^--------------------/\--6-^---/\--9-7-|
--7-6-7------0679--976-0679--976-------7-6-7------0679--976-0679-----|
9-------9------------------------7---9-------9-----------------------|
---------------------------------------------------------------------|


1
---------------------------------------------------------------------|
----------------------------------------------------------------^----|
---------------------------------------------------------------4-6-4-|
11-----------------------11---6--------------------------------X-X-X-|
-7------------------------7---2--------------------------------2/4-2-|
-7------------------------7---2--------------------------------------|

2
---------------------------------------------------------------------|
---------------------------------------------------------------------|
--------------/\--6-^---/\--6-^--------------------/\--6-^---/\--9-7-|
--7-6-7------0679--976-0679--976-------7-6-7------0679--976-0679-----|
9-------9------------------------7---9-------9-----------------------|
---------------------------------------------------------------------|



0:24

1
-----------------------------------------------------------------|
-----------------------------------------------------------------|
-----------------------------------------------------------------|
-4------------------------6---7----------------------------------|
-0------------------------2---4----------------------------------|
-0------------------------2---4----------------------------------|

2
---------------------------------------------------------------------|
---------------------------------------------------------------------|
--------------/\--6-^---/\--6-^--------------------/\--6-^---/\--9-7-|
--7-6-7------0679--976-0679--976-------7-6-7------0679--976-0679-----|
9-------9------------------------7---9-------9-----------------------|
---------------------------------------------------------------------|
HARMONY
-------------------------------------------------------------------------|
-------------_------------_------------------------_------------_--------|
------------/ \--9-------/ \--9-------------------/ \--9-------/ \--13-11|
--11-9-11--091112-12119-091112-12119----11-9-11--091112-12119-091112-----|
12-------12-------------------------1112-------12------------------------|
-------------------------------------------------------------------------|


1
---------------------------------------------------------------------|
----------------------------------------------------------------^----|
---------------------------------------------------------------4-6-4-|
11-----------------------11---6--------------------------------X-X-X-|
-7------------------------7---2--------------------------------2/4-2-|
-7------------------------7---2--------------------------------------|

2
---------------------------------------------------------------------|
---------------------------------------------------------------------|
--------------/\--6-^---/\--6-^--------------------/\--6-^---/\--9-7-|
--7-6-7------0679--976-0679--976-------7-6-7------0679--976-0679-----|
9-------9------------------------7---9-------9-----------------------|
---------------------------------------------------------------------|
HARMONY
------------------------------------------------------------------------|
-------------_------------_------------------------_------------_-------|
------------/ \--9-------/ \--9-------------------/ \--9-------/ \--1311|
--11-9-11--091112-12119-091112-12119----11-9-11--091112-12119-091112----|
12-------12-------------------------1112-------12-----------------------|
------------------------------------------------------------------------|


---------------------------------------------------------------|
---------------------------------------------------------------|
---------------------------------------------------------------|
-0------------------------------------------------P------------|
-0-------------------------------------------------S-----------|
-0--------------------------------------------------\----------|




0:40

1
----------------------------------------------------------------------|
----------------------------------------------------------------------|
----------------------------------------------------------------------|
-----------------7777----10101010-----------------------------5-7-----|
---------------------8888--------7777-----------------0-5-7-8-----8-7-|
-0-000-0-0-0-0-0----------------------0-000-0-0-0-0-0-----------------|
   ***   *   *                          ***   *   *

B
-----------------------------------------------------------------------|
-----------------------------------------------------------------------|
--------5-------2-------------------------5--------2-----------/\------|
------------3------------5-------2-------------3------------5-3737-/\--|
-----------------------------3------------------------------------3737-|
-3-333----3---3----3-333---3---3----3-333----3---3----3-333------------|
   ***    *   *      ***   *   *      ***    *   *      ***


0:50

L
-----------------------------------------------------------------------|
-----------------------------------------------------------------------|
-----------------------------------------------------------------------|
----------------7777----10101010---------------------7------7----------|
--------------------8888--------7777-------------------8-10---10-8-7-5-|
0-000-0-0-0-0-0----------------------0-000-0-0-0-0-0-------------------|
  ***   *   *                          ***   *   *
R
------------------------------------------------------------------------|
------------------------------------------------------------------------|
------------------------------------------------------------------------|
----------------7777----10101010----------------------10-7-8-10-8-7-----|
---------------------8888--------7777------------------------------10-8-|
0-000-0-0-0-0-0----------------------0-000-0-0-0-0-0--------------------|
  ***   *   *                          ***   *   *

L
----------------------------------------------------------------------|
----------------------------------------------------------------------|
----------------------------------------------------------------------|
-----------------7777----10101010-----------------------------5-7-----|
---------------------8888--------7777-----------------0-5-7-8-----8-7-|
-0-000-0-0-0-0-0----------------------0-000-0-0-0-0-0-----------------|
   ***   *   *                          ***   *   *
R
-----------------------------------------------------------------------|
-----------------------------------------------------------------------|
-----------------------------------------------------------------------|
----------------7777----10101010------------------------------8-10-----|
--------------------8888--------7777-----------------0-8-10-12----12-10|
0-000-0-0-0-0-0----------------------0-000-0-0-0-0-0-------------------|
  ***   *   *                          ***   *   *

B
-----------------------------------------------------------------------|
-----------------------------------------------------------------------|
--------5-------2-------------------------5--------2-----------/\------|
------------3------------5-------2-------------3------------5-3737-/\--|
-----------------------------3------------------------------------3737-|
-3-333----3---3----3-333---3---3----3-333----3---3----3-333------------|
   ***    *   *      ***   *   *      ***    *   *      ***



1:04

L
-------------------------------------------------------|
-------------------------------------------------------|
-------------------------------------------------------|
-------------------------------------------------------|
-------------------------------------------------------|
-8-8-8-8-8-8-8-8-8-8-8-8-8-8-8-8-8-8-10-10-10-10-10-10-|
 * * * * * * * * * * * * * * * * * *  *  *  *  *  *  *
R
------------------------------------------------------------------|
------------------------------------------------------------------|
------------------------------------------------------------------|
7-7-7-7-------------------7-7-7-7-------------------7-7-7-7-------|
-------8-8-8-8-10-10-10-10-------8-8-8-8-10-10-10-10-------8-8-8-8|
------------------------------------------------------------------|

L
--------------------------------------------------|
--------------------------------------------------|
--------------------------------------------------|
--------------------------------------------------|
--------------------------------------------------|
-2-2-2-2-2-2-2-2-2-2-2-2-3-3-3-3-3-3-0-0-0-0-0-0--|
 * * * * * * * * * * * * * * * * * * * * * * * *
R
--------------------------------------------------------------|
--------------------------------------------------------------|
--------------------------------------------------------------|
5-5-5-5---------------5-5-5-5---------------------------------|
--------7-7-7-7-8-8-8---------8-8-8-8-7-7-7-7-5-5-5-5-3-3-3-3-|
--------------------------------------------------------------|

L
-------------------------------------------------------|
-------------------------------------------------------|
-------------------------------------------------------|
-------------------------------------------------------|
-------------------------------------------------------|
-8-8-8-8-8-8-8-8-8-8-8-8-8-8-8-8-8-8-10-10-10-10-10-10-|
 * * * * * * * * * * * * * * * * * *  *  *  *  *  *  *
R
------------------------------------------------------------------|
------------------------------------------------------------------|
------------------------------------------------------------------|
7-7-7-7-------------------7-7-7-7-------------------7-7-7-7-------|
-------8-8-8-8-10-10-10-10-------8-8-8-8-10-10-10-10-------8-8-8-8|
------------------------------------------------------------------|

L
------------------------------------------------|
------------------------------------------------|
------------------------------------------------|
------------------------------------------------|
--------------------------------------PH--------|
-2-2-2-2-2-2-2-2-2-2-2-2-3-3-3-3-3-3--3-~-------|
 * * * * * * * * * * * * * * * * * *
R
----------------------------------------------------|
----------------------------------------------------|
----------------------------------------------------|
5-5-5-5---------------5-5-5-5-----------------------|
--------7-7-7-7-8-8-8---------8-8-8-8-7-7-7-7-PH----|
----------------------------------------------3-~~--|



1:14

L
-----------------------------------------------------------------------|
-----------------------------------------------------------------------|
-----------------------------------------------------------------------|
----------------7777----10101010---------------------7------7----------|
--------------------8888--------7777-------------------8-10---10-8-7-5-|
0-000-0-0-0-0-0----------------------0-000-0-0-0-0-0-------------------|
  ***   *   *                          ***   *   *
R
------------------------------------------------------------------------|
------------------------------------------------------------------------|
------------------------------------------------------------------------|
----------------7777----10101010----------------------10-7-8-10-8-7-----|
---------------------8888--------7777------------------------------10-8-|
0-000-0-0-0-0-0----------------------0-000-0-0-0-0-0--------------------|
  ***   *   *                          ***   *   *

L
----------------------------------------------------------------------|
----------------------------------------------------------------------|
----------------------------------------------------------------------|
-----------------7777----10101010-----------------------------5-7-----|
---------------------8888--------7777-----------------0-5-7-8-----8-7-|
-0-000-0-0-0-0-0----------------------0-000-0-0-0-0-0-----------------|
   ***   *   *                          ***   *   *
R
-----------------------------------------------------------------------|
-----------------------------------------------------------------------|
-----------------------------------------------------------------------|
----------------7777----10101010------------------------------8-10-----|
--------------------8888--------7777-----------------0-8-10-12----12-10|
0-000-0-0-0-0-0----------------------0-000-0-0-0-0-0-------------------|
  ***   *   *                          ***   *   *

B
-----------------------------------------------------------------------|
-----------------------------------------------------------------------|
--------5-------2-------------------------5--------2-----------/\------|
------------3------------5-------2-------------3------------5-3737-/\--|
-----------------------------3------------------------------------3737-|
-3-333----3---3----3-333---3---3----3-333----3---3----3-333------------|
   ***    *   *      ***   *   *      ***    *   *      ***



1:28

L
-------------------------------------------------------|
-------------------------------------------------------|
-------------------------------------------------------|
-------------------------------------------------------|
-------------------------------------------------------|
-8-8-8-8-8-8-8-8-8-8-8-8-8-8-8-8-8-8-10-10-10-10-10-10-|
 * * * * * * * * * * * * * * * * * *  *  *  *  *  *  *
R
------------------------------------------------------------------|
------------------------------------------------------------------|
------------------------------------------------------------------|
7-7-7-7-------------------7-7-7-7-------------------7-7-7-7-------|
-------8-8-8-8-10-10-10-10-------8-8-8-8-10-10-10-10-------8-8-8-8|
------------------------------------------------------------------|

L
--------------------------------------------------|
--------------------------------------------------|
--------------------------------------------------|
--------------------------------------------------|
--------------------------------------------------|
-2-2-2-2-2-2-2-2-2-2-2-2-3-3-3-3-3-3-0-0-0-0-0-0--|
 * * * * * * * * * * * * * * * * * * * * * * * *
R
--------------------------------------------------------------|
--------------------------------------------------------------|
--------------------------------------------------------------|
5-5-5-5---------------5-5-5-5---------------------------------|
--------7-7-7-7-8-8-8---------8-8-8-8-7-7-7-7-5-5-5-5-3-3-3-3-|
--------------------------------------------------------------|

L
-------------------------------------------------------|
-------------------------------------------------------|
-------------------------------------------------------|
-------------------------------------------------------|
-------------------------------------------------------|
-8-8-8-8-8-8-8-8-8-8-8-8-8-8-8-8-8-8-10-10-10-10-10-10-|
 * * * * * * * * * * * * * * * * * *  *  *  *  *  *  *
R
------------------------------------------------------------------|
------------------------------------------------------------------|
------------------------------------------------------------------|
7-7-7-7-------------------7-7-7-7-------------------7-7-7-7-------|
-------8-8-8-8-10-10-10-10-------8-8-8-8-10-10-10-10-------8-8-8-8|
------------------------------------------------------------------|

L
--------------------------------------------------|
--------------------------------------------------|
--------------------------------------------------|
--------------------------------------------------|
--------------------------------------------------|
-2-2-2-2-2-2-2-2-2-2-2-2-3-3-3-3-3-3-0-0-0-0-0-0--|
 * * * * * * * * * * * * * * * * * * * * * * * *
R
--------------------------------------------------------------|
--------------------------------------------------------------|
--------------------------------------------------------------|
5-5-5-5---------------5-5-5-5---------------------------------|
--------7-7-7-7-8-8-8---------8-8-8-8-7-7-7-7-5-5-5-5-3-3-3-3-|
--------------------------------------------------------------|



1:39

RYTHM
-------------------------------------------------------|
-------------------------------------------------------|
-------------------------------------------------------|
-------------------------------------------------------|
-------------------------------------------------------|
-8-8-8-8-8-8-8-8-8-8-8-8-8-8-8-8-8-8-10-10-10-10-10-10-|
 * * * * * * * * * * * * * * * * * *  *  *  *  *  *  *
L
------------------------------------------------------------------|
------------------------------------------------------------------|
------------------------------------------------------------------|
7-7-7-7-------------------7-7-7-7-------------------7-7-7-7-------|
-------8-8-8-8-10-10-10-10-------8-8-8-8-10-10-10-10-------8-8-8-8|
------------------------------------------------------------------|

R
-------------------------------------------------------------------|
-------------------------------------------------------------------|
-------------------------------------------------------------------|
10101010-----------------10101010------------------10101010--------|
---------1212121213131313---------1212121213131313---------12121212|
-------------------------------------------------------------------|



RYTHM
--------------------------------------------------|
--------------------------------------------------|
--------------------------------------------------|
--------------------------------------------------|
--------------------------------------------------|
-2-2-2-2-2-2-2-2-2-2-2-2-3-3-3-3-3-3-0-0-0-0-0-0--|
 * * * * * * * * * * * * * * * * * * * * * * * *
L
--------------------------------------------------------------|
--------------------------------------------------------------|
--------------------------------------------------------------|
5-5-5-5---------------5-5-5-5---------------------------------|
--------7-7-7-7-8-8-8---------8-8-8-8-7-7-7-7-5-5-5-5-3-3-3-3-|
--------------------------------------------------------------|
R
-----------------------------------------------------------------|
-----------------------------------------------------------------|
-----------------------------------------------------------------|
14141414--------14141414--------15151515141414141212121210101010-|
--------12121212--------12121212---------------------------------|
-----------------------------------------------------------------|

RYTHM
-------------------------------------------------------|
-------------------------------------------------------|
-------------------------------------------------------|
-------------------------------------------------------|
-------------------------------------------------------|
-8-8-8-8-8-8-8-8-8-8-8-8-8-8-8-8-8-8-10-10-10-10-10-10-|
 * * * * * * * * * * * * * * * * * *  *  *  *  *  *  *
L
------------------------------------------------------------------|
------------------------------------------------------------------|
------------------------------------------------------------------|
7-7-7-7-------------------7-7-7-7-------------------7-7-7-7-------|
-------8-8-8-8-10-10-10-10-------8-8-8-8-10-10-10-10-------8-8-8-8|
------------------------------------------------------------------|

R
-------------------------------------------------------------------|
-------------------------------------------------------------------|
-------------------------------------------------------------------|
10101010-----------------10101010------------------10101010--------|
---------1212121213131313---------1212121213131313---------12121212|
-------------------------------------------------------------------|


RYTHM
--------------------------------------------------|
--------------------------------------------------|
--------------------------------------------------|
--------------------------------------------------|
--------------------------------------------------|
-2-2-2-2-2-2-2-2-2-2-2-2-3-3-3-3-3-3-0-0-0-0-0-0--|
 * * * * * * * * * * * * * * * * * * * * * * * *
L                                                       H
--------------------------------------------------------9-----|
--------------------------------------------------------9-----|
--------------------------------------------------------H-----|
5-5-5-5---------------5-5-5-5---------------------------------|
--------7-7-7-7-8-8-8---------8-8-8-8-7-7-7-7-5-5-5-5---------|
--------------------------------------------------------------|
R                                                         H
----------------------------------------------------------9------|
----------------------------------------------------------9------|
----------------------------------------------------------H------|
14141414--------14141414--------151515151414141412121212---------|
--------12121212--------12121212---------------------------------|
-----------------------------------------------------------------|



1:49

                        R
-------------------------------------------------------------|
-------------------------------------------------------------|
---------------------------------___---------_-----_---------|
-00--00--00-00--00--00---^------/   \---7---/ \---/ \--------|
-00--00--00-00--00--00--8-7----7-8-7-10---10-8-7-7-8-7-------|
-00--00--00-00--00--00------10-------------------------10----|
 **  **  ** **  **  **
                        L
-------------------------------------------------------------|
-------------------------------------------------------------|
---------------------------------___---------_-----_---------|
-00--00--00-00--00--00---^------/   \---7---/ \---/ \--------|
-00--00--00-00--00--00--8-7----7-8-7-10---10-8-7-7-8-7-------|
-00--00--00-00--00--00------10-------------------------10----|
 **  **  ** **  **  **
                        R
-------------------------------------------------------------|
-------------------------------------------------------------|
---------------------------------___---------_-----_---------|
-00--00--00-00--00--00---^------/   \---7---/ \---/ \--------|
-00--00--00-00--00--00--8-7----7-8-7-10---10-8-7-7-8-7-------|
-00--00--00-00--00--00------10-------------------------10----|
 **  **  ** **  **  **
                        L
-------------------------------------------------------------|
-------------------------------------------------------------|
---------------------------------___---------_-----_---------|
-00--00--00-00--00--00---^------/   \---7---/ \---/ \--------|
-00--00--00-00--00--00--8-7----7-8-7-10---10-8-7-7-8-7-------|
-00--00--00-00--00--00------10-------------------------10----|
 **  **  ** **  **  **


---------------------------|
---------------------------|
---------------------------|
-00--00--00-00--00--00-----|
-00--00--00-00--00--00-----|
-00--00--00-00--00--00-----|
 **  **  ** **  **  **
                        R
-------------------------------------------------------------|
-------------------------------------------------------------|
---------------------------------___---------_-----_---------|
-00--00--00-00--00--00---^------/   \---7---/ \---/ \--------|
-00--00--00-00--00--00--8-7----7-8-7-10---10-8-7-7-8-7-------|
-00--00--00-00--00--00------10-------------------------10----|
 **  **  ** **  **  **
---------------------------|
---------------------------|
---------------------------|
-00--00--00-00--00--00-----|
-00--00--00-00--00--00-----|
-00--00--00-00--00--00-----|
 **  **  ** **  **  **
---------------------------|
---------------------------|
---------------------------|
-00--00--00-00--00--00-----|
-00--00--00-00--00--00-----|
-00--00--00-00--00--00-----|
 **  **  ** **  **  **



2:16

1
-----------------------------------------------------------------|
-----------------------------------------------------------------|
-----------------------------------------------------------------|
-4------------------------6---7----------------------------------|
-0------------------------2---4----------------------------------|
-0------------------------2---4----------------------------------|

2
---------------------------------------------------------------------|
---------------------------------------------------------------------|
--------------/\--6-^---/\--6-^--------------------/\--6-^---/\--9-7-|
--7-6-7------0679--976-0679--976-------7-6-7------0679--976-0679-----|
9-------9------------------------7---9-------9-----------------------|
---------------------------------------------------------------------|

1
---------------------------------------------------------------------|
----------------------------------------------------------------^----|
---------------------------------------------------------------4-6-4-|
11-----------------------11---6--------------------------------X-X-X-|
-7------------------------7---2--------------------------------2/4-2-|
-7------------------------7---2--------------------------------------|

2
---------------------------------------------------------------------|
---------------------------------------------------------------------|
--------------/\--6-^---/\--6-^--------------------/\--6-^---/\--9-7-|
--7-6-7------0679--976-0679--976-------7-6-7------0679--976-0679-----|
9-------9------------------------7---9-------9-----------------------|
---------------------------------------------------------------------|


2:28

1
-----------------------------------------------------------------|
-----------------------------------------------------------------|
-----------------------------------------------------------------|
-4------------------------6----7---------------------------------|
-0------------------------2----4---------------------------------|
-0------------------------2----4---------------------------------|

2
-----------------------------------------------------------------|
-----------------------------------------------------------------|
--------------^-------------------6--------------6---------------|
--7-6-7------69-7-6-7-----6-7-9-----9-7-6-7-----------7-6--------|
9-------9-------------7-----------------------------------9------|
-----------------------------------------------------------------|


2:34

1
---------------------------------------------------------------------|
----------------------------------------------------------------^----|
---------------------------------------------------------------4-6-4-|
11-----------------------11---6--------------------------------X-X-X-|
-7------------------------7---2--------------------------------2/4-2-|
-7------------------------7---2--------------------------------------|

2
--------------------------------------------------------------------|
----------------------------------------------------------_---------|
-6-----9---------6---------------6-----9---------6-------/ \--------|
---7-6---7-7-6-7---7-6-7-9-7-6-7---7-6---7-7-6-7----9-7-6-7-6-------|
--------------------------------------------------------------9-7-5-|
--------------------------------------------------------------------|



2:40

B      1                                         B
----------------------------------------------------------------|
---------------------------------------------------_------------|
-----------------------------------------_--------/ \-----------|
-------2---3---2-------0----2-----------/ \------5-7-5----------|
-0-----------------3-----------3---2---5-7-5-3-5-------8-7-3--5-|
-0-000---0---0---0---0---0---0---0---0--------------------------|
   ***   *   *   *   *   *   *   *   *

B      1                               B
-------------------------------------------------____-----____---|
-----------------------------------------____---/    \---/    \--|
----------------------------------------/    \-25252525-04040404-|
-------2---3---2-------5---7---3---2---23232323------------------|
-0-----------------3---------------------------------------------|
-0-000---0---0---0---0---0---0---0---0---------------------------|
   ***   *   *   *   *   *   *   *   *



----------------------------------------------------------------|
---------------------------------------------------_------------|
-----------------------------------------_--------/ \-----------|
-------2---3---2-------0----2-----------/ \------5-7-5----------|
-0-----------------3-----------3---2---5-7-5-3-5-------8-7-3--5-|
-0-000---0---0---0---0---0---0---0---0--------------------------|
   ***   *   *   *   *   *   *   *   *


-------------------------------------------------____-----____---|
-----------------------------------------____---/    \---/    \--|
----------------------------------------/    \-25252525-04040404-|
-------2---3---2-------5---7---3---2---23232323------------------|
-0-----------------3---------------------------------------------|
-0-000---0---0---0---0---0---0---0---0---------------------------|
   ***   *   *   *   *   *   *   *   *


2:58

L
----------------------------------------------------------------|
---------------------------------------------------_------------|
-----------------------------------------_--------/ \-----------|
-------2---3---2-------0----2-----------/ \------5-7-5----------|
-0-----------------3-----------3---2---5-7-5-3-5-------8-7-3--5-|
-0-000---0---0---0---0---0---0---0---0--------------------------|
   ***   *   *   *   *   *   *   *   *
R
----------------------------------------------------------------|
---------------------------------------------------_------------|
-----------------------------------------_--------/ \-----------|
----------------------------------------/ \------5-7-5----------|
-0-------------------------------0-----5-7-5-3-5-------8-7-3--5-|
-0-000---------------------------0-000--------------------------|
   ***                             ***

L
-------------------------------------------------____-----____---|
-----------------------------------------____---/    \---/    \--|
----------------------------------------/    \-25252525-04040404-|
-------2---3---2-------5---7---3---2---23232323------------------|
-0-----------------3---------------------------------------------|
-0-000---0---0---0---0---0---0---0---0---------------------------|
   ***   *   *   *   *   *   *   *   *

R
-------------------------------------------------____-----____---|
-----------------------------------------____---/    \---/    \--|
----------------------------------------/    \-25252525-04040404-|
---------------------------------------23232323------------------|
-0-------------------------------0-------------------------------|
-0-000---------------------------0-000---------------------------|
   ***                             ***


3:07


-------------------------------------------------------------|
-------------------------------------------------------------|
-------------------------------------------------------------|
-0--------------0--------------0--------------0--------------|
-0--------------0--------------0--------------0--------------|
-0--------------0--------------0--------------0--------------|


3:26

L
---------------|
---------------|
---------------|
-0000-00-------|
-0000-00-------|
-0000-00-------|
 **** **
R
--------------|
--------------|
--------------|
-0------------|
-0------------|
-0------------|
 *

3:29

----------------------------------------------|
----------------------------------------------|
----------------------------------------------|
-0000-00--0000-00-----00000--00--00000--00-00-|
-0000-00--0000-00-----00000--00--00000--00-00-|
-0000-00--0000-00-----00000--00--00000--00-00-|
 **** **  **** **     *****  **  *****  ** **

------------------------------------------|
------------------------------------------|
------------------------------------------|
-0000-00--0000-00-----00000--00--0000-----|
-0000-00--0000-00-----00000--00--0000-----|
-0000-00--0000-00-----00000--00--00000V---|
 **** **  **** **     *****  **  ****


----------------------------------------------|
----------------------------------------------|
----------------------------------------------|
-0000-00--0000-00-----00000--00--00000--00-00-|
-0000-00--0000-00-----00000--00--00000--00-00-|
-0000-00--0000-00-----00000--00--00000--00-00-|
 **** **  **** **     *****  **  *****  ** **

------------------------------------------------|
------------------------------------------------|
------------------------------------------------|
-0000-00--0000-00-----00000--00--00000--00-00-00|
-0000-00--0000-00-----00000--00--00000--00-00-00|
-0000-00--0000-00-----00000--00--00000--00-00-00|
 **** **  **** **     *****  **  *****  ** ** **
comments
We did not receive enough feedback on this tab! Please rate:
1 2 3 4 5
I want to post or [tab]
guest
You may want to rate the tab now too:
select rating
Please do not post tabs as comments. Select "correction" instead!