Oops, an error
Loading. Please wait.

Pandora Bass Tab

ver1
ver1

Whole song

Interactive

More versions @911Tabs.com
2,668 views 6 this week
1 commentread comment
1 2 3 4 5
worth learning
x 2
Autoscroll
+/-
esc
set tempo
stop
Contributor
Hey! There's an official Ultimate Guitar app which is ideal
for learning songs when you're away from computer. Get the app
WARNING: You are trying to view
                                    content from Ultimate-Guitar.com
                                    in an unauthorized application,
                                    which is prohibited.

                                    Please use an official Ultimate
                                    Guitar Tabs application for iPhone,
                                    iPad or Android to access legitimate
                                    chords, guitar, bass, and drum tabs
                                    from Ultimate-Guitar.com database.

                                    Type "ultimate guitar tabs" in Apple
                                    App Store's or Android Market's
                                    search to find the application.
Pandora                                     
Parkway Drive
Track 5



      W                   W                   W                 
E ||-------------------|-------------------|-------------------|
B ||-------------------|-------------------|-------------------|
F#||-------------------|-------------------|-------------------|
B ||--0----------------|--L----------------|--8----------------|


   W                   W                   W                 
--------------------|-------------------|-------------------|
--------------------|-------------------|-------------------|
--------------------|-------------------|-------------------|
--10----------------|--0----------------|--L----------------|


  W                    H         H            E  E  E  E  E  E  E  E   
-------------------|-----------------------|--------------------------|
-------------------|-----------------------|--------------------------|
-------------------|-----------------------|--------------------------|
--8----------------|--10--------10\--------|--0--0--0--0--0--0--0--0--|


  E  E  E  E  E  E  E  E     E  E  E  E  E  E  E  E   
--------------------------|--------------------------|
--------------------------|--------------------------|
--------------------------|--------------------------|
--0--0--0--0--0--0--0--0--|--8--8--8--8--8--8--8--8--|


   E   E   E   E   E   E   E   E     E  E  E  E  E  E  E  E   
----------------------------------|--------------------------|
----------------------------------|--------------------------|
----------------------------------|--------------------------|
--10--10--10--10--10--10--10--10--|--0--0--0--0--0--0--0--0--|


  E  E  E  E  E  E  E  E     E  E  E  E  E  E  E  E   
--------------------------|--------------------------|
--------------------------|--------------------------|
--------------------------|--------------------------|
--0--0--0--0--0--0--0--0--|--8--8--8--8--8--8--8--8--|


   E   E   E   E   E   E   E   E     W                   H         H         
----------------------------------|-------------------|---------------------|
----------------------------------|-------------------|---------------------|
----------------------------------|-------------------|---------------------|
--10--10--10--10--10--10--10--10--|--0----------------|--L--------10--------|


  W                   W                   W                 
-------------------|-------------------|-------------------|
-------------------|-------------------|-------------------|
-------------------|-------------------|-------------------|
--5----------------|--3----------------|--0----------------|


  H         H           W                   W                 
---------------------|-------------------|-------------------|
---------------------|-------------------|-------------------|
---------------------|-------------------|-------------------|
--L--------10--------|--5----------------|--3----------------|


  E  E  E  E  H            E  E  E  E  H            E  E  E  E  H          
------------------------|------------------------|------------------------|
------------------------|------------------------|------------------------|
--------------5\--------|--------------5\--------|--------------5\--------|
--0--0--0---------------|--0--0--0---------------|--0--0--0---------------|


  Q    Q    Q    Q       E  E  E  E  H            E  E  E  E  H          
----------------------|------------------------|------------------------|
----------------------|------------------------|------------------------|
--5----7----8----7----|--------------5\--------|--------------5\--------|
----------------------|--0--0--0---------------|--0--0--0---------------|


  E  E  E  E  H            Q    Q    Q    Q       W                 
------------------------|----------------------|-------------------|
------------------------|----------------------|-------------------|
--------------5\--------|--5----7----8----7----|-------------------|
--0--0--0---------------|----------------------|--0----------------|


  H         H           W                   W                 
---------------------|-------------------|-------------------|
---------------------|-------------------|-------------------|
---------------------|-------------------|-------------------|
--L--------10--------|--5----------------|--3----------------|


  W                   H         H           W                 
-------------------|---------------------|-------------------|
-------------------|---------------------|-------------------|
-------------------|---------------------|-------------------|
--0----------------|--L--------10--------|--5----------------|


  W                   E  E  E  E  E  E  E  E     E  E  E  E  E  E  E  E   
-------------------|--------------------------|--------------------------|
-------------------|--------------------------|--------------------------|
-------------------|--------------------------|--------------------------|
--3----------------|--0--0--0--0--0--0--0--0--|--0--0--0--0--0--0--0--0--|


  E  E  E  E  E  E  E  E      E   E   E   E   E   E   E   E   
--------------------------|----------------------------------|
--------------------------|----------------------------------|
--------------------------|----------------------------------|
--8--8--8--8--8--8--8--8--|--10--10--10--10--10--10--10--10--|


  E  E  E  E  E  E  E  E     E  E  E  E  E  E  E  E   
--------------------------|--------------------------|
--------------------------|--------------------------|
--------------------------|--------------------------|
--0--0--0--0--0--0--0--0--|--0--0--0--0--0--0--0--0--|


  E  E  E  E  E  E  E  E     E  E  H        Q       W                 
--------------------------|----------------------|-------------------|
--------------------------|----------------------|-------------------|
--------------------------|----------------------|-------------------|
--8--8--8--8--8--8--8--8--|--0-------------------|--0----------------|


  W                   W                    W                 
-------------------|-------------------|--------------------|
-------------------|-------------------|--------------------|
-------------------|-------------------|--------------------|
--L----------------|--8----------------|--10----------------|


  W                   W                   W                 
-------------------|-------------------|-------------------|
-------------------|-------------------|-------------------|
-------------------|-------------------|-------------------|
--0----------------|--L----------------|--8----------------|


   W                   W                   W                 
--------------------|-------------------|-------------------|
--------------------|-------------------|-------------------|
--------------------|-------------------|-------------------|
--10----------------|--0----------------|--L----------------|


  W                    W                   W                 
-------------------|--------------------|-------------------|
-------------------|--------------------|-------------------|
-------------------|--------------------|-------------------|
--8----------------|--10----------------|--0----------------|


  W                   W                    W                 
-------------------|-------------------|--------------------|
-------------------|-------------------|--------------------|
-------------------|-------------------|--------------------|
--L----------------|--8----------------|--10----------------|


  E  E  E  E  H           E  E  E  E  Q       E  S S Q    H         
-----------------------|-------------------|-----------------------|
-----------------------|-------------------|-----------------------|
-----------------------|-------------------|-----------------------|
--0--0--0--------------|--0--0--0----------|--0--0-0-0-------------|


  E  S S Q    H           S S S S Q    H           S S S S Q    H         
-----------------------|------------------------|------------------------|
-----------------------|------------------------|------------------------|
-----------------------|------------------------|------------------------|
--0--0-0-0-------------|--7-7-7-7-7-------------|--5-5-5-5-5-------------|


  E  S S Q    H           E  S S Q    H           S S S S Q    H         
-----------------------|-----------------------|------------------------|
-----------------------|-----------------------|------------------------|
-----------------------|-----------------------|------------------------|
--0--0-0-0-------------|--0--0-0-0-------------|--7-7-7-7-7-------------|


  S S S S Q    H           E  S S Q    H           E  S S Q    H         
------------------------|-----------------------|-----------------------|
------------------------|-----------------------|-----------------------|
------------------------|-----------------------|-----------------------|
--5-5-5-5-5-------------|--0--0-0-0-------------|--0--0-0-0-------------|


  S S S S E  E  H           S S S S Q    H           E  S S Q    H         
-------------------------|------------------------|-----------------------|
-------------------------|------------------------|-----------------------|
-------------------------|------------------------|-----------------------|
--7-7-7-7-7--------------|--5-5-5-5-5-------------|--0--0-0-0-------------|


  E  S S Q    H           S S S S E  E  H           S S S S Q    H         
-----------------------|-------------------------|------------------------|
-----------------------|-------------------------|------------------------|
-----------------------|-------------------------|------------------------|
--0--0-0-0-------------|--7-7-7-7-7--------------|--5-5-5-5-5-------------|


  E  E  E  E  H            E  E  E  E  H            E  E  E  E  H          
------------------------|------------------------|------------------------|
------------------------|------------------------|------------------------|
--------------5\--------|--------------5\--------|--------------5\--------|
--0--0--0---------------|--0--0--0---------------|--0--0--0---------------|


  Q    Q    Q    Q       E  E  E  E  H            E  E  E  E  H          
----------------------|------------------------|------------------------|
----------------------|------------------------|------------------------|
--5----7----8----7----|--------------5\--------|--------------5\--------|
----------------------|--0--0--0---------------|--0--0--0---------------|


  E  E  E  E  H            E  E  H        Q       W                 
------------------------|----------------------|-------------------|
------------------------|----------------------|-------------------|
--------------5\--------|----------------------|-------------------|
--0--0--0---------------|--0-------------------|--0----------------|


  W                   W                    W                 
-------------------|-------------------|--------------------|
-------------------|-------------------|--------------------|
-------------------|-------------------|--------------------|
--L----------------|--8----------------|--10----------------|


  W                   W                   W                 
-------------------|-------------------|-------------------|
-------------------|-------------------|-------------------|
-------------------|-------------------|-------------------|
--0----------------|--L----------------|--8----------------|


   W                   Q    E  E  E  E  E  E     E  E  E  E  E  E  E  E   
--------------------|-------------------------|--------------------------|
--------------------|-------------------------|--------------------------|
--------------------|-------------------------|--------------------------|
--10----------------|--0----0--0--0--0--0--0--|--0--0--0--0--0--0--0--0--|


  W                    W                   Q    E  E  E  E  E  E   
-------------------|--------------------|-------------------------|
-------------------|--------------------|-------------------------|
-------------------|--------------------|-------------------------|
--8----------------|--10----------------|--0----0--0--0--0--0--0--|


  E  E  E  E  E  E  E  E     W                    W                 
--------------------------|-------------------|--------------------|
--------------------------|-------------------|--------------------|
--------------------------|-------------------|--------------------|
--0--0--0--0--0--0--0--0--|--8----------------|--10----------------|


  W                   W                   W                   W                 
-------------------|-------------------|-------------------|-------------------|
-------------------|-------------------|-------------------|-------------------|
-------------------|-------------------|-------------------|-------------------|
--0----------------|--L----------------|--L----------------|--L----------------|


  W                   W                   W                   W                 
-------------------|-------------------|-------------------|-------------------|
-------------------|-------------------|-------------------|-------------------|
-------------------|-------------------|-------------------|-------------------|
--L----------------|--L----------------|--L----------------|--L----------------|


  W                   Q    E  E  E  E  Q        Q    E  E  E  E  Q      
-------------------|-------------------------|-------------------------|
-------------------|-------------------------|-------------------------|
-------------------|-------------------------|-------------------------|
--L----------------|--0----0--0--0--0--0/----|--8----8--8--8--8--8\----|


  Q    E  E  E  E  E  E     E  E  E  E  E  E  E  E     Q    E  E  E  E  Q      
-------------------------|--------------------------|-------------------------|
-------------------------|--------------------------|-------------------------|
-------------------------|--------------------------|-------------------------|
--3----3--3--3--3--3--3--|--3--3--3--3--3--3--3--3--|--0----0--0--0--0--0/----|


  Q    E  E  E  E  Q        Q    E  E  E  E  E  E     E  E  E  E  E  E  Q     
-------------------------|-------------------------|-------------------------|
-------------------------|-------------------------|-------------------------|
-------------------------|-------------------------|-------------------------|
--8----8--8--8--8--8\----|--3----3--3--3--3--3--3--|--3--3--3--3--3----------|


  E  E   H        Q       E  E   H        Q       E  E  H        Q     
-----------------------|-----------------------|----------------------|
-----------------------|-----------------------|----------------------|
-----------------------|-----------------------|----------------------|
--0--0/--L--------L----|--8--8\--L--------L----|--3--3--L--------L----|


  E  E  H        Q       E  E   H        Q       E  E   H        Q     
----------------------|-----------------------|-----------------------|
----------------------|-----------------------|-----------------------|
----------------------|-----------------------|-----------------------|
--3--3--L--------L----|--0--0/--L--------L----|--8--8\--L--------L----|


  E  E  H        Q       E  E  H        Q       E  E   H        Q     
----------------------|----------------------|-----------------------|
----------------------|----------------------|-----------------------|
----------------------|----------------------|-----------------------|
--3--3--L--------L----|--3--3--L--------L----|--0--0/--L--------L----|


  E  E   H        Q       E  E  H        Q       E  E  H        Q     
-----------------------|----------------------|----------------------|
-----------------------|----------------------|----------------------|
-----------------------|----------------------|----------------------|
--8--8\--L--------L----|--3--3--L--------L----|--3--3--L--------L----|


  E  E   H        Q       E  E   H        Q       E  E  H        Q     
-----------------------|-----------------------|----------------------|
-----------------------|-----------------------|----------------------|
-----------------------|-----------------------|----------------------|
--0--0/--L--------L----|--8--8\--L--------L----|--3--3--L--------L----|


  E  E  H        Q       S S E  E  E  H           S S E  E  E  H         
----------------------|------------------------|------------------------|
----------------------|------------------------|------------------------|
----------------------|------------------------|------------------------|
--3--3--L--------L----|--0-0-0--0--0-----------|--0-0-0--0--0-----------|


  S S E  E  E  H           S S E  E   E  H           S S E  E  E  H         
------------------------|-------------------------|------------------------|
------------------------|-------------------------|------------------------|
------------------------|-------------------------|------------------------|
--0-0-0--0--8--L--------|--0-0-0--0--10--L--------|--0-0-0--0--0-----------|


  S S E  E  E  H           S S E  E  E  H           S S E  E   E  H         
------------------------|------------------------|-------------------------|
------------------------|------------------------|-------------------------|
------------------------|------------------------|-------------------------|
--0-0-0--0--0-----------|--0-0-0--0--8--L--------|--0-0-0--0--10--L--------|


  E  E  E  E  E  E  E  E     E  E  E  E  S S S S S S S S  
--------------------------|------------------------------|
--------------------------|------------------------------|
--------------------------|------------------------------|
--0--0--0--0--0--0--0--0--|--0--0--0--0--0-0-0-0-0-0-0-0-|


  E  E  E  E  E  E  E  E     E  E  E  E  S S S S S S S S  
--------------------------|------------------------------|
--------------------------|------------------------------|
--------------------------|------------------------------|
--0--0--0--0--0--0--0--0--|--0--0--0--0--0-0-0-0-0-0-0-0-|


  E  E  E  E  E  E  E  E     E  E  E  E  S S S S S S S S  
--------------------------|------------------------------|
--------------------------|------------------------------|
--------------------------|------------------------------|
--0--0--0--0--0--0--0--0--|--0--0--0--0--0-0-0-0-0-0-0-0-|


  E  E  E  E  E  E  E  E     E  E  E  E  S S S S S S S S  
--------------------------|------------------------------|
--------------------------|------------------------------|
--------------------------|------------------------------|
--0--0--0--0--0--0--0--0--|--0--0--0--0--0-0-0-0-0-0-0-0-|


  E  E  E  E  E  E  E  E     E  E  E  E  E  E  E  E   
--------------------------|--------------------------|
--------------------------|--------------------------|
--------------------------|--------------------------|
--0--0--0--0--0--0--0--0--|--0--0--0--0--0--0--0--0--|


  E  E  E  E  E  E  E  E     E  E  E  E  E  E  E  E   
--------------------------|--------------------------|
--------------------------|--------------------------|
--------------------------|--------------------------|
--0--0--0--0--0--0--0--0--|--0--0--0--0--0--0--0--0--|


  E  E  E  E  E  E  E  E     E  E  E  E  E  E  E  E   
--------------------------|--------------------------|
--------------------------|--------------------------|
--------------------------|--------------------------|
--0--0--0--0--0--0--0--0--|--0--0--0--0--0--0--0--0--|


  E  E  E  E  E  E  E  E     E  E  E  E  E  E  E  E     W                   
--------------------------|--------------------------|--------------------||
--------------------------|--------------------------|--------------------||
--------------------------|--------------------------|--5\----------------||
--0--0--0--0--0--0--0--0--|--0--0--0--0--0--0--0--0--|--------------------||




Duration Legend
---------------
W - whole
H - half
Q - quarter
E - 8th
S - 16th
T - 32nd
X - 64th
. - note dotted
|-n-|  - n-tuplets


Tablature Legend
----------------
L - tied note
x - dead note
g - grace note
(n) - ghost note
> - accentuded note
NH - natural harmonic
AH - artificial harmonic
TH - tapped harmonic
SH - semi harmonic
PH - pitch harmonic
h - hammer on
p - pull off
b - bend
br - bendRelease
pb - preBend
pbr - preBendRelease
brb - bendReleaseBend
\n/ - tremolo bar dip
\n - tremolo bar dive
-/n - tremolo bar Release up
/n\ - tremolo bar inverted dip
/n - tremolo bar return
-\n - tremolo bar Release down
S - shift slide
s - legato slide
/ -  slide into from below or out of upwards
\ -  slide into from above or out of downwards
~ - vibrato
W - wide vibrato
tr - trill
TP - tremolo picking
T - tapping
S - slap
P - pop
< - fade in
^ - brush up
v - brush down
comments
We did not receive enough feedback on this tab! Please rate:
print report bad tab
1 2 3 4 5
1 comment total.
0 reply
musicman1066 wrote on April 22 2008, 12:29 pm

Tuning for the bass is lower than drop b, I think it's standard A or something.

I want to post or [tab]
guest
You may want to rate the tab now too:
select rating
Please do not post tabs as comments. Select "correction" instead!