Oops, an error
Loading. Please wait.

Picture Perfect Pathetic Bass Tab

1,007 views 3 this week
no commentswrite comment
1 2 3 4 5
please rate
Autoscroll
+/-
esc
set tempo
stop
Contributor
WARNING: You are trying to view
                                    content from Ultimate-Guitar.com
                                    in an unauthorized application,
                                    which is prohibited.

                                    Please use an official Ultimate
                                    Guitar Tabs application for iPhone,
                                    iPad or Android to access legitimate
                                    chords, guitar, bass, and drum tabs
                                    from Ultimate-Guitar.com database.

                                    Type "ultimate guitar tabs" in Apple
                                    App Store's or Android Market's
                                    search to find the application.
Picture Perfect, Pathetic                             
Parkway Drive
Track 3



              H        E  E  E  E     Q    H.           E  E  E  E   
E ||-------|-----------------------|--------------------------------|
B ||-------|-----------------------|--------------------------------|
F#||-------|-----------------------|--------------------------------|
B ||-------|-----------3--3--2--2--|--0-----------------3--3--2--2--|


  Q    H.           E  E  E  E     Q    H.            
--------------------------------|--------------------|
--------------------------------|--------------------|
--------------------------------|--------------------|
--0-----------------3--3--2--2--|--0-----------------|


   E   E  E  E  E  E  E  E     E  E  E  E  E  E  E  E  E  E  E  E   
----------------------------|--------------------------------------|
----------------------------|--------------------------------------|
----------------------------|--------------------------------------|
--10--10--8--8--7--7--7--7--|--8--8--7--7--5--5--3--3--3--3--2--2--|


  E  E  E  E  E  E  E  E  E  E  E  E     E  E  E  E  E  E  E  E  E  E  E  E   
--------------------------------------|--------------------------------------|
--------------------------------------|--------------------------------------|
--------------------------------------|--------------------------------------|
--0--0--0--0--0--0--0--0--3--3--2--2--|--0--0--0--0--0--0--0--0--3--3--2--2--|


  E  E  E  E  E  E  E  E      E   E  E  E  E  E  E  E   
--------------------------|----------------------------|
--------------------------|----------------------------|
--------------------------|----------------------------|
--0--0--0--0--0--0--0--0--|--10--10--8--8--7--7--7--7--|


  E  E  E  E  E  E  E  E  E  E  E  E     E  E  E  E  E  E  E  E  E  E  E  E   
--------------------------------------|--------------------------------------|
--------------------------------------|--------------------------------------|
--------------------------------------|--------------------------------------|
--8--8--7--7--5--5--3--3--3--3--2--2--|--0--0--0--0--0--0--0--0--3--3--2--2--|


  E  E  E  E  E  E  E  E  E  E  E  E     E  E  E  E  E  E  E  E   
--------------------------------------|--------------------------|
--------------------------------------|--------------------------|
--------------------------------------|--------------------------|
--0--0--0--0--0--0--0--0--3--3--2--2--|--0--0--0--0--0--0--0--0--|


   E   E  E  E  E  E  E  E     E  E  E  E  E  E  E  E  E  E  E  E   
----------------------------|--------------------------------------|
----------------------------|--------------------------------------|
----------------------------|--------------------------------------|
--10--10--8--8--7--7--7--7--|--8--8--7--7--5--5--3--3--3--3--2--2--|


  E  E  E  E  E  E  E  E  E  E  E  E     E  E  E  E  E  E  E  E  E  E  E  E   
--------------------------------------|--------------------------------------|
--------------------------------------|--------------------------------------|
--------------------------------------|--------------------------------------|
--0--0--0--0--0--0--0--0--3--3--2--2--|--0--0--0--0--0--0--0--0--3--3--2--2--|


  E  E  E  E  E  E  E  E     S S S S E  E  S S S S E  E   
--------------------------|------------------------------|
--------------------------|------------------------------|
--------------------------|------------------------------|
--0--0--0--0--0--0--0--0--|--0-0-0-0-0-----0-0-0-0-0-----|


  S S S S E  E  S S S S E  E     S S S S E  E  S S S S E  E         
------------------------------|------------------------------|-----|
------------------------------|------------------------------|-----|
------------------------------|------------------------------|-----|
--0-0-0-0-0-----0-0-0-0-0-----|--0-0-0-0-0-----0-0-0-0-0-----|-----|


  E  E  E  E  E  E  E  E     E  E  E  E  E  E  E  E     E  E  E  E  H         
--------------------------|--------------------------|-----------------------|
--5-----7-----------------|--------------5-----------|--------5--------------|
--------------8-----7--8--|--------8-----------7-----|--8--------------------|
-----0-----0-----0--------|--0--0-----0-----0-----0--|-----0-----------------|


  E  E  E  E  E  E  E  E     E  E  E  E  E  E  E  E   
--------------------------|--------------------------|
--------7-----------------|--5-----7-----------------|
--------------8-----5-----|--------------8-----7--8--|
--0--0-----0-----0-----0--|-----0-----0-----0--------|


  E  E  E  E  E  E  E  E     S S E  S S E  S S E  S S E     W                 
--------------------------|------------------------------|-------------------|
--------------5-----------|------------------------------|-------------------|
--------8-----------7-----|------------------------------|-------------------|
--0--0-----0-----0-----0--|--0-0-0--0-0-0--0-0-0--0-0-0--|--0----------------|


  W                   W                    H        H         
-------------------|-------------------|---------------------|
-------------------|-------------------|---------------------|
-------------------|-------------------|---------------------|
--7----------------|--8----------------|--10-----------------|


  W                   W                   W                 
-------------------|-------------------|-------------------|
-------------------|-------------------|-------------------|
-------------------|-------------------|-------------------|
--0----------------|--7----------------|--8----------------|


  S S E  S S E  S S E  S S E     E  E  H        S S S S  
------------------------------|-------------------------|
------------------------------|-------------------------|
------------------------------|-------------------------|
--0-0-0--0-0-0--0-0-0--0-0-0--|--0--0-----------0-0-0-0-|


  E  E  Q    E  E  Q       E  E  H        S S S S    E  E  Q    E  Q.      
------------------------|-------------------------|-----------------------|
------------------------|-------------------------|-----------------------|
------------------------|-------------------------|-----------------------|
--0--0-------0--0-------|--0--0-----------0-0-0-0-|--0--0-------0---------|


  E  E  H        S S S S    E  E  Q    E  E  Q       E  E  H        Q     
-------------------------|------------------------|----------------------|
-------------------------|------------------------|----------------------|
-------------------------|------------------------|----------------------|
--0--0-----------0-0-0-0-|--0--0-------0--0-------|--0--0-----------0----|


  H        H           H        H                     
--------------------|--------------------|-----|-----|
--------------------|--------------------|-----|-----|
--------------------|--------------------|-----|-----|
--0--------7--------|--3--------5--------|-----|-----|


  E  E  E  E  E  E  E  E     W.                  S S E  E  E  S S E  E  E   
--------------------------|-------------------|----------------------------|
--------------------------|-------------------|----------------------------|
--------------------------|-------------------|----------------------------|
-----0--0--0--0--0--0--0--|-------------------|--0-0-0--0--0--0-0-0--0--0--|


  S S E  E  E  S S S S S S S S    S S E  E  E  S S E  E  E   
-------------------------------|----------------------------|
-------------------------------|----------------------------|
-------------------------------|----------------------------|
--0-0-0--0--0--0-0-0-0-0-0-0-0-|--0-0-0--0--0--0-0-0--0--0--|


  S S E  E  E  S S S S S S S S    S S E  E  E  S S E  E  E   
-------------------------------|----------------------------|
-------------------------------|----------------------------|
-------------------------------|----------------------------|
--0-0-0--0--0--0-0-0-0-0-0-0-0-|--0-0-0--0--0--0-0-0--0--0--|


  S S E  E  E  S S S S S S S S    S S E  E  E  S S E  E  E   
-------------------------------|----------------------------|
-------------------------------|----------------------------|
-------------------------------|----------------------------|
--0-0-0--0--0--0-0-0-0-0-0-0-0-|--0-0-0--0--0--0-0-0--0--0--|


  S S E  E  E  S S S S S S E     S S E  E  E  H         
------------------------------|------------------------|
------------------------------|------------------------|
------------------------------|------------------------|
--0-0-0--0--0--0-0-0-0-0-0----|--0-0-0--0--0--0--------|


  S S E  E  E  S S S S  S  S S S    S S E  E  E  H         
---------------------------------|------------------------|
---------------------------------|------------------------|
---------------------------------|------------------------|
--0-0-0--0--0--7-7-8-8-10-10-8-8-|--0-0-0--0--0--0--------|


  S S E  E  E  S S S S  S  S S S    S S E  E  E  H         
---------------------------------|------------------------|
---------------------------------|------------------------|
---------------------------------|------------------------|
--0-0-0--0--0--7-7-8-8-10-10-8-8-|--0-0-0--0--0--0--------|


  S S E  E  E  S S S S  S  S S S    S S E  E  E  H         
---------------------------------|------------------------|
---------------------------------|------------------------|
---------------------------------|------------------------|
--0-0-0--0--0--7-7-8-8-10-10-8-8-|--0-0-0--0--0--0--------|


  S S E  E  E   T   T   T   T   T   T  T  T  T  T  T  T  T  T  T  T        
--------------------------------------------------------------------|-----|
--------------------------------------------------------------------|-----|
--------------------------------------------------------------------|-----|
--0-0-0--0--0--15S-14S-13S-12S-11S-10S-9S-8S-7S-6S-5S-4S-3S-2S-1S-0-|-----|


        E  E  E  E  E  E  E  E  E  E  E  E   
-----|--------------------------------------|
-----|--------------------------------------|
-----|--------------------------------------|
-----|--0--0--0--0--0--0--0--0--3--3--2--2--|


  E  E  E  E  E  E  E  E  E  E  E  E     E  E  E  E  E  E  E  E   
--------------------------------------|--------------------------|
--------------------------------------|--------------------------|
--------------------------------------|--------------------------|
--0--0--0--0--0--0--0--0--3--3--2--2--|--0--0--0--0--0--0--0--0--|


   E   E  E  E  E  E  E  E     E  E  E  E  E  E  E  E  E  E  E  E   
----------------------------|--------------------------------------|
----------------------------|--------------------------------------|
----------------------------|--------------------------------------|
--10--10--8--8--7--7--7--7--|--8--8--7--7--5--5--3--3--3--3--2--2--|


  E  E  E  E  E  E  E  E  E  E  E  E     E  E  E  E  E  E  E  E  E  E  E  E   
--------------------------------------|--------------------------------------|
--------------------------------------|--------------------------------------|
--------------------------------------|--------------------------------------|
--0--0--0--0--0--0--0--0--3--3--2--2--|--0--0--0--0--0--0--0--0--3--3--2--2--|


  E  E  E  E  E  E  E  E     S S S S E  E  S S S S E  E   
--------------------------|------------------------------|
--------------------------|------------------------------|
--------------------------|------------------------------|
--0--0--0--0--0--0--0--0--|--0-0-0-0-0-----0-0-0-0-0-----|


  S S S S E  E  S S S S E  E     S S S S E  E  S S S S E  E   
------------------------------|------------------------------|
------------------------------|------------------------------|
------------------------------|------------------------------|
--0-0-0-0-0-----0-0-0-0-0-----|--0-0-0-0-0-----0-0-0-0-0-----|


  W                   W                   W                 
-------------------|-------------------|-------------------|
-------------------|-------------------|-------------------|
-------------------|-------------------|-------------------|
--0----------------|--L----------------|--L----------------|


  H        S S E  S S E     W                   W                 
-------------------------|-------------------|-------------------|
-------------------------|-------------------|-------------------|
-------------------------|-------------------|-------------------|
--L--------0-0-0--0-0-0--|--0----------------|--L----------------|


  W                   H        S S E  S S E     E  E  S E.  Q    E  E   
-------------------|-------------------------|-------------------------|
-------------------|-------------------------|-------------------------|
-------------------|-------------------------|-------------------------|
--L----------------|--L--------0-0-0--0-0-0--|--0--0--0----------0--0--|


  S E.  Q    E  E  E  E     E  E  S E.  Q    E  E     S Q    E.  S S E  S S E   
-------------------------|-------------------------|---------------------------|
-------------------------|-------------------------|---------------------------|
-------------------------|-------------------------|---------------------------|
--0----------0--0--0--0--|--0--0--0----------0--0--|--0----------0-0-0--0-0-0--|


  E  E  S E.  Q    E  E     S E.  Q    E  E  E  E     E  E  S E.  Q    E  E   
-------------------------|-------------------------|-------------------------|
-------------------------|-------------------------|-------------------------|
-------------------------|-------------------------|-------------------------|
--0--0--0----------0--0--|--0----------0--0--0--0--|--0--0--0----------0--0--|


  W                   S S S S H        S S S S    W                 
-------------------|---------------------------|-------------------|
-------------------|---------------------------|-------------------|
-------------------|---------------------------|-------------------|
-------------------|--0-0-0-0-0--------0-0-0-0-|--0----------------|


  S S S S H        S S S S    W                   S S S S H        S S S S  
---------------------------|-------------------|---------------------------|
---------------------------|-------------------|---------------------------|
---------------------------|-------------------|---------------------------|
--0-0-0-0-0--------0-0-0-0-|--0----------------|--0-0-0-0-0--------0-0-0-0-|


  W                   S S S S H        S S S S     W                  
-------------------|---------------------------|---------------------|
-------------------|---------------------------|---------------------|
-------------------|---------------------------|---------------------|
--0----------------|--0-0-0-0-0--------0-0-0-0-|--12\----------------|


  E  E  S E.  Q    E  E     S E.  Q    E  E  E  E     E  E  S E.  Q    E  E   
-------------------------|-------------------------|-------------------------|
-------------------------|-------------------------|-------------------------|
-------------------------|-------------------------|-------------------------|
--0--0--0----------0--0--|--0----------0--0--0--0--|--0--0--0----------0--0--|


  Q    H.                             
--------------------|---------------||
--------------------|---------------||
--------------------|---------------||
--0-----------------|---------------||




Duration Legend
---------------
W - whole
H - half
Q - quarter
E - 8th
S - 16th
T - 32nd
X - 64th
. - note dotted
|-n-|  - n-tuplets


Tablature Legend
----------------
L - tied note
x - dead note
g - grace note
(n) - ghost note
> - accentuded note
NH - natural harmonic
AH - artificial harmonic
TH - tapped harmonic
SH - semi harmonic
PH - pitch harmonic
h - hammer on
p - pull off
b - bend
br - bendRelease
pb - preBend
pbr - preBendRelease
brb - bendReleaseBend
\n/ - tremolo bar dip
\n - tremolo bar dive
-/n - tremolo bar Release up
/n\ - tremolo bar inverted dip
/n - tremolo bar return
-\n - tremolo bar Release down
S - shift slide
s - legato slide
/ -  slide into from below or out of upwards
\ -  slide into from above or out of downwards
~ - vibrato
W - wide vibrato
tr - trill
TP - tremolo picking
T - tapping
S - slap
P - pop
< - fade in
^ - brush up
v - brush down
comments
We did not receive enough feedback on this tab! Please rate:
print report bad tab
1 2 3 4 5
I want to post or [tab]
guest
You may want to rate the tab now too:
select rating
Please do not post tabs as comments. Select "correction" instead!