Oops, an error
Loading. Please wait.

Romance Is Dead Bass Tab

ver1
ver1

Whole song

More versions @911Tabs.com
15,036 views 18 this week
no commentswrite comment
1 2 3 4 5
excellent!
x 1
Autoscroll
+/-
esc
set tempo
stop
Contributor
Hey! There's an official Ultimate Guitar app which is ideal
for learning songs when you're away from computer. Get the app
WARNING: You are trying to view
                                    content from Ultimate-Guitar.com
                                    in an unauthorized application,
                                    which is prohibited.

                                    Please use an official Ultimate
                                    Guitar Tabs application for iPhone,
                                    iPad or Android to access legitimate
                                    chords, guitar, bass, and drum tabs
                                    from Ultimate-Guitar.com database.

                                    Type "ultimate guitar tabs" in Apple
                                    App Store's or Android Market's
                                    search to find the application.
Romance Is Dead                                 
Parkway Drive
Bass



              Q    E  E  S S E  E  E                           
A ||-------|--------------------------|-------|-------|-------|
E ||-------|--------------------------|-------|-------|-------|
B ||-------|--------------------------|-------|-------|-------|
F#||-------|--------------------------|-------|-------|-------|
B ||-------|-------0--0--0-0-0--0--0--|-------|-------|-------|


  Q    E  E  S S E  E  E                     E   E  E  E   E  E  E  E   
--------------------------|-------|-------|----------------------------|
--------------------------|-------|-------|----------------------------|
--------------------------|-------|-------|-------------------------0--|
--------------------------|-------|-------|--8s--7--7--8s--7--7--3-----|
-------0--0--0-0-0--0--0--|-------|-------|----------------------------|


  E  E  E  E  S S E  E  E     E   E  E  E   E  E  E  E   
---------------------------|----------------------------|
---------------------------|----------------------------|
--3--0---------------------|-------------------------0--|
---------------------------|--8s--7--7--8s--7--7--3-----|
--------0--0--0-0-0--0--0--|----------------------------|


  E  E  E  E  E  E  E  E     E   E  E  E   E  E  E  E   
--------------------------|----------------------------|
--------------------------|----------------------------|
--3-----------2-----------|-------------------------0--|
-----5--0--5-----3-----3--|--8s--7--7--8s--7--7--3-----|
--------------------5-----|----------------------------|


  E  E  E  E  S S E  E  E     E   E  E  E   E  E  E  E   
---------------------------|----------------------------|
---------------------------|----------------------------|
--3--0---------------------|-------------------------0--|
---------------------------|--8s--7--7--8s--7--7--3-----|
--------0--0--0-0-0--0--0--|----------------------------|


  E  E  E  E  S  S E  Q       E   E  E  E   E  E  E  E   
---------------------------|----------------------------|
---------------------------|----------------------------|
--3------------------------|-------------------------0--|
-----5--0--5--6s-8-7--7----|--8s--7--7--8s--7--7--3-----|
---------------------------|----------------------------|


  E  E  E  E  S S E  E  E     E   E  E  E   E  E  E  E   
---------------------------|----------------------------|
---------------------------|----------------------------|
--3--0---------------------|-------------------------0--|
---------------------------|--8s--7--7--8s--7--7--3-----|
--------0--0--0-0-0--0--0--|----------------------------|


  E  E  E  E  E  E  E  E     E   E  E  E   E  E  E  E   
--------------------------|----------------------------|
--------------------------|----------------------------|
--3-----------2-----------|-------------------------0--|
-----5--0--5-----3-----3--|--8s--7--7--8s--7--7--3-----|
--------------------5-----|----------------------------|


  E  E  E  E  S S E  E  E     E   E  E  E   E  E  E  E   
---------------------------|----------------------------|
---------------------------|----------------------------|
--3--0---------------------|-------------------------0--|
---------------------------|--8s--7--7--8s--7--7--3-----|
--------0--0--0-0-0--0--0--|----------------------------|


  E  E  E  E  E  Q.         E  E  S S E  E   E  E  E   
------------------------|-----------------------------|
------------------------|-----------------------------|
--3---------------------|-----------------------------|
-----5--0--5--7---------|-------------------12-----8--|
------------------------|--12--0--0-0-0--0------0-----|


  E  E   E  E  E  E   E  E      E  E  S S E  E   E  E  S   S  
----------------------------|--------------------------------|
----------------------------|--------------------------------|
---------------------10-----|--------------------------------|
--L------------7---------7--|-------------------12-----8s-10-|
-----0--10--0-----0---------|--12--0--0-0-0--0------0--------|


  E  E  E  Q    E   E  E      E  E  S S E  E   E  E  E   
--------------------------|-----------------------------|
--------------------------|-----------------------------|
-------------------10-----|-----------------------------|
--L--8--7--8----7------7--|-------------------12-----8--|
--------------------------|--12--0--0-0-0--0------0-----|


  E  E   E  E  E  E   E  E      E  E  S S E  E   E  E  S   S  
----------------------------|--------------------------------|
----------------------------|--------------------------------|
---------------------10-----|--------------------------------|
--L------------7---------7--|-------------------12-----8s-10-|
-----0--10--0-----0---------|--12--0--0-0-0--0------0--------|


  E  E  E  Q    E   E  E      E  E  S S E  E   E  E  E   
--------------------------|-----------------------------|
--------------------------|-----------------------------|
-------------------10-----|-----------------------------|
--L--8--7--8----7------7--|-------------------12-----8--|
--------------------------|--12--0--0-0-0--0------0-----|


  E  E   E  E  E  E   E  E      E  E  S S E  E   E  E  S   S  
----------------------------|--------------------------------|
----------------------------|--------------------------------|
---------------------10-----|--------------------------------|
--L------------7---------7--|-------------------12-----8s-10-|
-----0--10--0-----0---------|--12--0--0-0-0--0------0--------|


  E  E  E  Q    E   E  E      E  E  S S E  E   E  E  E   
--------------------------|-----------------------------|
--------------------------|-----------------------------|
-------------------10-----|-----------------------------|
--L--8--7--8----7------7--|-------------------12-----8--|
--------------------------|--12--0--0-0-0--0------0-----|


  E  E   E  E  E  E   E  E      E  E  S S E  E   E  E  S   S  
----------------------------|--------------------------------|
----------------------------|--------------------------------|
---------------------10-----|--------------------------------|
--L------------7---------7--|-------------------12-----8s-10-|
-----0--10--0-----0---------|--12--0--0-0-0--0------0--------|


  E  E  E  Q    E   E  E     E  E  E  E  E  E  E  E   
--------------------------|--------------------------|
--------------------------|--------------------------|
-------------------10-----|--------------------------|
--L--8--7--8----7------7--|--------------------------|
--------------------------|--0--0--0--0--0--0--0--0--|


  E  E  E  E  E  E  E  E     E  E  E  E  E  E  E  E   
--------------------------|--------------------------|
--------------------------|--------------------------|
--------------------------|--------------------------|
-----------------5--5--5--|--------------------------|
--0--0--0--0--0-----------|--0--0--0--0--0--0--0--0--|


  E  E  E  E  E  E  E  E     E  E  E  E  E  E  E  E   
--------------------------|--------------------------|
--------------------------|--------------------------|
--------------------------|--------------------------|
-----5--5--5--3--3--3--3--|--------------------------|
--0-----------------------|--0--0--0--0--0--0--0--0--|


  E  E  E  E  E  E  E  E     E  E  E  E  E  E  E  E     W                 
--------------------------|--------------------------|-------------------|
--------------------------|--------------------------|-------------------|
--------------------------|--------------------------|-------------------|
-----------------5--5--5--|--------------------------|-------------------|
--0--0--0--0--0-----------|--0--0--0--0--0--0--0-----|-------------------|


  E  E  E  E  E  E  E  E     E  E  E  E  E  E  E  E   
--------------------------|--------------------------|
--------------------------|--------------------------|
--------------------------|--------------------------|
--------------------------|-----------------5--5--5--|
--0--0--0--0--0--0--0-----|-----0--0--0--0-----------|


  E  E  E  E  E  E  E  E     E  E  E  E  E  E  E  E   
--------------------------|--------------------------|
--------------------------|--------------------------|
--------------------------|--------------------------|
--------------------------|-----5--5--5--3--3--3--3--|
--0--0--0--0--0--0--0--0--|--0-----------------------|


  E  E  E  E  E  E  E  E     E  E  E  E  E  E  E  E   
--------------------------|--------------------------|
--------------------------|--------------------------|
--------------------------|--------------------------|
--------------------------|-----------------5--5--5--|
--0--0--0--0--0--0--0-----|-----0--0--0--0-----------|


  E  E  E  E  E  E  E  E     E  E  E  E  E  E  E  E                           
--------------------------|--------------------------|-----|-----|-----|-----|
--------------------------|--------------------------|-----|-----|-----|-----|
--------------------------|--------------------------|-----|-----|-----|-----|
--------------------------|-----5--5--5--3--3--3--3--|-----|-----|-----|-----|
--0--0--0--0--0--0--0--0--|--0-----------------------|-----|-----|-----|-----|


                          E   E  E  E   E  E  E  E   
-----|-----|-----|-----|----------------------------|
-----|-----|-----|-----|----------------------------|
-----|-----|-----|-----|-------------------------0--|
-----|-----|-----|-----|--8s--7--7--8s--7--7--3-----|
-----|-----|-----|-----|----------------------------|


  E  E  S S E  S S E  S S E     E   E  E  E   E  E  E  E   
-----------------------------|----------------------------|
-----------------------------|----------------------------|
--3--0-----------------------|-------------------------0--|
-----------------------------|--8s--7--7--8s--7--7--3-----|
--------0-0-0--0-0-0--0-0-0--|----------------------------|


  E  E  E  E  E  E  E  E     E   E  E  E   E  E  E  E   
--------------------------|----------------------------|
--------------------------|----------------------------|
--3-----------2-----------|-------------------------0--|
-----5--0--5-----3-----3--|--8s--7--7--8s--7--7--3-----|
--------------------5-----|----------------------------|


  E  E  S S E  S S E  S S E     E   E  E  E   E  E  E  E   
-----------------------------|----------------------------|
-----------------------------|----------------------------|
--3--0-----------------------|-------------------------0--|
-----------------------------|--8s--7--7--8s--7--7--3-----|
--------0-0-0--0-0-0--0-0-0--|----------------------------|


  E  E  E  E  E  E  Q       E  E  E  E  E  E  E  E   
-------------------------|--------------------------|
-------------------------|--------------------------|
--3----------------------|--------------------------|
-----5--0--5--8--8--7----|-----3--1--------1-----0--|
-------------------------|--0--------3--0-----3-----|


  |-3-|     |-3-|     |-3-|     |-3-|      
  S S S S S S S S S S S S S S S S S S S S  
------------------------------------------|
------------------------------------------|
------------------------------------------|
------------------------------------------|
--0-0-0-0---0-0-0-0---0-0-0-0---0-0-0-0---|


  |-3-|     |-3-|     |-3-|     |-3-|      
  S S S S S S S S S S S S S S S S S S S S  
------------------------------------------|
------------------------------------------|
------------------------------------------|
------------------------------------------|
--0-0-0-0---0-0-0-0---0-0-0-0---0-0-0-0---|


  |-3-|     |-3-|     |-3-|     |-3-|                                        
  S S S S S S S S S S S S S S S S S S S S         E  E  E  E  S E  S S E  S  
------------------------------------------|----|----------------------------|
------------------------------------------|----|----------------------------|
------------------------------------------|----|----------------------------|
------------------------------------------|----|----------------------------|
--0-0-0-0---0-0-0-0---0-0-0-0---0-0-0-0---|----|--0--0--0--0--0-0----0-0----|


  E  E  E  E  S E  S S E  S    E  E  E  E  S E  S S E  S    W                 
----------------------------|----------------------------|-------------------|
----------------------------|----------------------------|-------------------|
----------------------------|----------------------------|-------------------|
----------------------------|----------------------------|-------------------|
--0--0--0--0--0-0----0-0----|--0--0--0--0--0-0----0-0----|-------------------|


  E  E  E  E  S E  S S E  S    E  E  E  E  S E  S S E  S  
----------------------------|----------------------------|
----------------------------|----------------------------|
----------------------------|----------------------------|
----------------------------|----------------------------|
--0--0--0--0--0-0----0-0----|--0--0--0--0--0-0----0-0----|


  E  E  E  E  S E  S S E  S         S S S S E  E  S E  S S E  S  
----------------------------|----|------------------------------|
----------------------------|----|------------------------------|
----------------------------|----|------------------------------|
----------------------------|----|------------------------------|
--0--0--0--0--0-0----0-0----|----|--0-0-0-0-0--0--0-0----0-0----|


  S S S S E  E  S E  S S E  S    S S S S E  E  S E  S S E  S       
------------------------------|------------------------------|----|
------------------------------|------------------------------|----|
------------------------------|------------------------------|----|
------------------------------|------------------------------|----|
--0-0-0-0-0--0--0-0----0-0----|--0-0-0-0-0--0--0-0----0-0----|----|


  S S S S E  E  S E  S S E  S    S S S S E  E  S E  S S E  S  
------------------------------|------------------------------|
------------------------------|------------------------------|
------------------------------|------------------------------|
------------------------------|------------------------------|
--0-0-0-0-0--0--0-0----0-0----|--0-0-0-0-0--0--0-0----0-0----|


  S S S S E  E  S E  S S E  S         E  E  H.              H.           E  E   
------------------------------|----|---------------------|---------------------|
------------------------------|----|---------------------|---------------------|
------------------------------|----|---------------------|---------------------|
------------------------------|----|---------------------|---------------------|
--0-0-0-0-0--0--0-0----0-0----|----|--0------------------|---------------------|


  E  E  H.              W                   E  E  H.            
---------------------|-------------------|---------------------|
---------------------|-------------------|---------------------|
---------------------|-------------------|---------------------|
---------------------|-------------------|---------------------|
--0------------------|-------------------|--0------------------|


  H.           E  E     E  E  H        E  S   S    E  E  E  Q    E   E  E   
---------------------|--------------------------|--------------------------|
---------------------|--------------------------|--------------------------|
---------------------|--------------------------|-------------------10-----|
---------------------|--------------------8s-10-|--L--8--7--8----7------7--|
---------------------|--0-----------------------|--------------------------|


   E  E  S S E  E   E  E  E     E  E   E  E  E  E   E  E   
-----------------------------|----------------------------|
-----------------------------|----------------------------|
-----------------------------|---------------------10-----|
-------------------12-----8--|--L------------7---------7--|
--12--0--0-0-0--0------0-----|-----0--10--0-----0---------|


   E  E  S S E  E   E  E  S   S    E  E  E  Q    E   E  E   
--------------------------------|--------------------------|
--------------------------------|--------------------------|
--------------------------------|-------------------10-----|
-------------------12-----8s-10-|--L--8--7--8----7------7--|
--12--0--0-0-0--0------0--------|--------------------------|


   E  E  S S E  E   E  E  E     E  E   E  E  E  E   E  E   
-----------------------------|----------------------------|
-----------------------------|----------------------------|
-----------------------------|---------------------10-----|
-------------------12-----8--|--L------------7---------7--|
--12--0--0-0-0--0------0-----|-----0--10--0-----0---------|


   E  E  S S E  E   E  E  S   S    E  E  E  Q    E   E  E   
--------------------------------|--------------------------|
--------------------------------|--------------------------|
--------------------------------|-------------------10-----|
-------------------12-----8s-10-|--L--8--7--8----7------7--|
--12--0--0-0-0--0------0--------|--------------------------|


   E  E  S S E  E   E  E  E     E  E   E  E  E  E   E  E   
-----------------------------|----------------------------|
-----------------------------|----------------------------|
-----------------------------|---------------------10-----|
-------------------12-----8--|--L------------7---------7--|
--12--0--0-0-0--0------0-----|-----0--10--0-----0---------|


   E  E  S S E  E   E  E  S   S    E  E  E  Q    E   E  E   
--------------------------------|--------------------------|
--------------------------------|--------------------------|
--------------------------------|-------------------10-----|
-------------------12-----8s-10-|--L--8--7--8----7------7--|
--12--0--0-0-0--0------0--------|--------------------------|


   E  E  S S E  E   E  E  E     E  E   E  E  E  E   E  E   
-----------------------------|----------------------------|
-----------------------------|----------------------------|
-----------------------------|---------------------10-----|
-------------------12-----8--|--L------------7---------7--|
--12--0--0-0-0--0------0-----|-----0--10--0-----0---------|


   E  E  S S E  E   E  E  S   S    E  E  E  Q    E   E   S   S  
--------------------------------|------------------------------|
--------------------------------|------------------------------|
--------------------------------|------------------------------|
-------------------12-----8s-10-|--L--8--7--8----7------10s-12-|
--12--0--0-0-0--0------0--------|-------------------10---------|


  E   E  E   Q    E  Q       S S S S S S S S S S S S S S S S  
--------------------------|----------------------------------|
--------------------------|----------------------------------|
--------------------------|----------------------------------|
--L--10--8--10----8--7----|----------------------------------|
--------------------------|--0-0-0---0-0-0---0-0-0---0-0-0---|


  S S S S S S S S S S S S S S S S    W                   H        H         
----------------------------------|-------------------|--------------------|
----------------------------------|-------------------|--------------------|
----------------------------------|-------------------|--------------------|
----------------------------------|-------------------|-----------5--------|
--0-0-0---0-0-0---0-0-0---0-0-0---|--3----------------|--L-----------------|


  W                   H        H           W                 
-------------------|--------------------|-------------------|
-------------------|--------------------|-------------------|
-------------------|--------------------|-------------------|
-------------------|-----------8--------|-------------------|
--0----------------|--L-----------------|--3----------------|


  H        H           W                   H        H         
--------------------|-------------------|--------------------|
--------------------|-------------------|--------------------|
--------------------|-------------------|--------------------|
-----------5--------|-------------------|-----------8--------|
--L-----------------|--0----------------|--L-----------------|


  W                   H        H           W                 
-------------------|--------------------|-------------------|
-------------------|--------------------|-------------------|
-------------------|--------------------|-------------------|
-------------------|-----------5--------|-------------------|
--3----------------|--L-----------------|--0----------------|


  H        H           W                   H        H         
--------------------|-------------------|--------------------|
--------------------|-------------------|--------------------|
--------------------|-------------------|--------------------|
-----------8--------|-------------------|-----------5--------|
--L-----------------|--3----------------|--L-----------------|


  W                   H        H           E  E  E  E  E  E  E  E   
-------------------|--------------------|--------------------------|
-------------------|--------------------|--------------------------|
-------------------|--------------------|--------------------------|
-------------------|-----------8--------|--------------------------|
--0----------------|--L-----------------|--3--3--3--3--3--3--3--3--|


  E  E  E  E  E  E  E  E     E  E  E  E  E  E  E  E   
--------------------------|--------------------------|
--------------------------|--------------------------|
--------------------------|--------------------------|
-----------------5--5--5--|--------------------------|
--3--3--3--3--3-----------|--0--0--0--0--0--0--0--0--|


  E  E  E  E  E   E   E   E     E  E  E  E  E  E  E  E   
-----------------------------|--------------------------|
-----------------------------|--------------------------|
-----------------------------|--------------------------|
-----------------10--10--10--|--------------------------|
--0--0--0--0--0--------------|--3--3--3--3--3--3--3--3--|


  E  E  E  E  E  E  E  E     E  E  E  E  E  E  E  E   
--------------------------|--------------------------|
--------------------------|--------------------------|
--------------------------|--------------------------|
-----------------5--5--5--|--------------------------|
--3--3--3--3--3-----------|--0--0--0--0--0--0--0--0--|


  E  E  E  E  E   E   E   E                                                   
-----------------------------|-----|-----|-----|-----|-----|-----|-----|-----|
-----------------------------|-----|-----|-----|-----|-----|-----|-----|-----|
-----------------------------|-----|-----|-----|-----|-----|-----|-----|-----|
-----------------10--10--10--|-----|-----|-----|-----|-----|-----|-----|-----|
--0--0--0--0--0--------------|-----|-----|-----|-----|-----|-----|-----|-----|


  W                   W                   W                   W                 
-------------------|-------------------|-------------------|-------------------|
-------------------|-------------------|-------------------|-------------------|
-------------------|-------------------|-------------------|-------------------|
-------------------|-------------------|-------------------|-------------------|
--7----------------|--5----------------|--3----------------|--5----------------|


  W                   W                   W                   W                 
-------------------|-------------------|-------------------|-------------------|
-------------------|-------------------|-------------------|-------------------|
-------------------|-------------------|-------------------|-------------------|
-------------------|-------------------|-------------------|-------------------|
--7----------------|--5----------------|--3----------------|--5----------------|


  W                   W                   W                   W                 
-------------------|-------------------|-------------------|-------------------|
-------------------|-------------------|-------------------|-------------------|
-------------------|-------------------|-------------------|-------------------|
-------------------|-------------------|-------------------|-------------------|
--7----------------|--5----------------|--3----------------|--5----------------|


  W                   W                   W                   W                 
-------------------|-------------------|-------------------|-------------------|
-------------------|-------------------|-------------------|-------------------|
-------------------|-------------------|-------------------|-------------------|
-------------------|-------------------|-------------------|-------------------|
--7----------------|--5----------------|--3----------------|--5----------------|


  W                   W                   W                   W                 
-------------------|-------------------|-------------------|-------------------|
-------------------|-------------------|-------------------|-------------------|
-------------------|-------------------|-------------------|-------------------|
-------------------|-------------------|-------------------|-------------------|
--7----------------|--5----------------|--7----------------|--5----------------|


  W                   W                   W                   W                 
-------------------|-------------------|-------------------|-------------------|
-------------------|-------------------|-------------------|-------------------|
-------------------|-------------------|-------------------|-------------------|
-------------------|-------------------|-------------------|-------------------|
--7----------------|--5----------------|--7----------------|--5----------------|


  W                   W                   W                   W                 
-------------------|-------------------|-------------------|-------------------|
-------------------|-------------------|-------------------|-------------------|
-------------------|-------------------|-------------------|-------------------|
-------------------|-------------------|-------------------|-------------------|
--7----------------|--5----------------|--7----------------|--5----------------|


  W                   W                   W                   W                 
-------------------|-------------------|-------------------|-------------------|
-------------------|-------------------|-------------------|-------------------|
-------------------|-------------------|-------------------|-------------------|
-------------------|-------------------|-------------------|-------------------|
--7----------------|--5----------------|--7----------------|--5----------------|


-------------------|-------------------|-------------------|-------------------|
-------------------|-------------------|-------------------|-------------------|
-------------------|-------------------|-------------------|-------------------|
-------------------|-------------------|-------------------|-------------------|
-------------------|-------------------|-------------------|-------------------|


-------------------|-------------------|-------------------|-------------------|
-------------------|-------------------|-------------------|-------------------|
-------------------|-------------------|-------------------|-------------------|
-------------------|-------------------|-------------------|-------------------|
-------------------|-------------------|-------------------|-------------------|


-------------------|-------------------|-------------------|-------------------|
-------------------|-------------------|-------------------|-------------------|
-------------------|-------------------|-------------------|-------------------|
-------------------|-------------------|-------------------|-------------------|
-------------------|-------------------|-------------------|-------------------|


-------------------|-------------------|-------------------|-------------------|
-------------------|-------------------|-------------------|-------------------|
-------------------|-------------------|-------------------|-------------------|
-------------------|-------------------|-------------------|-------------------|
-------------------|-------------------|-------------------|-------------------|


-------------------|-------------------|-------------------|-------------------|
-------------------|-------------------|-------------------|-------------------|
-------------------|-------------------|-------------------|-------------------|
-------------------|-------------------|-------------------|-------------------|
-------------------|-------------------|-------------------|-------------------|


-------------------|-------------------|-------------------|
-------------------|-------------------|-------------------|
-------------------|-------------------|-------------------|
-------------------|-------------------|-------------------|
-------------------|-------------------|-------------------|


-------------------||
-------------------||
-------------------||
-------------------||
-------------------||




Duration Legend
---------------
W - whole
H - half
Q - quarter
E - 8th
S - 16th
T - 32nd
X - 64th
. - note dotted
|-n-|  - n-tuplets


Tablature Legend
----------------
L - tied note
x - dead note
g - grace note
(n) - ghost note
> - accentuded note
NH - natural harmonic
AH - artificial harmonic
TH - tapped harmonic
SH - semi harmonic
PH - pitch harmonic
h - hammer on
p - pull off
b - bend
br - bendRelease
pb - preBend
pbr - preBendRelease
brb - bendReleaseBend
\n/ - tremolo bar dip
\n - tremolo bar dive
-/n - tremolo bar Release up
/n\ - tremolo bar inverted dip
/n - tremolo bar return
-\n - tremolo bar Release down
S - shift slide
s - legato slide
/ -  slide into from below or out of upwards
\ -  slide into from above or out of downwards
~ - vibrato
W - wide vibrato
tr - trill
TP - tremolo picking
T - tapping
S - slap
P - pop
< - fade in
^ - brush up
v - brush down
comments
We did not receive enough feedback on this tab! Please rate:
print report bad tab
1 2 3 4 5
I want to post or [tab]
guest
You may want to rate the tab now too:
select rating
Please do not post tabs as comments. Select "correction" instead!