Oops, an error
Loading. Please wait.

Romance Is Dead Tab

ver5
ver5

Whole song

More versions @911Tabs.com
958 views 18 this week
3 commentsread comments
1 2 3 4 5
excellent!
x 2
Autoscroll
+/-
esc
set tempo
stop
Contributor
Tuning
B F# B E G# C#
WARNING: You are trying to view
                                    content from Ultimate-Guitar.com
                                    in an unauthorized application,
                                    which is prohibited.

                                    Please use an official Ultimate
                                    Guitar Tabs application for iPhone,
                                    iPad or Android to access legitimate
                                    chords, guitar, bass, and drum tabs
                                    from Ultimate-Guitar.com database.

                                    Type "ultimate guitar tabs" in Apple
                                    App Store's or Android Market's
                                    search to find the application.
PARKWAY DRIVE

ROMANCE IS DEAD

B-F#-B-E-G#-C#

TABBED BY andherembrace





L
------------------------------------------------------------------|
------------------------------------------------------------------|
------------------------------------------------------------------|
------------------------------------------------------------------|
---------------------0-0-000-0-0----------------------------------|
---------------------0-0-000-0-0----------------------------------|
.                    * * *** * *
R
------------------------------------------------------------------|
------------------------------------------------------------------|
------------------------------------------------------------------|
-3-----3---------3---------------3-----3---------3-----3--2-----2-|
---7-7---7-7-3-5---5-0-0-000-0-0---7-7---7-7-3-5---3--------3-----|
---------------------0-0-000-0-0---------------------3--------5---|
.                    * * *** * *

L
------------------------------------------------------------------|
------------------------------------------------------------------|
------------------------------------------------------------------|
------------------------------------------------------------------|
---------------------0-0-000-0-0----------------------------------|
---------------------0-0-000-0-0----------------------------------|
.                    * * *** * *

R
------------------------------------------------------------------|
------------------------------------------------------------------|
---------------------------------------------------------1010-9---|
-3-----3---------3---------------3-----3---------3-----3--X-X-X---|
---7-7---7-7-3-5---5-0-0-000-0-0---7-7---7-7-3-5---3------8-8-7---|
---------------------0-0-000-0-0---------------------3------------|
.                    * * *** * *



0:11

------------------------------------------------------------------|
------------------------------------------------------------------|
------------------------------------------------------------------|
-3-----3---------3---------------3-----3---------3-----3--2-----2-|
---7-7---7-7-3-5---5-0-0-000-0-0---7-7---7-7-3-5---3--------3-----|
---------------------0-0-000-0-0---------------------3--------5---|
.                    * * *** * *

------------------------------------------------------------------|
------------------------------------------------------------------|
---------------------------------------------------------1010-9---|
-3-----3---------3---------------3-----3---------3-----3--X-X-X---|
---7-7---7-7-3-5---5-0-0-000-0-0---7-7---7-7-3-5---3------8-8-7---|
---------------------0-0-000-0-0---------------------3------------|
.                    * * *** * *

------------------------------------------------------------------|
------------------------------------------------------------------|
------------------------------------------------------------------|
-3-----3---------3---------------3-----3---------3-----3--2-----2-|
---7-7---7-7-3-5---5-0-0-000-0-0---7-7---7-7-3-5---3--------3-----|
---------------------0-0-000-0-0---------------------3--------5---|
.                    * * *** * *
                                                          L   R
-------------------------------------------------------------------|
-------------------------------------------------------------------|
---------------------------------------------------------10--------|
-3-----3---------3---------------3-----3---------3-----3--X---10---|
---7-7---7-7-3-5---5-0-0-000-0-0---7-7---7-7-3-5---3------8------8-|
---------------------0-0-000-0-0---------------------3-------------|
.                    * * *** * *




0:32
-------------------------------------------------------------------|
-------------------------------------------------------------------|
-------------------------------------------------------------------|
-----------7----------------10-------------7-----------------10----|
-5-------------8----3---7------8-5-------------/10--8-7--8-7----8--|
---0-0-0-0---0----0---0---0--------0-0-0-0---0---------------------|
.  * *   *   *    *   *   *        * *   *   *

L
-------------------------------------------------------------------|
-------------------------------------------------------------------|
-------------------------------------------------------------------|
-----------7----------------10-------------7-----------------10----|
-5-------------8----3---7------8-5-------------/7--5-3--5-3-----8--|
---0-0-0-0---0----0---0---0--------0-0-0-0---0---------------------|
.  * *   *   *    *   *   *        * *   *   *
R
----------------------------------------------------------------|
----------------------------------------------------------------|
----------------------------------------------------------------|
-----------7----------------10-------------7--------------------|
-5-------------8----3---7------8-5-------------/10--8-7--8-7-3--|
---0-0-0-0---0----0---0---0--------0-0-0-0---0------------------|
.  * *   *   *    *   *   *        * *   *   *



-------------------------------------------------------------------|
-------------------------------------------------------------------|
-------------------------------------------------------------------|
-----------7----------------10-------------7-----------------10----|
-5-------------8----3---7------8-5-------------/10--8-7--8-7----8--|
---0-0-0-0---0----0---0---0--------0-0-0-0---0---------------------|
.  * *   *   *    *   *   *        * *   *   *

L
----------------------------------------------------------------|
----------------------------------------------------------------|
----------------------------------------------------------------|
-----------7----------------10-------------7--------------------|
-5-------------8----3---7------8-5--------------/7--5-3--5-3-7--|
---0-0-0-0---0----0---0---0--------0-0-0-0---0------------------|
.  * *   *   *    *   *   *        * *   *   *
R
----------------------------------------------------------------|
----------------------------------------------------------------|
----------------------------------------------------------------|
-----------7----------------10-------------7--------------------|
-5-------------8----3---7------8-5-------------/10--8-7--8-7-3--|
---0-0-0-0---0----0---0---0--------0-0-0-0---0------------------|
.  * *   *   *    *   *   *        * *   *   *
 


0:53
L
------------------------------------------------------------------|
------------------------------------------------------------------|
------------------------------------------------------------------|
---------------------------7-7-7--------------------7-7-7-5-5-5-5-|
-0-----0---0-0-----0---0---8-8-8--0-----0---0-0-----8-8-8-7-7-7-7-|
-0-0-0-0-0-0-0-0-0-0-0-0-0--------0-0-0-0-0-0-0-0-0---------------|
   * *   *     * *   *   *          * *   *     * *
R
------------------------------------------------------------------|
------------------------------------------------------------------|
------------------------------------------------------------------|
---------------------------7-7-7--------------------5-5-5-2-2-2-2-|
-0-----0---0-0-----0---0---8-8-8--0-----0---0-0-----7-7-7-3-3-3-3-|
-0-0-0-0-0-0-0-0-0-0-0-0-0--------0-0-0-0-0-0-0-0-0---------------|
   * *   *     * *   *   *          * *   *     * *


1:04
L
---------------------------------------------------------------|
---------------------------------------------------------------|
---------------------------------------------------------------|
-------------------------7-7-7-------------------7-7-7-5-5-5-5-|
-0-----0---0-0-----------8-8-8-0-----0---0-0-----8-8-8-7-7-7-7-|
-0-0-0-0-0-0-0-|-0-0-0-0-------0-0-0-0-0-0-0-0-0---------------|
   * *   *       * * * *         * *   *     * *
R
---------------------------------------------------------------|
---------------------------------------------------------------|
---------------------------------------------------------------|
-------------------------7-7-7-------------------5-5-5-2-2-2-2-|
-0-----0---0-0-----------8-8-8-0-----0---0-0-----7-7-7-3-3-3-3-|
-0-0-0-0-0-0-0-|-0-0-0-0-------0-0-0-0-0-0-0-0-0---------------|
   * *   *       * * * *         * *   *     * *
L
---------------------------------------------------------------|
---------------------------------------------------------------|
---------------------------------------------------------------|
-------------------------7-7-7-------------------7-7-7-5-5-5-5-|
-0-----0---0-0-----------8-8-8-0-----0---0-0-----8-8-8-7-7-7-7-|
-0-0-0-0-0-0-0-|-0-0-0-0-------0-0-0-0-0-0-0-0-0---------------|
   * *   *       * * * *         * *   *     * *
R
---------------------------------------------------------------|
---------------------------------------------------------------|
---------------------------------------------------------------|
-------------------------7-7-7-------------------5-5-5-2-2-2-2-|
-0-----0---0-0-----------8-8-8-0-----0---0-0-----7-7-7-3-3-3-3-|
-0-0-0-0-0-0-0-|-0-0-0-0-------0-0-0-0-0-0-0-0-0---------------|
   * *   *       * * * *         * *   *     * *



1:15
L
------------------------------------------------------------------|
------------------------------------------------------------------|
------------------------------------------------------------------|
-3-----3---------3---------------3-----3---------3-----3--2-----2-|
---7-7---7-7-3-5---5-0-0-000-0-0---7-7---7-7-3-5---3--------3-----|
---------------------0-0-000-0-0---------------------3--------5---|
.                    * * *** * *

L
------------------------------------------------------------------|
------------------------------------------------------------------|
---------------------------------------------------------1010-9---|
-3-----3---------3---------------3-----3---------3-----3--X-X-X---|
---7-7---7-7-3-5---5-0-0-000-0-0---7-7---7-7-3-5---3------8-8-7---|
---------------------0-0-000-0-0---------------------3------------|
.                    * * *** * *
R
-------------------------------------------------------------------|
-------------------------------------------------------------------|
----------------------------------------------------------14-14-12-|
-----------------------------------------------------------X--X--X-|
----------------------------------------------------------12-12-10-|
-------------------------------------------------------------------|



1:26
------------------------------------------------------------------|
------------------------------------------------------------------|
------------------------------------------------------------------|
-3-----3---------3---------------3-----3---------3-----3--2-----2-|
---7-7---7-7-3-5---5-000-000-000---7-7---7-7-3-5---3--------3-----|
---------------------000-000-000---------------------3--------5---|
.                    *** *** ***

L
------------------------------------------------------------------|
------------------------------------------------------------------|
---------------------------------------------------------1010-9---|
-3-----3---------3---------------3-----3---------3-----3--X-X-X---|
---7-7---7-7-3-5---5-000-000-000---7-7---7-7-3-5---3------8-8-7---|
---------------------000-000-000---------------------3------------|
.                    *** *** ***
R
------------------------------------------------------------------|
------------------------------------------------------------------|
---------------------------------------------------------14-14-12-|
-3-----3---------3---------------3-----3---------3-----3--X--X--X-|
---7-7---7-7-3-5---5-000-000-000---7-7---7-7-3-5---3-----12-12-10-|
---------------------000-000-000---------------------3------------|
.                    *** *** ***



1:37
----------------------------------------------------------|
----------------------------------------------------------|
----------------------------------------------------------|
-3-5-3---7-5-----0000-0000-0000-0000-0000-0000-0000-0000--|
-1-3-1-3-5-3-3-5-0000-0000-0000-0000-0000-0000-0000-0000--|
-------3-----3-5-0000-0000-0000-0000-0000-0000-0000-0000--|
.* * * * * * * * **** **** **** **** **** **** **** ****

LXXXXXXXXXXXXXXXXXXX
----------------------------------------|
----------------------------------------|
----------------------------------------|
-0000-0000-0000-0000-----------8--------|
-0000-0000-0000-0000-----------8\-------|
-0000-0000-0000-0000--------------------|
 **** **** **** ****
RXXXXXXXXXXXXXXXXXXX
----------------------------------------|
----------------------------------------|
----------------------------------------|
-0000-0000-0000-0000-3-----3-2----3-2---|
-0000-0000-0000-0000---3-------3--------|
-0000-0000-0000-0000-----3--------------|



1:47
L
---------------------------------------------------------------|
---------------------------------------------------------------|
----------------------------------------------3---3------------|
-0-0-0-0-00-00--0-0-0-0-00-00--0-0-0-0-00-00----7---7--3-----3-|
-0-0-0-0-00-00--0-0-0-0-00-00--0-0-0-0-00-00-------------7-----|
-0-0-0-0-00-00--0-0-0-0-00-00--0-0-0-0-00-00---------------5---|
.* * * * ** **  * * * * ** **  * * * * ** **
R
---------------------------------------------------------------|
---------------------------------------------------------------|
---------------------------------------------------------------|
-0-0-0-0-00-00--0-0-0-0-00-00--0-0-0-0-00-00--3-----3-2-----2--|
-0-0-0-0-00-00--0-0-0-0-00-00--0-0-0-0-00-00----3-------3------|
-0-0-0-0-00-00--0-0-0-0-00-00--0-0-0-0-00-00------3-------5----|



-----------------------------------------------|
-----------------------------------------------|
-----------------------------------------------|
-0-0-0-0-00-00--0-0-0-0-00-00--0-0-0-0-00-00---|
-0-0-0-0-00-00--0-0-0-0-00-00--0-0-0-0-00-00---|
-0-0-0-0-00-00--0-0-0-0-00-00--0-0-0-0-00-00---|
.* * * * ** **  * * * * ** **  * * * * ** **


L
--------------------------------------------------------------|
--------------------------------------------------------------|
----------------------------------------------3---3-----------|
-00000-0-00-00--00000-0-00-00--00000-0-00-00----7---7-3-----3-|
-00000-0-00-00--00000-0-00-00--00000-0-00-00------------7-----|
-00000-0-00-00--00000-0-00-00--00000-0-00-00--------------5---|
.***** * ** **  ***** * ** **  ***** * ** **
R
---------------------------------------------------------------|
---------------------------------------------------------------|
---------------------------------------------10------9-9-----9-|
-00000-0-00-00--00000-0-00-00--00000-0-00-00---14-10----10-----|
-00000-0-00-00--00000-0-00-00--00000-0-00-00--------------12---|
-00000-0-00-00--00000-0-00-00--00000-0-00-00-------------------|
.***** * ** **  ***** * ** **  ***** * ** **

L
--------------------------------------------------------------|
--------------------------------------------------------------|
----------------------------------------------3---3-----------|
-00000-0-00-00--00000-0-00-00--00000-0-00-00----7---7-3-------|
-00000-0-00-00--00000-0-00-00--00000-0-00-00------------7-----|
-00000-0-00-00--00000-0-00-00--00000-0-00-00--------------15\-|
.***** * ** **  ***** * ** **  ***** * ** **
R
---------------------------------------------------------------|
---------------------------------------------------------------|
---------------------------------------------------------------|
-00000-0-00-00--00000-0-00-00--00000-0-00-00--3-----3-2--------|
-00000-0-00-00--00000-0-00-00--00000-0-00-00----3-------3------|
-00000-0-00-00--00000-0-00-00--00000-0-00-00------3-------15\--|
.***** * ** **  ***** * ** **  ***** * ** **




L
---------------------------------------------------------------|
---------------------------------------------------------------|
---------------------------------------------------------------|
---------------------------10----------------------------------|
------------------------------8-5------------------------------|
---------------------------------------------------------------|

R
-------------------------------------------------------------------|
-------------------------------------------------------------------|
-------------------------------------------------------------------|
-----------7----------------10-------------7-----------------10----|
-5-------------8----3---7------8-5-------------/10--8-7--8-7----8--|
---0-0-0-0---0----0---0---0--------0-0-0-0---0---------------------|
.  * *   *   *    *   *   *        * *   *

L
-----------------------------------------------------------------|
-----------------------------------------------------------------|
-----------------------------------------------------------------|
---------------------------10-------------------------------10---|
-0----------------------------8-5--------------/7--5-3--5-3----8-|
-0-|-------------------------------------------------------------|

R
-------------------------------------------------------------------|
-------------------------------------------------------------------|
-------------------------------------------------------------------|
-----------7----------------10-------------7-----------------10----|
-5-------------8----3---7------8-5-------------/10--8-7--8-7----8--|
---0-0-0-0---0----0---0---0--------0-0-0-0---0---------------------|
.  * *   *   *    *   *   *        * *   *



-------------------------------------------------------------------|
-------------------------------------------------------------------|
-------------------------------------------------------------------|
-----------7----------------10-------------7-----------------10----|
-5-------------8----3---7------8-5-------------/10--8-7--8-7----8--|
---0-0-0-0---0----0---0---0--------0-0-0-0---0---------------------|
.  * *   *   *    *   *   *        * *   *

L
------------------------------------------------------------------|
------------------------------------------------------------------|
------------------------------------------------------------------|
-----------7----------------10-------------7-----------------10---|
-5-------------8----3---7------8-5--------------/7--5-3--5-3----8-|
---0-0-0-0---0----0---0---0--------0-0-0-0---0--------------------|
.  * *   *   *    *   *   *        * *   *
R
-----------------------------------------------------------------|
-----------------------------------------------------------------|
-----------------------------------------------------------------|
-----------7----------------10-------------7---------------------|
-5-------------8----3---7------8-5-------------/10--8-7--8-7-7-8-|
---0-0-0-0---0----0---0---0--------0-0-0-0---0-------------------|
.  * *   *   *    *   *   *        * *   *


L
-------------------------------------------------------------------|
-------------------------------------------------------------------|
-------------------------------------------------------------------|
-----------7----------------10-------------7-----------------10----|
-5-------------8----3---7------8-5-------------/10--8-7--8-7----8--|
---0-0-0-0---0----0---0---0--------0-0-0-0---0---------------------|
.  * *   *   *    *   *   *        * *   *

-------------------------------------------------------------------|
-------------------------------------------------------------------|
-------------------------------------------------------------------|
----------------3--3-3-5-5-5-5-5----------------10-10-10-5-5-5-5-5-|
-0--------------1--1-1-3-3-3-3-3-0--------------8--8--8--3-3-3-3-3-|
-0-000000000000------------------0-000000000000--------------------|
.  ************                    ************


L
-----------------------------------------------------------------------|
-----------------------------------------------------------------------|
------------------------------------------------------------------5----|
-----------7----------------10-------------7-----------------7-5-3--3-2|
-5-------------8----3---7------8-5------------/10--8-7--8-7-3----------|
---0-0-0-0---0----0---0---0--------0-0-0-0---0-------------------------|
.  * *   *   *    *   *   *        * *   *

----------------------------------------------------------------------|
----------------------------------------------------------------------|
----------------------------------------------------------------------|
---------------3-3-3-5-5-5-5-5----------------------------------------|
0--------------1-1-1-3-3-3-3-3-0-------------131210-12108-12108-7-5-3-|
0-000000000000-----------------0-000000000000-------------------------|
. ************                   ************

 
 

               2
----------------------------------|
----------------------------------|
----------------------------------|
----------------------------------|
-000-000-000-000-XXX-XXX-XXX-XXX--|
-000-000-000-000-XXX-XXX-XXX-XXX--|



L
--------------------------------------------------|
--------------------------------------------------|
-99-00-55-77-99-77-55-00-99-00-55-77-99-77-55-00--|
--------------------------------------------------|
--------------------------------------------------|
--------------------------------------------------|

R
--------------------------------------------------|
--------------------------------------------------|
-------------------------------------7------------|
-------------------------------------X------------|
-3-----------------------------------5------------|
-3------------------------------------------------|


L
---------------------------------------------------------------|
---------------------------------------------------------------|
-77-00-44-55-77-55-44-00-77-00-44-55-77-55-44-00---------------|
---------------------------------------------------------------|
---------------------------------------------------------------|
---------------------------------------------------------------|

R
---------------------------------------------------------------|
---------------------------------------------------------------|
------------------------------------10-------------------------|
-------------------------------------X-------------------------|
-0-----------------------------------8-------------------------|
-0-------------------------------------------------------------|


L
--------------------------------------------------|
--------------------------------------------------|
-99-00-55-77-99-77-55-00-99-00-55-77-99-77-55-00--|
--------------------------------------------------|
--------------------------------------------------|
--------------------------------------------------|

R
--------------------------------------------------|
--------------------------------------------------|
-------------------------------------7------------|
-------------------------------------X------------|
-3-----------------------------------5------------|
-3------------------------------------------------|


L
---------------------------------------------------------------|
---------------------------------------------------------------|
-77-00-44-55-77-55-44-00-77-00-44-55-77-55-44-00---------------|
---------------------------------------------------------------|
---------------------------------------------------------------|
---------------------------------------------------------------|

R
---------------------------------------------------------------|
---------------------------------------------------------------|
------------------------------------12-------------------------|
-------------------------------------X-------------------------|
-0----------------------------------10-------------------------|
-0-------------------------------------------------------------|

---------------------------------------------------------------|
---------------------------------------------------------------|
---------------------------------------------------------------|
---------------------------------------------------------------|
---------------------------------------------------------------|
---------------------------------------------------------------|


L
--------------------------------------------------|
--------------------------------------------------|
-99-00-55-77-99-77-55-00-99-00-55-77-99-77-55-00--|
--------------------------------------------------|
--------------------------------------------------|
--------------------------------------------------|

R
--------------------------------------------------|
--------------------------------------------------|
-------------------------------------7------------|
-------------------------------------X------------|
-3-----------------------------------5------------|
-3------------------------------------------------|


L
---------------------------------------------------------------|
---------------------------------------------------------------|
-77-00-44-55-77-55-44-00-77-00-44-55-77-55-44-00---------------|
---------------------------------------------------------------|
---------------------------------------------------------------|
---------------------------------------------------------------|

R
---------------------------------------------------------------|
---------------------------------------------------------------|
------------------------------------10-------------------------|
-------------------------------------X-------------------------|
-0-----------------------------------8-------------------------|
-0-------------------------------------------------------------|


L
--------------------------------------------------|
--------------------------------------------------|
-99-00-55-77-99-77-55-00-99-00-55-77-99-77-55-00--|
--------------------------------------------------|
--------------------------------------------------|
--------------------------------------------------|

R
--------------------------------------------------|
--------------------------------------------------|
-------------------------------------7------------|
-------------------------------------X------------|
-3-----------------------------------5------------|
-3------------------------------------------------|


L
---------------------------------------------------------------|
---------------------------------------------------------------|
-77-00-44-55-77-55-44-00-77-00-44-55-77-55-44-00---------------|
---------------------------------------------------------------|
---------------------------------------------------------------|
---------------------------------------------------------------|

R
---------------------------------------------------------------|
---------------------------------------------------------------|
------------------------------------12-12-12-------------------|
-------------------------------------X--X--X-------------------|
-0----------------------------------10-10-10-------------------|
-0-------------------------------------------------------------|


L
--------------------------------------------------|
--------------------------------------------------|
-99-00-55-77-99-77-55-00-99-00-55-77-99-77-55-00--|
--------------------------------------------------|
--------------------------------------------------|
--------------------------------------------------|
 ************************************************

---------------------------------------------------|
---------------------------------------------------|
------------------------------------7-7-7----------|
------------------------------------X-X-X----------|
-3-------3--------3-------3---------5-5-5----------|
-3---3-3-3--3-3-3-3---3-3-3---3-3------------------|
     * *    * * *     * *     * * 

L
---------------------------------------------------------------|
---------------------------------------------------------------|
-77-00-44-55-77-55-44-00-77-00-44-55-77-55-44-00---------------|
---------------------------------------------------------------|
---------------------------------------------------------------|
---------------------------------------------------------------|
*************************************************

R
---------------------------------------------------------------|
---------------------------------------------------------------|
-----------------------------------10-10-10--------------------|
------------------------------------X--X--X--------------------|
-0-------0--------0-------0---------8--8--8--------------------|
-0---0-0-0--0-0-0-0---0-0-0---0-0------------------------------|
     * *    * * *     * *     * *
L
--------------------------------------------------|
--------------------------------------------------|
-99-00-55-77-99-77-55-00-99-00-55-77-99-77-55-00--|
--------------------------------------------------|
--------------------------------------------------|
--------------------------------------------------|
 ************************************************

---------------------------------------------------|
---------------------------------------------------|
------------------------------------7-7-7----------|
------------------------------------X-X-X----------|
-3-------3--------3-------3---------5-5-5----------|
-3---3-3-3--3-3-3-3---3-3-3---3-3------------------|
     * *    * * *     * *     * * 

L
---------------------------------------------------------------|
---------------------------------------------------------------|
-77-00-44-55-77-55-44-00-77-00-44-55-77-55-44-00---------------|
---------------------------------------------------------------|
---------------------------------------------------------------|
---------------------------------------------------------------|
****************

R
---------------------------------------------------------------|
---------------------------------------------------------------|
-----------------------------------12-12-12--------------------|
------------------------------------X--X--X--------------------|
-0-------0--------0-------0--------10-10-10--------------------|
-0---0-0-0--0-0-0-0---0-0-0---0-0------------------------------|
     * *    * * *     * *     * *



3:32


  ^    ^    ^    ^    ^    ^    ^    ^             
13-5-12-5-15-5-13-5-12-5-10-5-13-5-12-5---|
------------------------------------------|
-T----T----T----T----T----T----T----T-----|
------------------------------------------|
------------------------------------------|
------------------------------------------|

---^----^----^----^----^----^----^----^---|
-13-8-12-8-15-8-13-8-12-8-10-8-13-8-12-8--|
------------------------------------------|
--T----T----T----T----T----T----T----T----|
------------------------------------------|
------------------------------------------|


  ^    ^    ^    ^    ^    ^    ^    ^             
13-5-12-5-15-5-13-5-12-5-10-5-13-5-12-5---|
------------------------------------------|
-T----T----T----T----T----T----T----T-----|
------------------------------------------|
------------------------------------------|
------------------------------------------|

---^----^----^----^----^----^----^----^---|
-13-8-12-8-15-8-13-8-12-8-10-8-13-8-12-8--|
------------------------------------------|
--T----T----T----T----T----T----T----T----|
------------------------------------------|
------------------------------------------|


3:38

L
  ^    ^    ^    ^    ^    ^    ^    ^             
13-5-12-5-15-5-13-5-12-5-10-5-13-5-12-5---|
------------------------------------------|
-T----T----T----T----T----T----T----T-----|
------------------------------------------|
------------------------------------------|
------------------------------------------|

   _      _      _      _      _      _      _      _
R / \    / \    / \    / \    / \    / \    / \    / \
171012-171012-171012-171012-171012-171012-171012-171012-|
--------------------------------------------------------|
-T-----T------T------T------T------T------T------T------|
--------------------------------------------------------|
--------------------------------------------------------|
--------------------------------------------------------|

L
---^----^----^----^----^----^----^----^---|
-13-8-12-8-15-8-13-8-12-8-10-8-13-8-12-8--|
------------------------------------------|
--T----T----T----T----T----T----T----T----|
------------------------------------------|
------------------------------------------|
R   _      _      _      _      _      _      _      _
   / \    / \    / \    / \    / \    / \    / \    / \
-15-810-15-810-15-810-15-810-15-810-15-810-15-810-15-810-|
--T-----T------T------T------T------T------T-----T-------|
---------------------------------------------------------|
---------------------------------------------------------|
---------------------------------------------------------|
---------------------------------------------------------|


L
  ^    ^    ^    ^    ^    ^    ^    ^             
13-5-12-5-15-5-13-5-12-5-10-5-13-5-12-5---|
------------------------------------------|
-T----T----T----T----T----T----T----T-----|
------------------------------------------|
------------------------------------------|
------------------------------------------|

   _      _      _      _      _      _      _      _
R / \    / \    / \    / \    / \    / \    / \    / \
171012-171012-171012-171012-171012-171012-171012-171012-|
--------------------------------------------------------|
-T-----T------T------T------T------T------T------T------|
--------------------------------------------------------|
--------------------------------------------------------|
--------------------------------------------------------|

L
---^----^----^----^----^----^----^----^---|
-13-8-12-8-15-8-13-8-12-8-10-8-13-8-12-8--|
------------------------------------------|
--T----T----T----T----T----T----T----T----|
------------------------------------------|
------------------------------------------|
R   _      _      _      _      _      _      _      _
   / \    / \    / \    / \    / \    / \    / \    / \
-15-810-15-810-15-810-15-810-15-810-15-810-15-810-15-810-|
--T-----T------T------T------T------T------T-----T-------|
---------------------------------------------------------|
---------------------------------------------------------|
---------------------------------------------------------|
---------------------------------------------------------|


3:45
-----------------------------------------------------------|
-----------------------------------------------------------|
------/12--------------------------------------------------|
-7--------10-9----5----/9-5-7----3----5-7-9---5----/9-5-7--|
-7----------------5--------------3------------5------------|
-7----------------5--------------3------------5------------|

-----------------------------------------------------------|
-----------------------------------------------------------|
------/12--------------------------------------------------|
-7--------10-9----5----/9-5-7----3----5-7-9---5----/9-5-7--|
-7----------------5--------------3------------5------------|
-7----------------5--------------3------------5------------|


3:58
+ BOTH TAPPING RIFFS
-----------------------------------------------------------|
-----------------------------------------------------------|
------/12--------------------------------------------------|
-7--------10-9----5----/9-5-7----3----5-7-9---5----/9-5-7--|
-7----------------5--------------3------------5------------|
-7----------------5--------------3------------5------------|

-----------------------------------------------------------|
-----------------------------------------------------------|
------/12--------------------------------------------------|
-7--------10-9----5----/9-5-7----3----5-7-9---5----/9-5-7--|
-7----------------5--------------3------------5------------|
-7----------------5--------------3------------5------------|



4:12
-------------------------------------------------------------|
-------------------------------------------------------------|
------/12----------------------------/12---------------------|
-7--------10-9----5----/9-5-7---7--------10-9----5----/9-5-7-|
-7----------------5-------------7----------------5-----------|
-7----------------5-------------7----------------5-----------|

-------------------------------------------------------------|
-------------------------------------------------------------|
------/12----------------------------/12---------------------|
-7--------10-9----5----/9-5-7---7--------10-9----5----/9-5-7-|
-7----------------5-------------7----------------5-----------|
-7----------------5-------------7----------------5-----------|
comments
We did not receive enough feedback on this tab! Please rate:
print report bad tab
1 2 3 4 5
3 comments total.
0 reply
Leviathan Lover wrote on November 19 2013, 09:27 am

So after all this time I still can't figure out the /-\ And I feel daft as all hell. Is there a video out there explaining them...like in detail because I'm not very gifted at learning unless it's all spelled for me in black and white haha

0 reply
andherembrace wrote on November 19 2013, 01:13 pm

no problem man, i use the symbol you typed for hammer on/pulloffs that include 3 notes or more. @ 3:38 for example,you pick 17 or in this case tap 'T' it,pull off to 10 (most likely index finger) and then hammer on to 12(ring finger),think of them as domes,in cases where there is no tapping, the note under the'/' is picked,the rest are hammer ons or pulloffs,hopefully that helps if you have anymore questions dont hesitate to ask,it also may help to look up some concert footage on youtube for some of the parts youre having trouble with :)

0 reply
Leviathan Lover wrote on November 19 2013, 08:06 pm

Perfect! Thank you so much!

I want to post or [tab]
guest
You may want to rate the tab now too:
select rating
Please do not post tabs as comments. Select "correction" instead!