Oops, an error
Loading. Please wait.

Sleepwalker Tab

ver6
ver6

Intro

Solo

More versions @911Tabs.com
8,255 views 3 this week
no commentswrite comment
1 2 3 4 5
accurate
x 2
Autoscroll
+/-
esc
set tempo
stop
Contributor
Difficulty
Tuning
intermediate
A# F A# D# G C
WARNING: You are trying to view
                                    content from Ultimate-Guitar.com
                                    in an unauthorized application,
                                    which is prohibited.

                                    Please use an official Ultimate
                                    Guitar Tabs application for iPhone,
                                    iPad or Android to access legitimate
                                    chords, guitar, bass, and drum tabs
                                    from Ultimate-Guitar.com database.

                                    Type "ultimate guitar tabs" in Apple
                                    App Store's or Android Market's
                                    search to find the application.
----------------------------------------------------------------------------
                                 Sleepwalker
                               Parkway Drive
----------------------------------------------------------------------------

Alright! My favorite song by Parkway Drive one because it has a sweet hardcore riff, and 
two because the solo isn’t impossible, but sounds awesome. Tip on reading my tab - When 
I make a tab, I put them in section from Guitar 1 to Guitar 2 to ect. For example 
the intro riff has no Guitar 2 part, so it is just Guitar 1 again and again. On the Bridge 1, 
the Guitar 1 and Guitar 2 are played at the same time. Enjoy!

Username: dkm817 (same on X box live)
Email: guitardrums@rockfan.com

(Tab Legend at bottom)
Guitar 1 Rhythmic (A# F A# D# G C)
Guitar 2 Lead     (A# F A# D# G C)
Guitar 3 Fill     (A# F A# D# G C)-Only at the solo and outro, so there is no real need for it.

Intro 1

Guitar 1 (Fade In)
C --------------------------------------------------------------|
G --------------------------------------------------------------|
D#--------------------------------------------------------------|
A#--------------------------------------------------------------|
F -------------0h3h5---------0h3h5--------------7-------7---8---|
A#-0---0-------------0-------------0-------7h10-----10----------|

Guitar 1
C --------------------------------------------------------------|
G --------------------------------------------------------------|
D#--------------------------------------------------------------|
A#--------------------------------------------------------------|
F -------------0h3h5---------0h3h5--------------7-------7---8---|
A#-0---0-------------0-------------0-------7h10-----10----------|

Guitar 1
C --------------------------------------------------------------|
G --------------------------------------------------------------|
D#--------------------------------------------------------------|
A#--------------------------------------------------------------|
F -------------0h3h5---------0h3h5--------------7-------7---8---|
A#-0---0-------------0-------------0-------7h10-----10----------|

Guitar 1
C --------------------------------------------------------------|
G --------------------------------------------------------------|
D#--------------------------------------------------------------|
A#--------------------------------------------------------------|
F -------------0h3h5--------------------------------------------|
A#-0---0-------------0-------0---0------------------------------|

Intro 2

Guitar 1 & 2
C --------------------------------------------------------------|
G --------------------------------------------------------------|
D#--------------------------------------------------------------|
A#--------------------------------------------------------------|
F -------------0h3h5---------0h3h5--------------7-------7---8---|
A#-0---0-------------0-------------0-------7h10-----10----------|

Guitar 1 & 2
C --------------------------------------------------------------|
G --------------------------------------------------------------|
D#--------------------------------------------------------------|
A#--------------------------------------------------------------|
F -------------0h3h5---------0h3h5--------------7-------7---8---|
A#-0---0-------------0-------------0-------7h10-----10----------|

Guitar 1 & 2
C --------------------------------------------------------------|
G --------------------------------------------------------------|
D#--------------------------------------------------------------|
A#--------------------------------------------------------------|
F -------------0h3h5---------0h3h5--------------7-------7---8---|
A#-0---0-------------0-------------0-------7h10-----10----------|

Guitar 1 & 2
C --------------------------------------------------------------|
G --------------------------------------------------------------|
D#--------------------------------------------------------------|
A#--------------------------------------------------------------|
F -------------0h3h5---------0h3h5--------------7-------7---8---|
A#-0---0-------------0-------------0-------7h10-----10----------|

Verse 1

Guitar 1 & 2 (121212 are 3 12’s, 101010 are 3 10’s)
C -----------------------------------------------------------------|
G -----------------------------------------------------------------|
D#-----------------------------------------------------------------|
A#-----------------------------------------------------------------|
F -------------------------101010--------------------------121212--|
A#-0-0-0---0-0-0---0-0-0-----------0-0-0---0-0-0---0-0-0-----------|
Pm . . .   . . .   . . .   . . .   . . .   . . .   . . .   . . .

Guitar 1 & 2
C -----------------------------------------------------------------|
G -----------------------------------------------------------------|
D#-----------------------------------------------------------------|
A#-----------------------------------------------------------------|
F ---------8-8-8---8-8-8---7-7-7---8-8-8---7-7-7---5-5-5---3-3-3---|
A#-0-0-0-----------------------------------------------------------|
Pm . . .   . . .   . . .   . . .   . . .   . . .   . . .   . . .

Guitar 1 & 2
C -----------------------------------------------------------------|
G -----------------------------------------------------------------|
D#-----------------------------------------------------------------|
A#-----------------------------------------------------------------|
F -------------------------101010--------------------------121212--|
A#-0-0-0---0-0-0---0-0-0-----------0-0-0---0-0-0---0-0-0-----------|
Pm . . .   . . .   . . .   . . .   . . .   . . .   . . .   . . .

Guitar 1 & 2
C -----------------------------------------------------------------|
G -----------------------------------------------------------------|
D#-----------------------------------------------------------------|
A#-----------------------------------------------------------------|
F ---------8-8-8---8-8-8---7-7-7---8-8-8---7-7-7---5-5-5---3-3-3---|
A#-----------------------------------------------------------------|
Pm         . . .   . . .   . . .   . . .   . . .   . . .   . . .

Guitar 1 & 2
C -----------------------------------------------------------------|
G -----------------------------------------------------------------|
D#-----------------------------------------------------------------|
A#-----------------------------------------------------------------|
F -------------------------101010--------------------------121212--|
A#-0-0-0---0-0-0---0-0-0-----------0-0-0---0-0-0---0-0-0-----------|
Pm . . .   . . .   . . .   . . .   . . .   . . .   . . .   . . .

Guitar 1 & 2
C -----------------------------------------------------------------|
G -----------------------------------------------------------------|
D#-----------------------------------------------------------------|
A#-----------------------------------------------------------------|
F ---------8-8-8---8-8-8---7-7-7---8-8-8---7-7-7---5-5-5---3-3-3---|
A#-0-0-0-----------------------------------------------------------|
Pm . . .   . . .   . . .   . . .   . . .   . . .   . . .   . . .

Guitar 1 & 2
C -----------------------------------------------------------------|
G -----------------------------------------------------------------|
D#-----------------------------------------------------------------|
A#-----------------------------------------------------------------|
F -------------------------101010--------------------------121212--|
A#-0-0-0---0-0-0---0-0-0-----------0-0-0---0-0-0---0-0-0-----------|
Pm . . .   . . .   . . .   . . .   . . .   . . .   . . .   . . .

Guitar 1 & 2
C -----------------------------------------------------------------|
G -----------------------------------------------------------------|
D#-----------------------------------------------------------------|
A#-----------------------------------------------------------------|
F ---------8-8-8---8-8-8---7-7-7---8-8-8---7-7-7---5-5-5---3-3-3---|
A#-----------------------------------------------------------------|
Pm         . . .   . . .   . . .   . . .   . . .   . . .   . . .

Chorus 1

Guitar 1 & 2
C --------------------------------------------------------------|
G --------------------------------------------------------------|
D#--------------------------------------------------------------|
A#--------------------------------------------------------------|
F -------------0h3h5---------0h3h5--------------7-------7---8---|
A#-0---0-------------0-------------0-------7h10-----10----------|

Guitar 1 & 2
C --------------------------------------------------------------|
G --------------------------------------------------------------|
D#--------------------------------------------------------------|
A#--------------------------------------------------------------|
F -------------0h3h5---------0h3h5--------------7-------7---8---|
A#-0---0-------------0-------------0-------7h10-----10----------|

Guitar 1 & 2
C --------------------------------------------------------------|
G --------------------------------------------------------------|
D#--------------------------------------------------------------|
A#--------------------------------------------------------------|
F -------------0h3h5---------0h3h5--------------7-------7---8---|
A#-0---0-------------0-------------0-------7h10-----10----------|

Guitar 1 & 2
C --------------------------------------------------------------|
G --------------------------------------------------------------|
D#--------------------------------------------------------------|
A#--------------------------------------------------------------|
F -------------0h3h5---------0h3h5--------------7-------7---8---|
A#-0---0-------------0-------------0-------7h10-----10----------|

Bridge 1 (Tempo Increases)

Guitar 1
C ---------------------------------------------------------------------------------|
G ---------------------------------------------------------------------------------|
D#---------------------------------------------------------------------------------|
A#-12\~~~--0-0---0-0---0-0---0-0--0-0-12\~~~--0-0---0-0---0------------------------|
F -12\~~~--0-0---0-0---0-0---0-0--0-0-12\~~~--0-0---0-0---0------------------------|
A#-12\~~~--0-0---0-0---0-0---0-0--0-0-12\~~~--0-0---0-0---0------------------------|
Pm         . .   . .   . .   . .  . .         . .   . .   .

Guitar 2
C ---------------------------------------------------------------------------------|
G ---------------------------------------------------------------------------------|
D#--------------------------------------------------------7-10-10-10~-10-12-12-12~-|
A#-12\~~~--0-0---0-0---0-0---0-0--0-0-12\~~~--0-0---0-0---x-x--x--x---x--x--x--x---|
F -12\~~~--0-0---0-0---0-0---0-0--0-0-12\~~~--0-0---0-0---5-8--8--8~~-8--10-10-10~-|
A#-12\~~~--0-0---0-0---0-0---0-0--0-0-12\~~~--0-0---0-0----------------------------|
Pm         . .   . .   . .   . .  . .         . .   . .

Guitar 1 & 2
C -----------------------------------------------------------------|
G -----------------------------------------------------------------|
D -----------------------------------------------------------------|
A#-----------------------------------------------------------------|
F -------------------------5-5-5---------------------------7-7-7---|
A#-0-0-0---0-0-0---0-0-0-----------0-0-0---0-0-0---0-0-0-----------|
Pm . . .   . . .   . . .   . . .   . . .   . . .   . . .   . . .

Guitar 1 & 2 continued
C -------------------------------------------------|
G -------------------------------------------------|
D -7-10-10-10~-10-12-12-12~-12-14-14-14~-7-9-9-9~~-|
A#-x-x--x--x---x--x--x--x---x--x--x--x---x-x-x-x---|
F -5-8--8--8~~-8--10-10-10~-10-12-12-12~-5-7-7-7~~-|
A#-------------------------------------------------|

Guitar 1 & 2
C -----------------------------------------------------------------|
G -----------------------------------------------------------------|
D -----------------------------------------------------------------|
A#-----------------------------------------------------------------|
F -------------------------7-7-7---------------------------8-8-8---|
A#-0-0-0---0-0-0---0-0-0-----------0-0-0---0-0-0---0-0-0-----------|
Pm . . .   . . .   . . .   . . .   . . .   . . .   . . .   . . .

Guitar 1 & 2 continued
C -------------------------------------------------|
G -------------------------------------------------|
D -7-10-10-10~-10-12-12-12~-12-14-14-14~-7-9-9-9~~-|
A#-x-x--x--x---x--x--x--x---x--x--x--x---x-x-x-x---|
F -5-8--8--8~~-8--10-10-10~-10-12-12-12~-5-7-7-7~~-|
A#-------------------------------------------------|

Guitar 1
C -----------------------------------------------------------------|
G -----------------------------------------------------------------|
D -----------------------------------------------------------------|
A#-----------------------------------------------------------------|
F -------------------------5-5-5---------------------------7-7-7---|
A#-0-0-0---0-0-0---0-0-0-----------0-0-0---0-0-0---0-0-0-----------|
Pm . . .   . . .   . . .   . . .   . . .   . . .   . . .   . . .

Guitar 1 continued
C -------------------------------------------------|
G -------------------------------------------------|
D -7-10-10-10~-10-12-12-12~-12-14-14-14~-7-9-9-9~~-|
A#-x-x--x--x---x--x--x--x---x--x--x--x---x-x-x-x---|
F -5-8--8--8~~-8--10-10-10~-10-12-12-12~-5-7-7-7~~-|
A#-------------------------------------------------|

Guitar 2
C -----------------------------------------------------------------|
G -----------------------------------------------------------------|
D -----------------------------------------------------------------|
A#-----------------------------------------------------------------|
F -------------------------101010--------------------------121212--|
A#-0-0-0---0-0-0---0-0-0-----------0-0-0---0-0-0---0-0-0-----------|
Pm . . .   . . .   . . .   . . .   . . .   . . .   . . .   . . .

Guitar 2 continued
C -------------------------------------------------|
G -------------------------------------------------|
D -7-10-10-10~-10-12-12-12~-12-14-14-14~-7-9-9-9~~-|
A#-x-x--x--x---x--x--x--x---x--x--x--x---x-x-x-x---|
F -5-8--8--8~~-8--10-10-10~-10-12-12-12~-5-7-7-7~~-|
A#-------------------------------------------------|

Guitar 1
C -----------------------------------------------------------------|
G -----------------------------------------------------------------|
D -----------------------------------------------------------------|
A#-----------------------------------------------------------------|
F -------------------------7-7-7---------------------------8-8-8---|
A#-0-0-0---0-0-0---0-0-0-----------0-0-0---0-0-0---0-0-0-----------|
Pm . . .   . . .   . . .   . . .   . . .   . . .   . . .   . . .

Guitar 2
C -----------------------------------------------------------------|
G -----------------------------------------------------------------|
D -----------------------------------------------------------------|
A#-----------------------------------------------------------------|
F -------------------------121212--------------------------101010--|
A#-0-0-0---0-0-0---0-0-0-----------0-0-0---0-0-0---0-0-0-----------|
Pm . . .   . . .   . . .   . . .   . . .   . . .   . . .   . . .

Guitar 1 (tempo change)
C -----------------------------------------------------------------|
G -----------------------------------------------------------------|
D#-----------------------------------------------------------------|
A#-----------------------------------------------------------------|
F ---------8-8-8---8-8-8---7-7-7---8-8-8---7-7-7---5-5-5---3-3-3---|
A#-----------------------------------------------------------------|
Pm         . . .   . . .   . . .   . . .   . . .   . . .   . . .

Guitar 2
C -----------------------------------------------------------------|
G -----------------------------------------------------------------|
D#-----------------------------------------------------------------|
A#-----------------------------------------------------------------|
F ---------121212--121212--101010--121212--101010--8-8-8---7-7-7---|
A#-----------------------------------------------------------------|
Pm         . . .   . . .   . . .   . . .   . . .   . . .   . . .

Verse 2 x2

Guitar 1 & 2
C -----------------------------------------------------------------|
G -----------------------------------------------------------------|
D#-----------------------------------------------------------------|
A#-----------------------------------------------------------------|
F -------------------------101010--------------------------121212--|
A#-0-0-0---0-0-0---0-0-0-----------0-0-0---0-0-0---0-0-0-----------|
Pm . . .   . . .   . . .   . . .   . . .   . . .   . . .   . . .

Guitar 1
C -----------------------------------------------------------------|
G -----------------------------------------------------------------|
D#-----------------------------------------------------------------|
A#-----------------------------------------------------------------|
F ---------8-8-8---8-8-8---7-7-7---8-8-8---7-7-7---5-5-5---3-3-3---|
A#-0-0-0-----------------------------------------------------------|
Pm . . .   . . .   . . .   . . .   . . .   . . .   . . .   . . .

Guitar 1
C -----------------------------------------------------------------|
G -----------------------------------------------------------------|
D#-----------------------------------------------------------------|
A#-----------------------------------------------------------------|
F -------------------------7-7-7---------------------------8-8-8---|
A#-0-0-0---0-0-0---0-0-0-----------0-0-0---0-0-0---0-0-0-----------|
Pm . . .   . . .   . . .   . . .   . . .   . . .   . . .   . . .

Guitar 2
C -----------------------------------------------------------------|
G -----------------------------------------------------------------|
D#-----------------------------------------------------------------|
A#-----------------------------------------------------------------|
F -------------------------101010--------------------------121212--|
A#-0-0-0---0-0-0---0-0-0-----------0-0-0---0-0-0---0-0-0-----------|
Pm . . .   . . .   . . .   . . .   . . .   . . .   . . .   . . .

Guitar 1
C -----------------------------------------------------------------|
G -----------------------------------------------------------------|
D#-----------------------------------------------------------------|
A#-----------------------------------------------------------------|
F ---------8-8-8---8-8-8---7-7-7---8-8-8---7-7-7---5-5-5---3-3-3---|
A#-----------------------------------------------------------------|
Pm         . . .   . . .   . . .   . . .   . . .   . . .   . . .

Guitar 2
C -----------------------------------------------------------------|
G -----------------------------------------------------------------|
D#-----------------------------------------------------------------|
A#-----------------------------------------------------------------|
F ---------121212--121212--101010--121212--101010--8-8-8---7-7-7---|
A#-----------------------------------------------------------------|
Pm         . . .   . . .   . . .   . . .   . . .   . . .   . . .

Breakdown 1 (This part is kind of sloppy in Rhythm, so it was hard to tab)

Guitar 1
Guitar 1
C ---------------------------------------------------------------------------|
G ---------------------------------------------------------------------------|
D#-10~~~~~-------------------------------------------------------------------|
A#-7~~~~~~-0---0~~~~~~~~~~~~~~~~~~~~~~~~~~~~~~~~~~~~~~~~~~~~~~~~~~~~~~~~~~~~-|
F -8~~~~~~-0---0~~~~~~~~~~~~~~~~~~~~~~~~~~~~~~~~~~~~~~~~~~~~~~~~~~~~~~~~~~~~-|
A#---------0---0~~~~~~~~~~~~~~~~~~~~~~~~~~~~~~~~~~~~~~~~~~~~~~~~~~~~~~~~~~~~-|
Pm         .   .

Guitar 2
C ---------------------------------------------------------------------------|
G ---------------------------------------------------------------------------|
D#--------------------------------------5~~~~~~------------------------------|
A#--------------------------------------2~~~~~~-0---0~~~~~~~~~~~~~~~~~~~~~~~-|
F --------------------------------------3~~~~~~-0---0~~~~~~~~~~~~~~~~~~~~~~~-|
A#----------------------------------------------0---0~~~~~~~~~~~~~~~~~~~~~~~-|
Pm                                              .   .

Guitar 1
C ---------------------------------------------------------------------------|
G ---------------------------------------------------------------------------|
D#---------------------------------------------------------------------------|
A#-3~~~~~~-0---0~~~~~~-0---2~~~~~~-0---0-------0-------0---0-------0---------|
F -3~~~~~~-0---0~~~~~~-0---2~~~~~~-0---0-------0-------0---0-------0---------|
A#-3~~~~~~-0---0~~~~~~-0---2~~~~~~-0---0-------0-------0---0-------0---------|
Pm         .   .       .           .   .       .       .   .       .

Guitar 2
C ---------------------------------------------------------------------------|
G ---------------------------------------------------------------------------|
D#-10~~~~~-----------------5~~~~~~-------------------------------------------|
A#-7~~~~~~-0---0~~~~~~-0---2~~~~~~-0---0-------0-------0---0-------0---------|
F -8~~~~~~-0---0~~~~~~-0---3~~~~~~-0---0-------0-------0---0-------0---------|
A#---------0---0~~~~~~-0-----------0---0-------0-------0---0-------0---------|
Pm         .   .       .           .   .       .       .   .       .

Guitar 1
C ---------------------------------|
G ---------------------------------|
D#---------------------------------|
A#-3~~~~~~-0---0~~~~~~-0---2~~~~~~-|
F -3~~~~~~-0---0~~~~~~-0---2~~~~~~-|
A#-3~~~~~~-0---0~~~~~~-0---2~~~~~~-|
Pm         .   .       .

Guitar 2
C ---------------------------------|
G ---------------------------------|
D#-10~~~~~-----------------5~~~~~~-|
A#-7~~~~~~-0---0~~~~~~-0---2~~~~~~-|
F -8~~~~~~-0---0~~~~~~-0---3~~~~~~-|
A#---------0---0~~~~~~-0-----------|
Pm         .   .       .

Guitar 1 & 2 continued
C ---------------------------------------------------------|
G ---------------------------------------------------------|
D#---------------------------------------------------------|
A#-0---0~~~~~~-0-------0---0~~~~~~-0-------0---0~~~~~~-0---|
F -0---0~~~~~~-0-------0---0~~~~~~-0-------0---0~~~~~~-0---|
A#-0---0~~~~~~-0-------0---0~~~~~~-0-------0---0~~~~~~-0---|
Pm .   .       .       .   .       .       .   .       .

Guitar 1
C ---------------------------------|
G ---------------------------------|
D#---------------------------------|
A#-3~~~~~~-0---0~~~~~~-0---2~~~~~~-|
F -3~~~~~~-0---0~~~~~~-0---2~~~~~~-|
A#-3~~~~~~-0---0~~~~~~-0---2~~~~~~-|
Pm         .   .       .

Guitar 2
C ---------------------------------|
G ---------------------------------|
D#-10~~~~~-----------------5~~~~~~-|
A#-7~~~~~~-0---0~~~~~~-0---2~~~~~~-|
F -8~~~~~~-0---0~~~~~~-0---3~~~~~~-|
A#---------0---0~~~~~~-0-----------|
Pm         .   .       .

Guitar 1 & 2 continued
C -----------------------------------------|
G -----------------------------------------|
D#-----------------------------------------|
A#-0---0~~~~~~-0-------0---0~~~~~~-0-------|
F -0---0~~~~~~-0-------0---0~~~~~~-0-------|
A#-0---0~~~~~~-0-------0---0~~~~~~-0-------|
Pm .   .       .       .   .       .

Guitar 1
C ---------------------------------|
G ---------------------------------|
D#---------------------------------|
A#-3~~~~~~-0---0~~~~~~-0---2~~~~~~-|
F -3~~~~~~-0---0~~~~~~-0---2~~~~~~-|
A#-3~~~~~~-0---0~~~~~~-0---2~~~~~~-|
Pm         .   .       .

Guitar 2
C ---------------------------------|
G ---------------------------------|
D#-10~~~~~-----------------5~~~~~~-|
A#-7~~~~~~-0---0~~~~~~-0---2~~~~~~-|
F -8~~~~~~-0---0~~~~~~-0---3~~~~~~-|
A#---------0---0~~~~~~-0-----------|
Pm         .   .       .

Guitar 1 & 2 continued
C ---------------------------------------------------------|
G ---------------------------------------------------------|
D#---------------------------------------------------------|
A#-0---0~~~~~~-0-------0---0~~~~~~-0-------0---0~~~~~~-0---|
F -0---0~~~~~~-0-------0---0~~~~~~-0-------0---0~~~~~~-0---|
A#-0---0~~~~~~-0-------0---0~~~~~~-0-------0---0~~~~~~-0---|
Pm .   .       .       .   .       .       .   .       .

Guitar 1
C ---------------------------------|
G ---------------------------------|
D#---------------------------------|
A#-3~~~~~~-0---0~~~~~~-0---2~~~~~~-|
F -3~~~~~~-0---0~~~~~~-0---2~~~~~~-|
A#-3~~~~~~-0---0~~~~~~-0---2~~~~~~-|
Pm         .   .       .

Guitar 2
C ---------------------------------|
G ---------------------------------|
D#-10~~~~~-----------------5~~~~~~-|
A#-7~~~~~~-0---0~~~~~~-0---2~~~~~~-|
F -8~~~~~~-0---0~~~~~~-0---3~~~~~~-|
A#---------0---0~~~~~~-0-----------|
Pm         .   .       .

Guitar 1 & 2 continued
C -----------------------------------------|
G -----------------------------------------|
D#-----------------------------------------|
A#-0---0~~~~~~-0-------0---0~~~~~~-0-------|
F -0---0~~~~~~-0-------0---0~~~~~~-0-------|
A#-0---0~~~~~~-0-------0---0~~~~~~-0-------|
Pm .   .       .       .   .       .

Pre Chorus

Guitar 1
C --------------------------------------------------------------|
G --------------------------------------------------------------|
D#--------------------------------------------------------------|
A#--------------------------------------------------------------|
F -------------0h3h5---------0h3h5--------------7-------7---8---|
A#-0---0-------------0-------------0-------7h10-----10----------|

Guitar 2
C --------------------------------------------------------------|
G --------------------------------------------------------------|
D#--------------------------------------------------------------|
A#-0~~~~~~~~~~~~~~~~~~~~~~~~~~~~~~~~~~~~~~~~~~~~~~~~~~~~~~~~~~~-
F -0~~~~~~~~~~~~~~~~~~~~~~~~~~~~~~~~~~~~~~~~~~~~~~~~~~~~~~~~~~~-
A#-0~~~~~~~~~~~~~~~~~~~~~~~~~~~~~~~~~~~~~~~~~~~~~~~~~~~~~~~~~~~-
Pm .

Guitar 1
C --------------------------------------------------------------|
G --------------------------------------------------------------|
D#--------------------------------------------------------------|
A#--------------------------------------------------------------|
F -------------0h3h5---------0h3h5--------------7-------7---8---|
A#-0---0-------------0-------------0-------7h10-----10----------|

Guitar 2
C --------------------------------------------------------------|
G --------------------------------------------------------------|
D#--------------------------------------------------------------|
A#-~~~~~~~~~~~~~~~~~~~~~~~~~~~~~~~~~~~~~~~~~~~~~~~~~~~~~~~~~~~~-
F -~~~~~~~~~~~~~~~~~~~~~~~~~~~~~~~~~~~~~~~~~~~~~~~~~~~~~~~~~~~~-
A#-~~~~~~~~~~~~~~~~~~~~~~~~~~~~~~~~~~~~~~~~~~~~~~~~~~~~~~~~~~~~-

Guitar 1 & 2
C --------------------------------------------------------------|
G --------------------------------------------------------------|
D#--------------------------------------------------------------|
A#--------------------------------------------------------------|
F -------------0h3h5---------0h3h5--------------7-------7---8---|
A#-0---0-------------0-------------0-------7h10-----10----------|

Guitar 1 & 2
C --------------------------------------------------------------|
G --------------------------------------------------------------|
D#--------------------------------------------------------------|
A#--------------------------------------------------------------|
F -------------0h3h5--------------------------------------------|
A#-0---0-------------0-------0---0------------------------------|

Chorus 1

Guitar 1 & 2
C --------------------------------------------------------------|
G --------------------------------------------------------------|
D#--------------------------------------------------------------|
A#--------------------------------------------------------------|
F -------------0h3h5---------0h3h5--------------7-------7---8---|
A#-0---0-------------0-------------0-------7h10-----10----------|

Guitar 1 & 2
C --------------------------------------------------------------|
G --------------------------------------------------------------|
D#--------------------------------------------------------------|
A#--------------------------------------------------------------|
F -------------0h3h5---------0h3h5--------------7-------7---8---|
A#-0---0-------------0-------------0-------7h10-----10----------|

Guitar 1 & 2
C --------------------------------------------------------------|
G --------------------------------------------------------------|
D#--------------------------------------------------------------|
A#--------------------------------------------------------------|
F -------------0h3h5---------0h3h5--------------7-------7---8---|
A#-0---0-------------0-------------0-------7h10-----10----------|

Guitar 1 & 2
C --------------------------------------------------------------|
G --------------------------------------------------------------|
D#--------------------------------------------------------------|
A#--------------------------------------------------------------|
F -------------0h3h5---------0h3h5--------------7-------7---8---|
A#-0---0-------------0-------------0-------7h10-----10----------|

Chorus 2

Guitar 1
C --------------------------------------------------------------|
G --------------------------------------------------------------|
D#--------------------------------------------------------------|
A#--------------------------------------------------------------|
F -------------0h3h5---------0h3h5--------------7-------7---8---|
A#-0---0-------------0-------------0-------7h10-----10----------|

Guitar 2
C --------------------------------------------------------------|
G --------------------------------------------------------------|
D#--------------------------------------------------------------|
A#-------------0h2h3---------0h2h3--------------5-------5---7---|
F -----------------------------------------5h7------7-----------|
A#-0---0-------------0-------------0----------------------------|

Guitar 1
C --------------------------------------------------------------|
G --------------------------------------------------------------|
D#--------------------------------------------------------------|
A#--------------------------------------------------------------|
F -------------0h3h5---------0h3h5--------------7-------7---8---|
A#-0---0-------------0-------------0-------7h10-----10----------|

Guitar 2
C --------------------------------------------------------------|
G --------------------------------------------------------------|
D#--------------------------------------------------------------|
A#-------------0h2h3---------0h2h3--------------5-------5---7---|
F -----------------------------------------5h7------7-----------|
A#-0---0-------------0-------------0----------------------------|

Guitar 1
C --------------------------------------------------------------|
G --------------------------------------------------------------|
D#--------------------------------------------------------------|
A#--------------------------------------------------------------|
F -------------0h3h5---------0h3h5--------------7-------7---8---|
A#-0---0-------------0-------------0-------7h10-----10----------|

Guitar 2
C --------------------------------------------------------------|
G --------------------------------------------------------------|
D#--------------------------------------------------------------|
A#-------------0h2h3---------0h2h3--------------5-------5---7---|
F -----------------------------------------5h7------7-----------|
A#-0---0-------------0-------------0----------------------------|

Guitar 1
C --------------------------------------------------------------|
G --------------------------------------------------------------|
D#--------------------------------------10~~~~~-9~~~~~~-7~~~~~~-|
A#--------------------------------------x-------x-------x-------|
F -------------0h3h5--------------------8~~~~~~-7~~~~~~-5~~~~~~-|
A#-0---0-------------0-------0---0------------------------------|

Guitar 2
C --------------------------------------------------------------|
G --------------------------------------10~~~~~-8~~~~~~-6~~~~~~-|
D#--------------------------------------x-------x-------x-------|
A#--------------------------------------7~~~~~~-5~~~~~~-3~~~~~~-|
F -------------0h3h5--------------------------------------------|
A#-0---0-------------0-------0---0------------------------------|

Pre Solo

Guitar 1
C --------------------------------------------------------------|
G --------------------------------------------------------------|
D#-10~~~~~~~~~~~~~-9~~~~~~~~~~~~-7~~~~~~~~~~~~~~~~~~~~~~~~~~~~~-|
A#-x---------------x-------------x------------------------------|
F -8~~~~~~~~~~~~~~-7~~~~~~~~~~~~-5~~~~~~~~~~~~~~~~~~~~~~~~~~~~~-|
A#--------------------------------------------------------------|

Guitar 2
C --------------------------------------------------------------|
G -10~~~~~~~~~~~~~-8~~~~~~~~~~~~-6~~~~~~~~~~~~~~~~~~~~~~~~~~~~~-|
D#-x---------------x-------------x------------------------------|
A#-7~~~~~~~~~~~~~~-5~~~~~~~~~~~~-3~~~~~~~~~~~~~~~~~~~~~~~~~~~~~-|
F --------------------------------------------------------------|
A#--------------------------------------------------------------|

Guitar 1
C --------------------------------------------------------------|
G --------------------------------------------------------------|
D#-10--12~~~~~-9---10--9---5---7~~~~~~~~~~~~~~~~~~~~~~~~~~~~~~~-|
A#-x---x-------x---x---x---x---x--------------------------------|
F -8---10~~~~~-7---8---7---3---5~~~~~~~~~~~~~~~~~~~~~~~~~~~~~~~-|
A#--------------------------------------------------------------|

Guitar 2
C --------------------------------------------------------------|
G -10--11~~~~~-8---10--8----------------------------------------|
D#-x---x-------x---x---x---10--7~~~~~~~~~~~~~~~~~~~~~~~~~~~~~~~-|
A#-7---8~~~~~~-5---7---5---x---x--------------------------------|
F -------------------------8---5~~~~~~~~~~~~~~~~~~~~~~~~~~~~~~~-|
A#--------------------------------------------------------------|

Guitar 1
C --------------------------------------------------------------|
G --------------------------------------------------------------|
D#-10~~~~~~~~~~~~~-9~~~~~~~~~~~~-7~~~~~~~~~~~~~~~~~~~~~~~~~~~~~-|
A#-x---------------x-------------x------------------------------|
F -8~~~~~~~~~~~~~~-7~~~~~~~~~~~~-5~~~~~~~~~~~~~~~~~~~~~~~~~~~~~-|
A#--------------------------------------------------------------|

Guitar 2
C --------------------------------------------------------------|
G -10~~~~~~~~~~~~~-8~~~~~~~~~~~~-6~~~~~~~~~~~~~~~~~~~~~~~~~~~~~-|
D#-x---------------x-------------x------------------------------|
A#-7~~~~~~~~~~~~~~-5~~~~~~~~~~~~-3~~~~~~~~~~~~~~~~~~~~~~~~~~~~~-|
F --------------------------------------------------------------|
A#--------------------------------------------------------------|

Guitar 1
C --------------------------------------------------------------|
G --------------------------------------------------------------|
D#-10--12--10--9---10--9---5---7~~~~~~~~~~~~~~~~~~~~~~~~~~~~~~~-|
A#-x---x---x---x---x---x---x---x--------------------------------|
F -8---10--8---7---8---7---3---5~~~~~~~~~~~~~~~~~~~~~~~~~~~~~~~-|
A#--------------------------------------------------------------|

Guitar 2
C --------------------------------------------------------------|
G -10--11--10--8---10--8----------------------------------------|
D#-x---x---x---x---x---x---10--7~~~~~~~~~~~~~~~~~~~~~~~~~~~~~~~-|
A#-7---8---7---5---7---5---x---x--------------------------------|
F -------------------------8---5~~~~~~~~~~~~~~~~~~~~~~~~~~~~~~~-|
A#--------------------------------------------------------------|

Guitar Solo

Guitar 1
C --------------------------------------------------------------|
G --------------------------------------------------------------|
D#-10~~~~~~~~~~~~~-9~~~~~~~~~~~~-7~~~~~~~~~~~~~~~~~~~~~~~~~~~~~-|
A#-x---------------x-------------x------------------------------|
F -8~~~~~~~~~~~~~~-7~~~~~~~~~~~~-5~~~~~~~~~~~~~~~~~~~~~~~~~~~~~-|
A#--------------------------------------------------------------|

Guitar 2
C -----17--17------15------15--18------17--13--15--17--15~~~~~~-|
G -15----------15------15----------15---------------------------|
D#--------------------------------------------------------------|
A#--------------------------------------------------------------|
F --------------------------------------------------------------|
A#--------------------------------------------------------------|

Guitar 3
C --------------------------------------------------------------|
G -10~~~~~~~~~~~~~-8~~~~~~~~~~~~-6~~~~~~~~~~~~~~~~~~~~~~~~~~~~~-|
D#-x---------------x-------------x------------------------------|
A#-7~~~~~~~~~~~~~~-5~~~~~~~~~~~~-3~~~~~~~~~~~~~~~~~~~~~~~~~~~~~-|
F --------------------------------------------------------------|
A#--------------------------------------------------------------|

Guitar 1
C --------------------------------------------------------------|
G --------------------------------------------------------------|
D#-10--12~~~~~-9---10--9---5---7~~~~~~~~~~~~~~~~~~~~~~~~~~~~~~~-|
A#-x---x-------x---x---x---x---x--------------------------------|
F -8---10~~~~~-7---8---7---3---5~~~~~~~~~~~~~~~~~~~~~~~~~~~~~~~-|
A#--------------------------------------------------------------|

Guitar 2
C -11p-10--11p-10-----------11p-10--11p-10-----------------------|
G -----------------11~~~~~~--------------------------------------|
D#------------------------------------------12~~~~~~~~~~~~~~~~~~-|
A#---------------------------------------------------------------|
F ---------------------------------------------------------------|
A#---------------------------------------------------------------|

Guitar 3
C --------------------------------------------------------------|
G -10--11~~~~~-8---10--8----------------------------------------|
D#-x---x-------x---x---x---10--7~~~~~~~~~~~~~~~~~~~~~~~~~~~~~~~-|
A#-7---8~~~~~~-5---7---5---x---x--------------------------------|
F -------------------------8---5~~~~~~~~~~~~~~~~~~~~~~~~~~~~~~~-|
A#--------------------------------------------------------------|

Guitar 1
C --------------------------------------------------------------|
G --------------------------------------------------------------|
D#-10~~~~~~~~~~~~~-9~~~~~~~~~~~~-7~~~~~~~~~~~~~~~~~~~~~~~~~~~~~-|
A#-x---------------x-------------x------------------------------|
F -8~~~~~~~~~~~~~~-7~~~~~~~~~~~~-5~~~~~~~~~~~~~~~~~~~~~~~~~~~~~-|
A#--------------------------------------------------------------|

Guitar 2
C ---------------------------------------------------------------------------------|
G ---------------------------------------------------------------------------------|
D#-~~~\~~~-14p-12--14p-12--12-12-12-12-11-11-11-11---------------------------------|
A#-------------------------------------------------14-14-14-14-15-15-15--12~~~~~~~-|
F ---------------------------------------------------------------------------------|
A#---------------------------------------------------------------------------------|
Pm                         .  .     .  .  .     .  .  .     .  .  .

Guitar 3
C --------------------------------------------------------------|
G -10~~~~~~~~~~~~~-8~~~~~~~~~~~~-6~~~~~~~~~~~~~~~~~~~~~~~~~~~~~-|
D#-x---------------x-------------x------------------------------|
A#-7~~~~~~~~~~~~~~-5~~~~~~~~~~~~-3~~~~~~~~~~~~~~~~~~~~~~~~~~~~~-|
F --------------------------------------------------------------|
A#--------------------------------------------------------------|

Guitar 1
C --------------------------------------------------------------|
G --------------------------------------------------------------|
D#-10--12--10--9---10--9---5---7~~~~~~~~~~~~~~~~~~~~~~~~~~~~~~~-|
A#-x---x---x---x---x---x---x---x--------------------------------|
F -8---10--8---7---8---7---3---5~~~~~~~~~~~~~~~~~~~~~~~~~~~~~~~-|
A#--------------------------------------------------------------|

Guitar 2
C --------------------------------------------------------------|
G --------------------------------------------------------------|
D#-----------------------------12~~~b~~~~~~~~~~~~~~~~~~~~~~~~~~-|
A#-~~~~~~~-12p-10--12p-10--12-----------------------------------|
F --------------------------------------------------------------|
A#--------------------------------------------------------------|

Guitar 3
C --------------------------------------------------------------|
G -10--11--10--8---10--8----------------------------------------|
D#-x---x---x---x---x---x---10--7~~~~~~~~~~~~~~~~~~~~~~~~~~~~~~~-|
A#-7---8---7---5---7---5---x---x--------------------------------|
F -------------------------8---5~~~~~~~~~~~~~~~~~~~~~~~~~~~~~~~-|
A#--------------------------------------------------------------|

Guitar 1
C --------------------------------------------------------------|
G --------------------------------------------------------------|
D#-10~~~~~~~~~~~~~-9~~~~~~~~~~~~-7~~~~~~~~~~~~~~~~~~~~~~~~~~~~~-|
A#-x---------------x-------------x------------------------------|
F -8~~~~~~~~~~~~~~-7~~~~~~~~~~~~-5~~~~~~~~~~~~~~~~~~~~~~~~~~~~~-|
A#--------------------------------------------------------------|

Guitar 2
C ----------------------------------13h15-17~~~~-17b~~r-17p15p13-15~~~~-15b~~r-|
G ----------------------------14h17--------------------------------------------|
D#-------------------14h15h17--------------------------------------------------|
A#----------14h15h17-----------------------------------------------------------|
F -12h13h15--------------------------------------------------------------------|
A#-----------------------------------------------------------------------------|

Guitar 3
C --------------------------------------------------------------|
G -10~~~~~~~~~~~~~-8~~~~~~~~~~~~-6~~~~~~~~~~~~~~~~~~~~~~~~~~~~~-|
D#-x---------------x-------------x------------------------------|
A#-7~~~~~~~~~~~~~~-5~~~~~~~~~~~~-3~~~~~~~~~~~~~~~~~~~~~~~~~~~~~-|
F --------------------------------------------------------------|
A#--------------------------------------------------------------|

Guitar 1
C --------------------------------------------------------------|
G --------------------------------------------------------------|
D#-10--12~~~~~-9---10--9---5---7~~~~~~~~~~~~~~~~~~~~~~~~~~~~~~~-|
A#-x---x-------x---x---x---x---x--------------------------------|
F -8---10~~~~~-7---8---7---3---5~~~~~~~~~~~~~~~~~~~~~~~~~~~~~~~-|
A#--------------------------------------------------------------|

Guitar 2
C -t17p13p10h13-t18p13p10h13-t17p13p10h13-t15p13p10h13-|
G -----------------------------------------------------|
D#-----------------------------------------------------|
A#-----------------------------------------------------|
F -----------------------------------------------------|
A#-----------------------------------------------------|

Guitar 2 continued
C -t17p13p10h13-t17p13p10h13-t17p13p10h13-17~~~~~~~~~~~-|
G ------------------------------------------------------|
D#------------------------------------------------------|
A#------------------------------------------------------|
F ------------------------------------------------------|
A#------------------------------------------------------|

Guitar 3
C --------------------------------------------------------------|
G -10--11~~~~~-8---10--8----------------------------------------|
D#-x---x-------x---x---x---10--7~~~~~~~~~~~~~~~~~~~~~~~~~~~~~~~-|
A#-7---8~~~~~~-5---7---5---x---x--------------------------------|
F -------------------------8---5~~~~~~~~~~~~~~~~~~~~~~~~~~~~~~~-|
A#--------------------------------------------------------------|

Guitar 1
C --------------------------------------------------------------|
G --------------------------------------------------------------|
D#-10~~~~~~~~~~~~~-9~~~~~~~~~~~~-7~~~~~~~~~~~~~~~~~~~~~~~~~~~~~-|
A#-x---------------x-------------x------------------------------|
F -8~~~~~~~~~~~~~~-7~~~~~~~~~~~~-5~~~~~~~~~~~~~~~~~~~~~~~~~~~~~-|
A#--------------------------------------------------------------|

Guitar 2
C -~~~~~~~-17------17------------17------17---------------------|
G -------------15------15------------15------15-----------------|
D#-------------------------14~~~-----------------14~~~~~~~~~~~~-|
A#--------------------------------------------------------------|
F --------------------------------------------------------------|
A#--------------------------------------------------------------|


Guitar 3
C --------------------------------------------------------------|
G -10~~~~~~~~~~~~~-8~~~~~~~~~~~~-6~~~~~~~~~~~~~~~~~~~~~~~~~~~~~-|
D#-x---------------x-------------x------------------------------|
A#-7~~~~~~~~~~~~~~-5~~~~~~~~~~~~-3~~~~~~~~~~~~~~~~~~~~~~~~~~~~~-|
F --------------------------------------------------------------|
A#--------------------------------------------------------------|

Guitar 1
C --------------------------------------------------------------|
G --------------------------------------------------------------|
D#-10--12--10--9---10--9---5---7~~~~~~~~~~~~~~~~~~~~~~~~~~~~~~~-|
A#-x---x---x---x---x---x---x---x--------------------------------|
F -8---10--8---7---8---7---3---5~~~~~~~~~~~~~~~~~~~~~~~~~~~~~~~-|
A#--------------------------------------------------------------|

Guitar 2
C -15h17p15p13-13h15p13p12-12h13p12p10-10h12p10p9-12~~~~~~~~~~~~~~~~~-|
G ------------------------------------------------10~~~~~~~~~~~~~~~~~-|
D#--------------------------------------------------------------------|
A#--------------------------------------------------------------------|
F --------------------------------------------------------------------|
A#--------------------------------------------------------------------|

Guitar 3
C --------------------------------------------------------------|
G -10--11--10--8---10--8----------------------------------------|
D#-x---x---x---x---x---x---10--7~~~~~~~~~~~~~~~~~~~~~~~~~~~~~~~-|
A#-7---8---7---5---7---5---x---x--------------------------------|
F -------------------------8---5~~~~~~~~~~~~~~~~~~~~~~~~~~~~~~~-|
A#--------------------------------------------------------------|

Outro (Fade Out)

Guitar 1
C --------------------------------------------------------------|
G --------------------------------------------------------------|
D#-10~~~~~~~~~~~~~-9~~~~~~~~~~~~-7~~~~~~~~~~~~~~~~~~~~~~~~~~~~~-|
A#-x---------------x-------------x------------------------------|
F -8~~~~~~~~~~~~~~-7~~~~~~~~~~~~-5~~~~~~~~~~~~~~~~~~~~~~~~~~~~~-|
A#--------------------------------------------------------------|

Guitar 2
C -13~~~~~~~~~~~~~-13~~~~~~~~~~~-13~~~~~~~~~~~~~~~~~~~~~~~~~~~~-|
G -10~~~~~~~~~~~~~-10~~~~~~~~~~~-10~~~~~~~~~~~~~~~~~~~~~~~~~~~~-|
D#--------------------------------------------------------------|
A#--------------------------------------------------------------|
F --------------------------------------------------------------|
A#--------------------------------------------------------------|

Guitar 3
C --------------------------------------------------------------|
G -----13~~~~~~~~~~~~~-13~~~~~~~--------------------------------|
D#-16~~~~~~~~~~~~~-16~~~~~~~~~~~--------------------------------|
A#-------------------------------12~~~~~~~~~~~~~~~~~~~~~~~~~~~~-|
F --------------------------------------------------------------|
A#--------------------------------------------------------------|

Guitar 1
C --------------------------------------------------------------|
G --------------------------------------------------------------|
D#-10~~~~~~~~~~~~~-9~~~~~~~~~~~~-7~~~~~~~~~~~~~~~~~~~~~~~~~~~~~-|
A#-x---------------x-------------x------------------------------|
F -8~~~~~~~~~~~~~~-7~~~~~~~~~~~~-5~~~~~~~~~~~~~~~~~~~~~~~~~~~~~-|
A#--------------------------------------------------------------|

Guitar 2
C ------12~~~~~~~----------------12~~~~~~~~~~~~~~~~~~~~~~~~~~~~-|
G -15~~~~~~~-15~~------15--------15~~~~~~~~~~~~~~~~~~~~~~~~~~~~-|
D#----------------14--------14----------------------------------|
A#--------------------------------------------------------------|
F --------------------------------------------------------------|
A#--------------------------------------------------------------|

Guitar 2
C --------------------------------------------------------------|
G ------13~~~~~~~----------------13~~~~~~~~~~~~~~~~~~~~~~~~~~~~-|
D#-16~~~~~~~-16~~----------------16~~~~~~~~~~~~~~~~~~~~~~~~~~~~-|
A#----------------14---17---12----------------------------------|
F --------------------------------------------------------------|
A#--------------------------------------------------------------|

Guitar 1
C --------------------------------------------------------------|
G --------------------------------------------------------------|
D#-10~~~~~~~~~~~~~-9~~~~~~~~~~~~-7~~~~~~~~~~~~~~~~~~~~~~~~~~~~~-|
A#-x---------------x-------------x------------------------------|
F -8~~~~~~~~~~~~~~-7~~~~~~~~~~~~-5~~~~~~~~~~~~~~~~~~~~~~~~~~~~~-|
A#--------------------------------------------------------------|

Guitar 2
C -12~~~~~~~~~~~~-12~~~~~~~~~~~~-12~~~~~~~~~~~~~~~~~~~~~~~~~~~~-|
G ------15~~~~~~~~~~~~-15~~~~~~~-15~~~~~~~~~~~~~~~~~~~~~~~~~~~~-|
D#-----------14~~~~~~~~~~~~-14~~--------------------------------|
A#--------------------------------------------------------------|
F --------------------------------------------------------------|
A#--------------------------------------------------------------|

Guitar 3
C --------------------------------------------------------------|
G -----13~~~~~~~~~~~~~-13~~~~~~~--------------------------------|
D#-16~~~~~~~~~~~~~-16~~~~~~~~~~~--------------------------------|
A#-------------------------------12~~~~~~~~~~~~~~~~~~~~~~~~~~~~-|
F --------------------------------------------------------------|
A#--------------------------------------------------------------|

Guitar 1
C --------------------------------------------------------------|
G --------------------------------------------------------------|
D#-10~~~~~~~~~~~~~-9~~~~~~~~~~~~-7~~~~~~~~~~~~~~~~~~~~~~~~~~~~~-|
A#-x---------------x-------------x------------------------------|
F -8~~~~~~~~~~~~~~-7~~~~~~~~~~~~-5~~~~~~~~~~~~~~~~~~~~~~~~~~~~~-|
A#--------------------------------------------------------------|

Guitar 2
C ------12~~~~~~~----------------12~~~~~~~~~~~~~~~~~~~~~~~~~~~~-|
G -15~~~~~~~-15~~------15--------15~~~~~~~~~~~~~~~~~~~~~~~~~~~~-|
D#----------------14--------14----------------------------------|
A#--------------------------------------------------------------|
F --------------------------------------------------------------|
A#--------------------------------------------------------------|

Guitar 2
C --------------------------------------------------------------|
G ------13~~~~~~~----------------13~~~~~~~~~~~~~~~~~~~~~~~~~~~~-|
D#-16~~~~~~~-16~~----------------16~~~~~~~~~~~~~~~~~~~~~~~~~~~~-|
A#----------------14---17---12----------------------------------|
F --------------------------------------------------------------|
A#--------------------------------------------------------------|

Guitar 1
C --------------------------------------------------------------|
G --------------------------------------------------------------|
D#-10~~~~~~~~~~~~~-9~~~~~~~~~~~~-7~~~~~~~~~~~~~~~~~~~~~~~~~~~~~-|
A#-x---------------x-------------x------------------------------|
F -8~~~~~~~~~~~~~~-7~~~~~~~~~~~~-5~~~~~~~~~~~~~~~~~~~~~~~~~~~~~-|
A#--------------------------------------------------------------|

Guitar 2
C -12~~~~~~~~~~~~-12~~~~~~~~~~~~-12~~~~~~~~~~~~~~~~~~~~~~~~~~~~-|
G ------15~~~~~~~~~~~~-15~~~~~~~-15~~~~~~~~~~~~~~~~~~~~~~~~~~~~-|
D#-----------14~~~~~~~~~~~~-14~~--------------------------------|
A#--------------------------------------------------------------|
F --------------------------------------------------------------|
A#--------------------------------------------------------------|

Guitar 3
C --------------------------------------------------------------|
G -----13~~~~~~~~~~~~~-13~~~~~~~--------------------------------|
D#-16~~~~~~~~~~~~~-16~~~~~~~~~~~--------------------------------|
A#-------------------------------12~~~~~~~~~~~~~~~~~~~~~~~~~~~~-|
F --------------------------------------------------------------|
A#--------------------------------------------------------------|

Guitar 1
C --------------------------------------------------------------|
G --------------------------------------------------------------|
D#-10~~~~~~~~~~~~~-9~~~~~~~~~~~~-7~~~~~~~~~~~~~~~~~~~~~~~~~~~~~-|
A#-x---------------x-------------x------------------------------|
F -8~~~~~~~~~~~~~~-7~~~~~~~~~~~~-5~~~~~~~~~~~~~~~~~~~~~~~~~~~~~-|
A#--------------------------------------------------------------|

Guitar 2
C ------12~~~~~~~----------------12~~~~~~~~~~~~~~~~~~~~~~~~~~~~-|
G -15~~~~~~~-15~~------15--------15~~~~~~~~~~~~~~~~~~~~~~~~~~~~-|
D#----------------14--------14----------------------------------|
A#--------------------------------------------------------------|
F --------------------------------------------------------------|
A#--------------------------------------------------------------|

Guitar 2
C --------------------------------------------------------------|
G ------13~~~~~~~----------------13~~~~~~~~~~~~~~~~~~~~~~~~~~~~-|
D#-16~~~~~~~-16~~----------------16~~~~~~~~~~~~~~~~~~~~~~~~~~~~-|
A#----------------14---17---12----------------------------------|
F --------------------------------------------------------------|
A#--------------------------------------------------------------|

Guitar 1
C --------------------------------------------------------------|
G --------------------------------------------------------------|
D#-10~~~~~~~~~~~~~-9~~~~~~~~~~~~-7~~~~~~~~~~~~~~~~~~~~~~~~~~~~~-|
A#-x---------------x-------------x------------------------------|
F -8~~~~~~~~~~~~~~-7~~~~~~~~~~~~-5~~~~~~~~~~~~~~~~~~~~~~~~~~~~~-|
A#--------------------------------------------------------------|

Guitar 2
C -12~~~~~~~~~~~~-12~~~~~~~~~~~~-12~~~~~~~~~~~~~~~~~~~~~~~~~~~~-|
G ------15~~~~~~~~~~~~-15~~~~~~~-15~~~~~~~~~~~~~~~~~~~~~~~~~~~~-|
D#-----------14~~~~~~~~~~~~-14~~--------------------------------|
A#--------------------------------------------------------------|
F --------------------------------------------------------------|
A#--------------------------------------------------------------|

Guitar 3
C --------------------------------------------------------------|
G -----13~~~~~~~~~~~~~-13~~~~~~~--------------------------------|
D#-16~~~~~~~~~~~~~-16~~~~~~~~~~~--------------------------------|
A#-------------------------------12~~~~~~~~~~~~~~~~~~~~~~~~~~~~-|
F --------------------------------------------------------------|
A#--------------------------------------------------------------|

Guitar 1
C --------------------------------------------------------------|
G --------------------------------------------------------------|
D#-10~~~~~~~~~~~~~-9~~~~~~~~~~~~-7~~~~~~~~~~~~~~~~~~~~~~~~~~~~~-|
A#-x---------------x-------------x------------------------------|
F -8~~~~~~~~~~~~~~-7~~~~~~~~~~~~-5~~~~~~~~~~~~~~~~~~~~~~~~~~~~~-|
A#--------------------------------------------------------------|

Guitar 2
C ------12~~~~~~~----------------12~~~~~~~~~~~~~~~~~~~~~~~~~~~~-|
G -15~~~~~~~-15~~------15--------15~~~~~~~~~~~~~~~~~~~~~~~~~~~~-|
D#----------------14--------14----------------------------------|
A#--------------------------------------------------------------|
F --------------------------------------------------------------|
A#--------------------------------------------------------------|

Guitar 2
C --------------------------------------------------------------|
G ------13~~~~~~~----------------13~~~~~~~~~~~~~~~~~~~~~~~~~~~~-|
D#-16~~~~~~~-16~~----------------16~~~~~~~~~~~~~~~~~~~~~~~~~~~~-|
A#----------------14---17---12----------------------------------|
F --------------------------------------------------------------|
A#--------------------------------------------------------------|

Tab Legend
h  -  hammer-on
p  -  pull-off
/  -  slide up
\  -  slide down
ps/-  pickslide up
ps\-  pickslide down
~  -  let ring
pm.-  palm mute
b  -  bend
r  -  return from bend
*  -  harmonic
x  -  dead note
^ -  Whammy bar

That’s it! Check out my cover, and tell me how I did. Thanks, oh and one last 
thing... ROCK OUT!!!!
comments
We did not receive enough feedback on this tab! Please rate:
print report bad tab
1 2 3 4 5
I want to post or [tab]
guest
You may want to rate the tab now too:
select rating
Please do not post tabs as comments. Select "correction" instead!