Oops, an error
Loading. Please wait.

Sleepwalker Tab

ver7
ver7

Intro

Solo

Interactive

More versions @911Tabs.com
8,162 views 72 this week
4 commentsread comments
1 2 3 4 5
excellent!
x 5
Autoscroll
+/-
esc
set tempo
stop
Contributor
Tuning
A# F A# D# G C
WARNING: You are trying to view
                                    content from Ultimate-Guitar.com
                                    in an unauthorized application,
                                    which is prohibited.

                                    Please use an official Ultimate
                                    Guitar Tabs application for iPhone,
                                    iPad or Android to access legitimate
                                    chords, guitar, bass, and drum tabs
                                    from Ultimate-Guitar.com database.

                                    Type "ultimate guitar tabs" in Apple
                                    App Store's or Android Market's
                                    search to find the application.
PARKWAY DRIVE 

SLEEPWALKER

A#-F-A#-D#-G-C

TABBED BY andherembrace


0:11

B
---------------------------------------------------------------------------|
---------------------------------------------------------------------------|
---------------------------------------------------------------------------|
---------------------------------------------------------------------------|
-------------------------------7--7-8--------------------------------7--7-8|
0-0--0-10-12-0--0-8-12-0--7-10--10----0-0--0-10-12-0--0-8-12-0--7-10--10---|
   |          |         |                |          |         |
---------------------------------------------------------------------------|
---------------------------------------------------------------------------|
---------------------------------------------------------------------------|
---------------------------------------------------------------------------|
-------------------------------7--7-8--------------------------------7--7-8|
0-0--0-10-12-0--0-8-12-0--7-10--10----0-0--0-10-12-0--0-8-12-0--7-10--10---|
   |          |         |                |          |         |

0:22

B
----------------------------------------------------------------------|
----------------------------------------------------------------------|
----------------------------------------------------------------------|
----------------------------------------------------------------------|
------------101010-------------121212-----888-888-777-888-777-555-333-|
000-000-000--------000-000-000--------000-----------------------------|
*** *** ***  * * * *** *** ***  * * * *** *** *** *** *** *** *** ***
----------------------------------------------------------------------|
----------------------------------------------------------------------|
----------------------------------------------------------------------|
----------------------------------------------------------------------|
------------101010-------------121212-----888-888-777-888-777-555-333-|
000-000-000--------000-000-000----------------------------------------|
*** *** ***  * * * *** *** ***  * * *     *** *** *** *** *** *** ***

----------------------------------------------------------------------|
----------------------------------------------------------------------|
----------------------------------------------------------------------|
----------------------------------------------------------------------|
------------101010-------------121212-----888-888-777-888-777-555-333-|
000-000-000--------000-000-000--------000-----------------------------|
*** *** ***  * * * *** *** ***  * * * *** *** *** *** *** *** *** ***
----------------------------------------------------------------------|
----------------------------------------------------------------------|
----------------------------------------------------------------------|
----------------------------------------------------------------------|
------------101010-------------121212-----888-888-777-888-777-555-333-|
000-000-000--------000-000-000----------------------------------------|
*** *** ***  * * * *** *** ***  * * *     *** *** *** *** *** *** ***


0:45

B
---------------------------------------------------------------------------|
---------------------------------------------------------------------------|
---------------------------------------------------------------------------|
---------------------------------------------------------------------------|
-------------------------------7--7-8--------------------------------7--7-8|
0-0--0-10-12-0--0-8-12-0--7-10--10----0-0--0-10-12-0--0-8-12-0--7-10--10---|
   |          |         |                |          |         |
---------------------------------------------------------------------------|
---------------------------------------------------------------------------|
---------------------------------------------------------------------------|
---------------------------------------------------------------------------|
-------------------------------7--7-8--------------------------------7--7-8|
0-0--0-10-12-0--0-8-12-0--7-10--10----0-0--0-10-12-0--0-8-12-0--7-10--10---|
   |          |         |                |          |         |

0:56
B
----------------------------------------------------------|
----------------------------------------------------------|
----------------------------------------------------------|
--7---------------------------7---------------------------|
--5\-0-0--0-0--0-0--0-0--0-0--5\--0-0--0-0-55778--778810--|
-----0-0--0-0--0-0--0-0--0-0------0-0--0-0----------------|
     * *  * *  * *  * *  * *      * *  * *

1:01

B
-------------------------------------------------------------|
-------------------------------------------------------------|
-------------------------------------------------------------|
-------------------------------------------------------------|
------------555-------------777-55778--778810-88101012--33557|
000-000-000-----000-000-000----------------------------------|
*** *** *** *** *** *** *** *** *****  **** * ** * * *  *****

-------------------------------------------------------------|
-------------------------------------------------------------|
-------------------------------------------------------------|
-------------------------------------------------------------|
------------777-------------888-55778--778810-88101012--33557|
000-000-000-----000-000-000----------------------------------|
*** *** *** *** *** *** *** *** *****  **** * ** * * *  *****




L
-------------------------------------------------------------|
-------------------------------------------------------------|
-------------------------------------------------------------|
-------------------------------------------------------------|
------------555-------------777-55778--778810-88101012--33557|
000-000-000-----000-000-000----------------------------------|
*** *** *** *** *** *** *** *** *****  **** * ** * * *  *****
R
---------------------------------------------------------------|
---------------------------------------------------------------|
---------------------------------------------------------------|
---------------------------------------------------------------|
------------888------------101010-55778--778810-88101012--33557|
000-000-000-----000-000-000------------------------------------|
*** *** *** *** *** *** *** ***   *****  **** * ** * * *  *****

L
-------------------------------------------------------------------------|
-------------------------------------------------------------------------|
-------------------------------------------------------------------------|
-------------------------------------------------------------------------|
-----------777------------888--121212-121212-101010-121212-101010-888-777|
000-000-000---000-000-000------------------------------------------------|
*** *** ********* *** *** ***   * * *  * * *  * * *  * * *  * * * *** ***
R
--------------------------------------------------------------------|
--------------------------------------------------------------------|
--------------------------------------------------------------------|
--------------------------------------------------------------------|
------------101010-------------121212----888-888-777-888-777-555-333|
000-000-000--------000-000-000--------------------------------------|
*** *** ***  * * * *** *** ***  * * *    *** *** *** *** *** *** ***



1:20


B
----------------------------------------------------------------------|
----------------------------------------------------------------------|
----------------------------------------------------------------------|
----------------------------------------------------------------------|
------------101010-------------121212-----888-888-777-888-777-555-333-|
000-000-000--------000-000-000--------000-----------------------------|
*** *** ***  * * * *** *** ***  * * * *** *** *** *** *** *** *** ***

L
-------------------------------------------------------------------------|
-------------------------------------------------------------------------|
-------------------------------------------------------------------------|
-------------------------------------------------------------------------|
-----------777------------888|-121212-121212-101010-121212-101010-888-777|
000-000-000---000-000-000------------------------------------------------|
*** *** ********* *** *** ***   * * *  * * *  * * *  * * *  * * * *** ***
R
--------------------------------------------------------------------|
--------------------------------------------------------------------|
--------------------------------------------------------------------|
--------------------------------------------------------------------|
------------101010-------------121212|---888-888-777-888-777-555-333|
000-000-000--------000-000-000--------------------------------------|
*** *** ***  * * * *** *** ***  * * *    *** *** *** *** *** *** ***


B
----------------------------------------------------------------------|
----------------------------------------------------------------------|
----------------------------------------------------------------------|
----------------------------------------------------------------------|
------------101010-------------121212-----888-888-777-888-777-555-333-|
000-000-000--------000-000-000--------000-----------------------------|
*** *** ***  * * * *** *** ***  * * * *** *** *** *** *** *** *** ***

L
-------------------------------------------------------------------------|
-------------------------------------------------------------------------|
-------------------------------------------------------------------------|
-------------------------------------------------------------------------|
-----------777------------888|-121212-121212-101010-121212-101010-888-777|
000-000-000---000-000-000------------------------------------------------|
*** *** ********* *** *** ***   * * *  * * *  * * *  * * *  * * * *** ***
R
--------------------------------------------------------------------|
--------------------------------------------------------------------|
--------------------------------------------------------------------|
--------------------------------------------------------------------|
------------101010-------------121212|---888-888-777-888-777-555-333|
000-000-000--------000-000-000--------------------------------------|
*** *** ***  * * * *** *** ***  * * *    *** *** *** *** *** *** ***


1:43

R          L           B
-------------------------------------------------|
-------------------------------------------------|
-------------------------------------------------|
-------------------------------------------------|
8--0-0-----7--0-0------8--0-0-0-7--0-0-0---0-0-0-|
7\-0-0----10\-0-0------7\-0-0-010\-0-0-0---0-0-0-|
   * *        * *         * * *    * * *   * * *
     S          S

B
-------------------------------------------------------------|
-------------------------------------------------------------|
-------------------------------------------------------------|
-------------------------------------------------------------|
8--0-0-0-7--0-0-0---0-0-0---0-0-0-8--0-0-0-7--0-0-0---0-0-0--|
7\-0-0-0-10\0-0-0---0-0-0---0-0-0-7\-0-0-0-10\0-0-0---0-0-0--|
   * * *    * * *   * * *   * * *    * * *    * * *   * * *


-------------------------------------------------------------|
-------------------------------------------------------------|
-------------------------------------------------------------|
-------------------------------------------------------------|
8--0-0-0-7--0-0-0---0-0-0---0-0-0-8--0-0-0-7--0-0-0---0-0-0--|
7\-0-0-0-10\0-0-0---0-0-0---0-0-0-7\-0-0-0-10\0-0-0---0-0-0--|
   * * *    * * *   * * *   * * *    * * *    * * *   * * *



2:16

L
---------------------------------------------------------------------------|
---------------------------------------------------------------------------|
---------------------------------------------------------------------------|
---------------------------------------------------------------------------|
-------------------------------7--7-8--------------------------------7--7-8|
0-0--0-10-12-0--0-8-12-0--7-10--10----0-0--0-10-12-0--0-8-12-0--7-10--10---|
   |          |         |                |          |         |
R
---------------------------------------------------------------|
---------------------------------------------------------------|
---------------------------------------------------------------|
0--------------------------------------------------------------|
0--------------------------------------------------------------|
0--------------------------------------------------------------|


B
------------------------------------------------------------|
------------------------------------------------------------|
------------------------------------------------------------|
------------------------------------------------------------|
-------------------------------7--7-8-----------------------|
0-0--0-10-12-0--0-8-12-0--7-10--10----0-0--0-10-12-0--0-0-0-|
   |          |         |                |          |        

---------------------------------------------------------------------------|
---------------------------------------------------------------------------|
---------------------------------------------------------------------------|
---------------------------------------------------------------------------|
-------------------------------7--7-8--------------------------------7--7-8|
0-0--0-10-12-0--0-8-12-0--7-10--10----0-0--0-10-12-0--0-8-12-0--7-10--10---|
   |          |         |                |          |         |

2:38

L
---------------------------------------------------------------------------|
---------------------------------------------------------------------------|
---------------------------------------------------------------------------|
---------------------------------------------------------------------------|
-------------------------------7--7-8--------------------------------7--7-8|
0-0--0-10-12-0--0-8-12-0--7-10--10----0-0--0-10-12-0--0-8-12-0--7-10--10---|
   |          |         |                |          |         |
R
--------------------------------------------------------------------------|
--------------------------------------------------------------------------|
--------------------------------------------------------------------------|
--------------------------------------------------------------------------|
-----------------------------10--1012-----------------------------10--1012|
0-0-0-14-15-0-0-12-15-0-10-14--14----0-0-0-14-15-0-0-12-15-0-10-14--14----|
   |         |         |                |         |         |

L
------------------------------------------------------------|
------------------------------------------------------------|
------------------------------------------------------------|
------------------------------------------------------------|
-------------------------------7--7-8-----------------------|
0-0--0-10-12-0--0-8-12-0--7-10--10----0-0--0-10-12-0--0-0-0-|
   |          |         |                |          |      
R
----------------------------------------------------------|
----------------------------------------------------------|
----------------------------------------------------------|
----------------------------------------------------------|
-----------------------------10--1012---------------------|
0-0-0-14-15-0-0-12-15-0-10-14--14----0-0-0-14-15-0--0-0-0-|
   |         |         |                |         |  


2:48

L
----------------------------------------------------|
----------------------------------------------------|
-14--12-10--14---12-10----------14-15--12-14-10-7---|
--X---X--X---X----X--X-----------X--X---X--X--X-X---|
-12--10--8--12---10--8----------12/13--10/12--8\5---|
----------------------------------------------------|
R
----------------------------------------------------|
----------------------------------------------------|
10---9---7--10----9---7---------10-12--9-10-5-7-----|
-X---X---X---X----X---X----------X--X--X-X--X-X-----|
-8---7---5---8----7---5----------8/10--7/8--3/5-----|
----------------------------------------------------|

L
---------------------_____--------------------------|
--------------------/     \-------------------------|
-14---12-10-------14-15-14-12-14-12-10-7------------|
--X----X--X--------X--X--X--X--X--X--X-X------------|
-12---10--8-------12/13\12\10-12\10--8\5------------|
----------------------------------------------------|
R
--------------------____----------------------|
-------------------/    \---------------------|
10----9---7------10-1210-9-10-9-5-7-----------|
-X----X---X-------X--X-X-X--X-X-X-X-----------|
-8----7---5-------8/10\8\7--8\7-3/5-----------|
----------------------------------------------|




SOLO: +PREVIOUS RIFF CONTINUES  ON R 

L 
-----------------------------------|
-----------------------------------|
-14--12--10----------14--12--------|
-12--10--8-----------12--10--0-----|
-12--10--8-----------12--10--0-----|
-12--10--8-----------12--10--0-----|



             
 3:03                                        *MUTE AFTER EACH STRING
                                             BY UNPRESSING SLEIGHTLY 
                                             
----17-17----15----15-18----17----------17-----13--13------13--13------|
-15-------15----15-------15----15-18-20----20~---17--17------17--17----|
-------------------------------------------------------17----------14-\|
-----------------------------------------------------------------------|
-----------------------------------------------------------------------|
-----------------------------------------------------------------------|

              
3:10
                                               _____
--------------------------------------_____----)----(|
---------^---------------------------/     \--8------|
/14\12-14-12-|-/12|-10|-9|-/10-7~~--7\5/7\5/7--------|
-----------------------------------------------------|
-----------------------------------------------------|
-----------------------------------------------------|


3:16

                               __      )(         )(
----------------------__------/  \---17---15\13-15---|
-------------__------/  \---15-17-18-----------------|
----__------/  \---14-15-17--------------------------|
---/  \---14-15-17-----------------------------------|
-12-13-15--------------------------------------------|
-----------------------------------------------------|
                         

3:20
                                 __            __
  ^      ^      ^      ^        /  \          /  \
17-13--18-13--17-13--15-13----13-17-13------13-17-13------13-|
-----15-----15-----15-----15----------15--15--------15--15---|
----------------------------------------14------------14-----|
-------------------------------------------------------------|
-------------------------------------------------------------|
-------------------------------------------------------------|


      
3:23                                         
                              /\      /\      /\      /\
-17---17------17---17-------151715--131513--121312--101210---12-|
---15---15------15---15-----------17------15------13------13-13-|
----------14~----------14~--------------------------------------|
----------------------------------------------------------------|
----------------------------------------------------------------|
----------------------------------------------------------------|


3:30

L LET RING
-12-----12---------10-12-----------12-------|
---13-----13-------------13---10-----13-----|
-----10-----10--------------10--10----------|
--------------------------------------------|
--------------------------------------------|
--------------------------------------------|
R LET RING
-5------5-----------7-8----------8----------|
---5------5-------------10---8-----10-------|
-----7------7--------------9---9------------|
--------------------------------------------|
--------------------------------------------|
--------------------------------------------|

REPEATS/FADES
comments
print report bad tab
4 comments total. Showing first comments.
0 reply
Alpha_Wolf wrote on February 4 2013, 09:23 pm

Finally someone got the intro right. Great job, it looks very good.

+1 reply
andherembrace wrote on February 6 2013, 03:48 pm

@ 1:43 after 7/8 it should be 10/7 rather than 5/7,it will be corrected

0 reply
jessie805 wrote on June 2 2013, 12:42 am

With the intro:
What you have.
|----------------------------------------|
|----------------------------------------|
|----------------------------------------|
|----------------------------------------|
|------------------------------7--7-8----|
|0-0--0-8-12-0--0-8-12-0--7-10--10-------|

From I have seen it looks like
|----------------------------------------|
|----------------------------------------|
|----------------------------------------|
|----------------------------------------|
|-------------------------------7--7-8---|
|0-0--0-10-12-0--0-8-12-0--7-10--10------|

My resource: http://www.youtube.com/watch?v=Xj08Z5V2A7E

I want to post or [tab]
guest
You may want to rate the tab now too:
select rating
Please do not post tabs as comments. Select "correction" instead!