Oops, an error
Loading. Please wait.

Sleight Of Hand Tab

5,874 views 54 this week
2 commentsread comments
1 2 3 4 5
excellent!
x 4
Autoscroll
+/-
esc
set tempo
stop
Contributor
WARNING: You are trying to view
                                    content from Ultimate-Guitar.com
                                    in an unauthorized application,
                                    which is prohibited.

                                    Please use an official Ultimate
                                    Guitar Tabs application for iPhone,
                                    iPad or Android to access legitimate
                                    chords, guitar, bass, and drum tabs
                                    from Ultimate-Guitar.com database.

                                    Type "ultimate guitar tabs" in Apple
                                    App Store's or Android Market's
                                    search to find the application.
PARKWAY DRIVE

SLEIGHT OF HAND

B-F#-B-E-G#-C#


TABBED BY andherembrace





INTRO
1
---------------------------------------------------------------|
--[-6-]--SWELLS AND SLIGHTLY BENDS-----------------------------|
--[-9-]--------------------------------------------------------|
---------------------------------------------------------------|
---------------------------------------------------------------|
---------------------------------------------------------------|

2  0:06
---------------------------------------------------------------|
---------------------------------------------------------------|
-----------------------------------------REPEATS---------------|
---------------------------------------------------------------|
--0-------------------------------3----------------------------|
--0-------------------------------3----------------------------|

0:16
3       __
       /  \
--20-19-20-19----19----19-17-----------------|
--------------20----19-------17--------------|
------------------------------------REPEATS--|
---------------------------------------------|
---------------------------------------------|
---------------------------------------------|

|||||||||||||||||||||||||||||||||||||||||||||||||||||||||||||



0:28

1
----------------------------------------------------------------|
----------------------------------------------------------------|
1010-999------999----999----777-1010-999------999----999----777-|
---------1010-----99-----77--------------1010-----99-----77-----|
----------------------------------------------------------------|
----------------------------------------------------------------|
 * *      * *     **     **      * *      * *     **     **     
2
-------------------------------------------------------------|
-------------------------------------------------------------|
-------------------------------------------------------------|
-------------------------------------------------------------|
-0-0-000--0-000--0-000--0-000--2-2-222--2-222--2-222--2-222--|
-0-0-000--0-000--0-000--0-000--2-2-222--2-222--2-222--2-222--|
 * * ***  * ***  * ***  * ***  * * ***  * ***  * ***  * ***


1
----------------------------------------------------------------|
----------------------------------------------------------------|
1010-999------999----999----777-1010-999------999----999----777-|
---------1010-----99-----77--------------1010-----99-----77-----|
----------------------------------------------------------------|
----------------------------------------------------------------|
 * *      * *     **     **      * *      * *     **     **  

2
---------------------------------------------------------------|
---------------------------------------------------------------|
---------------------------------------------------------------|
---------------------------------------------------------------|
-3-3-333--3-333--3-333--3-333--5-5-555--5-555--5-555--5-555----|
-3-3-333--3-333--3-333--3-333--5-5-555--5-555--5-555--5-555----|
 * * ***  * ***  * ***  * ***  * * ***  * ***  * ***  * ***



0:40
1
----------------------------------------------------------------|
----------------------------------------------------------------|
1010-999------999----999----777-1010-999------999----999----777-|
---------1010-----99-----77--------------1010-----99-----77-----|
----------------------------------------------------------------|
----------------------------------------------------------------|
 * *      * *     **     **      * *      * *     **     **  
2
-------------------------------------------------------------|
-------------------------------------------------------------|
-------------------------------------------------------------|
-------------------------------------------------------------|
-0-0-000--0-000--0-000--0-000--2-2-222--2-222--2-222--2-222--|
-0-0-000--0-000--0-000--0-000--2-2-222--2-222--2-222--2-222--|
 * * ***  * ***  * ***  * ***  * * ***  * ***  * ***  * ***
3      __                           __
      /  \                         /  \
-20-19-20-19---19----19-17----20-19-20-19---19----19-17------|
------------20----19------17-------------20----19------17----|
-------------------------------------------------------------|
-------------------------------------------------------------|
-------------------------------------------------------------|
-------------------------------------------------------------|


1
----------------------------------------------------------------|
----------------------------------------------------------------|
1010-999------999----999----777-1010-999------999----999----777-|
---------1010-----99-----77--------------1010-----99-----77-----|
----------------------------------------------------------------|
----------------------------------------------------------------|
 * *      * *     **     **      * *      * *     **     **  

2
-------------------------------------------------------------|
-------------------------------------------------------------|
-------------------------------------------------------------|
-------------------------------------------------------------|
-3-3-333--3-333--3-333--3-333--5-5-555--5-555--5-555--5-\----|
-3-3-333--3-333--3-333--3-333--5-5-555--5-555--5-555--5-\----|
 * * ***  * ***  * ***  * ***  * * ***  * ***  * ***  * 

3      __                           __
      /  \                         /  \
-20-19-20-19---19----19-17----20-19-20-19---19----19-17------|
------------20----19------17-------------20----19------17----|
-------------------------------------------------------------|
-------------------------------------------------------------|
-------------------------------------------------------------|
-------------------------------------------------------------|




0:54

1+2
---------------------------------------------------------------------|
---------------------------------------------------------------------|
-----------------------------------------------------------------7---|
-------------------------------------------------------------------7-|
---------------------------------------------------------------------|
-880-0-0-0-0-0-0-880-0-0-0-0-0-0-880-0-0-0-0-0-0-888-8-101010-10-----|
 *** * * * * * * *** * * * * * * *** * * * * * * *** *  * * *  * 

---------------------------------------------------------------------|
-----------------------------------------------------------------H---|
-----------------------------------------------------------------7-H-|
-------------------------------------------------------------------7-|
---------------------------------------------------------------------|
-880-0-0-0-0-0-0-880-0-0-0-0-0-0-880-0-0-0-0-0-0-888-8-101010-10-----|
 *** * * * * * * *** * * * * * * *** * * * * * * *** *  * * *  *

---------------------------------------------------------------------|
---------------------------------------------------------------------|
-----------------------------------------------------------------7---|
-------------------------------------------------------------------7-|
---------------------------------------------------------------------|
-880-0-0-0-0-0-0-880-0-0-0-0-0-0-880-0-0-0-0-0-0-888-8-101010-10-----|
 *** * * * * * * *** * * * * * * *** * * * * * * *** *  * * *  * 

---------------------------------------------------------------------|
-----------------------------------------------------------------H---|
-----------------------------------------------------------------7-H-|
-------------------------------------------------------------------7-|
---------------------------------------------------------------------|
-880-0-0-0-0-0-0-880-0-0-0-0-0-0-880-0-0-0-0-0-0-888-8-101010-10-----|
 *** * * * * * * *** * * * * * * *** * * * * * * *** *  * * *  *




1:19

1
       __                           __
      /  \                         /  \
-20-19-20-19---19----19-17----20-19-20-19---19----19-17------|
------------20----19------17-------------20----19------17----|
-------------------------------------------------------------|
-------------------------------------------------------------|
-------------------------------------------------------------|
-------------------------------------------------------------|
2
---------------------------------------------------------------|
---------------------------------------------------------------|
---------------------------------------------2-----------------|
------------------------------2--------------3-----------------|
------------------------------2--2-2-2--2-2-----3-3-3---\------|
------------------------------2--2-2-2--2-2-----3-3-3---\------|


1
----------------------------------------------------------------|
----------------------------------------------------------------|
1010-999------999----999----777-1010-999------999----999----777-|
---------1010-----99-----77--------------1010-----99-----77-----|
----------------------------------------------------------------|
----------------------------------------------------------------|
 * *      * *     **     **      * *      * *     **     **  
2
-------------------------------------------------------------|
-------------------------------------------------------------|
-------------------------------------------------------------|
-------------------------------------------------------------|
-0-0-000--0-000--0-000--0-000--2-2-222--2-222--2-222--2-222--|
-0-0-000--0-000--0-000--0-000--2-2-222--2-222--2-222--2-222--|
 * * ***  * ***  * ***  * ***  * * ***  * ***  * ***  * ***


1
----------------------------------------------------------------|
----------------------------------------------------------------|
1010-999------999----999----777-1010-999------999----999----777-|
---------1010-----99-----77--------------1010-----99-----77-----|
----------------------------------------------------------------|
----------------------------------------------------------------|
 * *      * *     **     **      * *      * *     **     **  

2
---------------------------------------------------------------|
---------------------------------------------------------------|
---------------------------------------------------------------|
---------------------------------------------------------------|
-3-3-333--3-333--3-333--3-333--5-5-555--5-555--5-555--5-555----|
-3-3-333--3-333--3-333--3-333--5-5-555--5-555--5-555--5-555----|
 * * ***  * ***  * ***  * ***  * * ***  * ***  * ***  * ***

1
----------------------------------------------------------------|
----------------------------------------------------------------|
1010-999------999----999----777-1010-999------999----999----777-|
---------1010-----99-----77--------------1010-----99-----77-----|
----------------------------------------------------------------|
----------------------------------------------------------------|
 * *      * *     **     **      * *      * *     **     **  
2
-------------------------------------------------------------|
-------------------------------------------------------------|
-------------------------------------------------------------|
-------------------------------------------------------------|
-0-0-000--0-000--0-000--0-000--2-2-222--2-222--2-222--2-222--|
-0-0-000--0-000--0-000--0-000--2-2-222--2-222--2-222--2-222--|
 * * ***  * ***  * ***  * ***  * * ***  * ***  * ***  * ***


1
----------------------------------------------------------------|
----------------------------------------------------------------|
1010-999------999----999----777-1010-999------999----999----777-|
---------1010-----99-----77--------------1010-----99-----77-----|
----------------------------------------------------------------|
----------------------------------------------------------------|
 * *      * *     **     **      * *      * *     **     **  

2
---------------------------------------------------------------|
---------------------------------------------------------------|
---------------------------------------------------------------|
---------------------------------------------------------------|
-3-3-333--3-333--3-333--3-333--5-5-555--5-555--5-555--5-555----|
-3-3-333--3-333--3-333--3-333--5-5-555--5-555--5-555--5-555----|
 * * ***  * ***  * ***  * ***  * * ***  * ***  * ***  * ***



1:51

1+2
-----------------------------------_____-------|
----------------------------------/     \------|
------7-------9---------10------10-12-10\9-10~-|
-7777---7--88---8--1010----1010----------------|
-----------------------------------------------|
-----------------------------------------------|
 ****      **       * *     * *

-------------------------------PH-------------|
-------------------------------10-PH-PH-------|
------7-------9---------10--------10-9-PH-----|
---77---7--88---8--1010----10----------10-----|
----------------------------------------------|
----------------------------------------------|
  **      **       * *     * 


-----------------------------------_____-------|
----------------------------------/     \------|
------7-------9---------10------10-12-10\9-10~-|
---77---7--88---8--1010----1010----------------|
-----------------------------------------------|
-----------------------------------------------|
  **      **       * *     * *

-------------------------------PH-------------|
-------------------------------10-PH-PH-------|
------7-------9---------10--------10-9-PH-----|
---77---7--88---8--1010----10----------10-----|
----------------------------------------------|
----------------------------------------------|
  **      **       * *     * 


-----------------------------------_____-------|
----------------------------------/     \------|
------7-------9---------10------10-12-10\9-10~-|
---77---7--88---8--1010----1010----------------|
-----------------------------------------------|
-----------------------------------------------|
  **      **       * *     * *

-------------------------------PH-------------|
-------------------------------10-PH-PH-------|
------7-------9---------10--------10-9-PH-----|
---77---7--88---8--1010----10----------10-----|
----------------------------------------------|
----------------------------------------------|
  **      **       * *     * 


-----------------------------------_____-------|
----------------------------------/     \------|
------7-------9---------10------10-12-10\9-10~-|
---77---7--88---8--1010----1010----------------|
-----------------------------------------------|
-----------------------------------------------|
  **      **       * *     * *

----------------------|
----------------------|
------7-------9-------|
---77---7--88---8-----|
----------------------|
----------------------|
  **      **      



2:18

1+2
-----------------------------------------------------|
-----------------------------------------------------|
----_____---------------_____------------------------|
---/     \-------------/     \-----------------------|
-10-12-10-8-12-------10-12-10-8----------------------|
---------------0-0-0------------12-0-0-0-0000-0000---|
               * * *               * * * **** ****

----------------------------------------------------------|
----------------------------------------10-8-8------13-10-|
----_____---------------_____-----9-77---------1010-------|
---/     \-------------/     \----------------------------|
-10-12-10-8-12-------10-12-10-8---------------------------|
---------------0-0-0--------------------------------------|
               * * *                **          * *

-----------------------------------------------------|
-----------------------------------------------------|
----_____---------------_____------------------------|
---/     \-------------/     \-----------------------|
-10-12-10-8-12-------10-12-10-8----------------------|
---------------0-0-0------------12-0-0-0-0000-0000---|
               * * *               * * * **** ****

-------------------------------------|
-------------------------------------|
----_____---------------_____--------|
---/     \-------------/     \-------|
-10-12-10-8-12-------10-12-10-8------|
---------------0-0-0-----------------|
               * * *               


2:30
L
-----------------------------------------------------|
-----------------------------------------------------|
----_____---------------_____------------------------|
---/     \-------------/     \-----------------------|
-10-12-10-8-12-------10-12-10-8----------------------|
---------------0-0-0------------12-0-0-0-0000-0000---|
               * * *               * * * **** ****
R
-----------------------------------------------------|
-----------------------------------------------------|
---___-----------------___---------------------------|
--/   \---------------/   \--------------------------|
-7-8-7-5--8----------7-8-7-5-------------------------|
--------------0-0-0----------7---0-0-0-0000-0000-----|
              * * *              * * * **** ****

L

---------------------------------------------------------|
----------------------------------------10-8-8------13-10|
----_____---------------_____-----9-77---------1010------|
---/     \-------------/     \---------------------------|
-10-12-10-8-12-------10-12-10-8--------------------------|
---------------0-0-0-------------------------------------|
               * * *                **          * *
R
-----------------------------------------------------------|
----------------------------------------13-12-13-----17-13-|
---___-----------------___------12-1010----------1414------|
--/   \---------------/   \--------------------------------|
-7-8-7\5--8----------7-8-7\5-------------------------------|
--------------0-0-0----------------------------------------|
              * * *                 * *           * *
 

L
-----------------------------------------------------|
-----------------------------------------------------|
----_____---------------_____------------------------|
---/     \-------------/     \-----------------------|
-10-12-10-8-12-------10-12-10-8----------------------|
---------------0-0-0------------12-0-0-0-0000-0000---|
               * * *               * * * **** ****
R
-----------------------------------------------------|
-----------------------------------------------------|
---___-----------------___---------------------------|
--/   \---------------/   \--------------------------|
-7-8-7-5--8----------7-8-7-5-------------------------|
--------------0-0-0----------7---0-0-0-0000-0000-----|
              * * *              * * * **** ****

L
-----------------------------------|
-----------------------------------|
----_____---------------_____------|
---/     \-------------/     \-----|
-10-12-10-8-12-------10-12-10-8----|
---------------0-0-0---------------|
               * * *               
R
--------------------------------|
--------------------------------|
---___-----------------______---|
--/   \---------------/      \--|
-7-8-7-5--8----------10-12-10-8-|
--------------0-0-0-------------|
              * * *            


L           R          L            R
-----------19-19-14------141414-10---242424-19-|
-17-17-12--------------------------------------|
-----------------------------------------------|
-----------------------------------------------|
-----------------------------------------------|
-----------------------------------------------|


2:43

1+2
---------------------------------------------------------------------|
---------------------------------------------------------------------|
-----------------------------------------------------------------7---|
-------------------------------------------------------------------7-|
---------------------------------------------------------------------|
-880-0-0-0-0-0-0-880-0-0-0-0-0-0-880-0-0-0-0-0-0-888-8-101010-10-----|
 *** * * * * * * *** * * * * * * *** * * * * * * *** *  * * *  * 


---------------------------------------------------------------------|
-----------------------------------------------------------------H---|
-----------------------------------------------------------------7-H-|
-------------------------------------------------------------------7-|
---------------------------------------------------------------------|
-880-0-0-0-0-0-0-880-0-0-0-0-0-0-880-0-0-0-0-0-0-888-8-101010-10-----|
 *** * * * * * * *** * * * * * * *** * * * * * * *** *  * * *  *


2:56

---------------------------------------------------------------------------|
---------------------------------------------------------------------------|
------------------------------------------------------------------------7--|
--------------------------------------------------------------------------7|
---------------------------------------------------------------------------|
101212-0-0-0-0-0-0-101212-0-0-0-0-0-0-101212-0-0-0-0-0-0-888-8-101010-10---|
 * * * * * * * * *  * * * * * * * * *  * * * * * * * * * *** *  * * *  * 

L
--------------------------------------------------------------------------|
--------------------------------------------------------------------------|
--------------------------------------------------------------------------|
--------------------------------------------------------------------------|
--------------------------------------------------------------------------|
-101212-0-0-0-0-0-0-101212-0-0-0-0-0-0-101212-0-0-0-0-0-0-888-8-101010-10-|
  * * * * * * * * *  * * * * * * * * *  * * * * * * * * * *** *  * * *  *
R
--------------------------------------------------------------------------|
--------------------------------------------------------------------------|
--------------------------------------------------------------------------|
--------------------------------------------------------------------------|
--------------------------------------------------------------------------|
-141515-0-0-0-0-0-0-141515-0-0-0-0-0-0-141515-0-0-0-0-0-0-888-8-101010-10-|
  * * * * * * * * *  * * * * * * * * *  * * * * * * * * * *** *  * * *  *

B
-------------------------------------|
----------------------------H--------|
----------------------------7-H------|
------------------------------7------|
-------------------------------------|
-888-8-101010-10-121212-12-----------|
 *** *  * * *  *  * * *  *



3:10

1
       __                           __
      /  \                         /  \
-20-19-20-19---19----19-17----20-19-20-19---19----19-17------|
------------20----19------17-------------20----19------17----|
-------------------------------------------------------------|
-------------------------------------------------------------|
-------------------------------------------------------------|
-------------------------------------------------------------|

2
---------------------------------------------------------------|
---------------------------------------------------------------|
---------------------------------------------------------------|
---------------------------------------------------------------|
--0----------------------------2-------------------------------|
--0----------------------------2-------------------------------|


1
       __                           __
      /  \                         /  \
-20-19-20-19---19----19-17----20-19-20-19---19----19-17------|
------------20----19------17-------------20----19------17----|
-------------------------------------------------------------|
-------------------------------------------------------------|
-------------------------------------------------------------|
-------------------------------------------------------------|

2
---------------------------------------------------------------|
---------------------------------------------------------------|
---------------------------------------------------------------|
---------------------------------------------------------------|
--3----------------------------5-------------------------------|
--3----------------------------5-------------------------------|



1
       __                           __
      /  \                         /  \
-20-19-20-19---19----19-17----20-19-20-19---19----19-17------|
------------20----19------17-------------20----19------17----|
-------------------------------------------------------------|
-------------------------------------------------------------|
-------------------------------------------------------------|
-------------------------------------------------------------|


-------------------------------------------------------------|
-------------------------------------------------------------|
-10--10-10-10-10-10-10-10--12--12--12--12--12--12--12--12----|
--X---X--X--X--X--X--X--X---X---X---X---X---X---X---X---X----|
--8---8--8--8--8--8--8--8--10--10--10--10--10--10--10--10----|
-------------------------------------------------------------|


1
       __                           __
      /  \                         /  \
-20-19-20-19---19----19-17----20-19-20-19---19----19-17------|
------------20----19------17-------------20----19------17----|
-------------------------------------------------------------|
-------------------------------------------------------------|
-------------------------------------------------------------|
-------------------------------------------------------------|

2
----------------------------------------------------------|
----------------------------------------------------------|
-14--14--14--14--14--14--14--14--17--17--17--17-----------|
--X---X---X---X---X---X---X---X---X---X---X---X--P--------|
-12--12--12--12--12--12--12--12--15--15--15--15---S\------|
----------------------------------------------------------|



1
----------------------------------------------------------------|
----------------------------------------------------------------|
1010-999------999----999----777-1010-999------999----999----777-|
---------1010-----99-----77--------------1010-----99-----77-----|
----------------------------------------------------------------|
----------------------------------------------------------------|
 * *      * *     **     **      * *      * *     **     **     
2
-------------------------------------------------------------|
-------------------------------------------------------------|
-------------------------------------------------------------|
-------------------------------------------------------------|
-0-0-000--0-000--0-000--0-000--2-2-222--2-222--2-222--2-222--|
-0-0-000--0-000--0-000--0-000--2-2-222--2-222--2-222--2-222--|
 * * ***  * ***  * ***  * ***  * * ***  * ***  * ***  * ***



1
----------------------------------------------------------------|
----------------------------------------------------------------|
1010-999------999----999----777-1010-999------999----999----777-|
---------1010-----99-----77--------------1010-----99-----77-----|
----------------------------------------------------------------|
----------------------------------------------------------------|
 * *      * *     **     **      * *      * *     **     **  

2
---------------------------------------------------------------|
---------------------------------------------------------------|
---------------------------------------------------------------|
---------------------------------------------------------------|
-3-3-333--3-333--3-333--3-333--5-5-555--5-555--5-555--5-555----|
-3-3-333--3-333--3-333--3-333--5-5-555--5-555--5-555--5-555----|
 * * ***  * ***  * ***  * ***  * * ***  * ***  * ***  * ***



1
----------------------------------------------------------------|
----------------------------------------------------------------|
1010-999------999----999----777-1010-999------999----999----777-|
---------1010-----99-----77--------------1010-----99-----77-----|
----------------------------------------------------------------|
----------------------------------------------------------------|
 * *      * *     **     **      * *      * *     **     **  
2
-------------------------------------------------------------|
-------------------------------------------------------------|
-------------------------------------------------------------|
-------------------------------------------------------------|
-0-0-000--0-000--0-000--0-000--2-2-222--2-222--2-222--2-222--|
-0-0-000--0-000--0-000--0-000--2-2-222--2-222--2-222--2-222--|
 * * ***  * ***  * ***  * ***  * * ***  * ***  * ***  * ***
3      __                           __
      /  \                         /  \
-20-19-20-19---19----19-17----20-19-20-19---19----19-17------|
------------20----19------17-------------20----19------17----|
-------------------------------------------------------------|
-------------------------------------------------------------|
-------------------------------------------------------------|
-------------------------------------------------------------|
2 comments total.
0 reply
andherembrace wrote on November 1 2012, 07:44 pm

riff@ 2:41 2nd left should be 3 14's instead of 15's

0 reply
andherembrace wrote on November 7 2012, 12:05 pm

check out my cover
https://www.facebook.com/photo.php?v=528322470512421&set=vb.100000040195827&type=3&theater

I want to post or [tab]
guest
You may want to rate the tab now too:
select rating
Please do not post tabs as comments. Select "correction" instead!