Oops, an error
Loading. Please wait.

Smoke Em If You Got Em Tab

ver6
ver6
More versions @911Tabs.com
419 views 1 this week
no commentswrite comment
1 2 3 4 5
excellent!
x 3
add to favorites launch autoscroll
font size
0
reset
Autoscroll
+/-
esc
set tempo
stop
Contributor
Tuning
B F# B E G# C#
WARNING: You are trying to view
                                    content from Ultimate-Guitar.com
                                    in an unauthorized application,
                                    which is prohibited.

                                    Please use an official Ultimate
                                    Guitar Tabs application for iPhone,
                                    iPad or Android to access legitimate
                                    chords, guitar, bass, and drum tabs
                                    from Ultimate-Guitar.com database.

                                    Type "ultimate guitar tabs" in Apple
                                    App Store's or Android Market's
                                    search to find the application.
PARKWAY DRIVE

SMOKE 'EM IF YOU GOT 'EM

B-F#-B-E-G#-C#


TABBED BY andherembrace


B
------------------------------------------------------------------|
------------------------------------------------------------------|
-999977775555444455554444------------------------4444-------------|
-------------------------777755554444555577775555----777755554444-|
------------------------------------------------------------------|
------------------------------------------------------------------|

----------------------------------------------------------|
----------------------------------------------------------|
-999977775555444455554444---------------------------------|
-------------------------777755554444555577775555---------|
---------------------------------------------------12-----|
---------------------------------------------------12\----|


0:10

1
------------------------------------------------------------------|
------------------------------------------------------------------|
-999977775555444455554444------------------------4444-------------|
-------------------------777755554444555577775555----777755554444-|
------------------------------------------------------------------|
------------------------------------------------------------------|
2
------------------------------------------------------------------|
------------------------------------------------------------------|
------------------------------------------------------------------|
-2---2---2---2---2---2---2---2---0---0---0---0----555-444---------|
-2---2---2---2---2---2---2---2---0---0---0---0------------555-222-|
-2---2---2---2---2---2---2---2---0---0---0---0--------------------|
 *   *   *   *   *   *   *   *   *   *   *   *    *** *** *** ***


1
------------------------------------------------------------------|
------------------------------------------------------------------|
-999977775555444455554444------------------------4444-------------|
-------------------------777755554444555577775555----777755554444-|
------------------------------------------------------------------|
------------------------------------------------------------------|
2
------------------------------------------------------------------|
------------------------------------------------------------------|
------------------------------------------------------------------|
-2---2---2---2---2---2---2---2---0---0---0---0----555-444---------|
-2---2---2---2---2---2---2---2---0---0---0---0------------555-222-|
-2---2---2---2---2---2---2---2---0---0---0---0--------------------|
 *   *   *   *   *   *   *   *   *   *   *   *    *** *** *** ***


0:20

1
------------------------------------------------------------------|
------------------------------------------------------------------|
-999977775555444455554444------------------------4444-------------|
-------------------------777755554444555577775555----777755554444-|
------------------------------------------------------------------|
------------------------------------------------------------------|
2
------------------------------------------------------------------|
------------------------------------------------------------------|
------------------------------------------------------------------|
-22--22--22--22--22--22--22--22--00--00--00--00---555-444---------|
-22--22--22--22--22--22--22--22--00--00--00--00-----------555-222-|
-22--22--22--22--22--22--22--22--00--00--00--00-------------------|
 **  **  **  **  **  **  **  **  **  **  **  **   *** *** *** ***


1
------------------------------------------------------------------|
------------------------------------------------------------------|
-999977775555444455554444------------------------4444-------------|
-------------------------777755554444555577775555----777755554444-|
------------------------------------------------------------------|
------------------------------------------------------------------|
2
------------------------------------------------------------------|
------------------------------------------------------------------|
------------------------------------------------------------------|
-22--22--22--22--22--22--22--22--00--00--00--00---555-444---------|
-22--22--22--22--22--22--22--22--00--00--00--00-----------555-222-|
-22--22--22--22--22--22--22--22--00--00--00--00-------------------|
 **  **  **  **  **  **  **  **  **  **  **  **   *** *** *** ***


B
------------------------|
------------------------|
------------------------|
-0-----------P----------|
-0------------S---------|
-0-------------\--------|



0:32

------------------------------------------------------------------|
------------------------------------------------------------------|
------------------------------------------------------------------|
---------------------5-------------------------------------^---^--|
-----8-7-5-------------7-8------------8-7-5-----3---5-----078-035-|
-0-0-------0-0-0-0-0--------0-0-0-0-0-------0-0---0---0-0---------|
 * *       * *   * *        * *   * *       * *   *   * *

------------------------------------------------------------------|
------------------------------------------------------------------|
------------------------------------------------------------------|
----------------------5------------------------------------^---^--|
-----8-7-5--------------7-8-----------8-7-5-----3---5-----078-035-|
-0-0-------0-0-0-0-0--------0-0-0-0-0-------0-0---0---0-0---------|
 * *       * *   * *        * *   * *       * *   *   * *

------------------------------------------------------------------|
------------------------------------------------------------------|
------------------------------------------------------------------|
----------------------5------------------------------------^---^--|
-----8-7-5--------------7-8-----------8-7-5-----3---5-----078-035-|
-0-0-------0-0-0-0-0--------0-0-0-0-0-------0-0---0---0-0---------|
 * *       * *   * *        * *   * *       * *   *   * *

------------------------------------------------------------------|
------------------------------------------------------------------|
------------------------------------------------------------------|
----------------------5------------------------------------^---^--|
-----8-7-5--------------7-8-----------8-7-5-----3---5-----078-035-|
-0-0-------0-0-0-0-0--------0-0-0-0-0-------0-0---0---0-0---------|
 * *       * *   * *        * *   * *       * *   *   * *


0:52

L                            R
--------------------------------------------------------|
--------------------------------------------------------|
--------------------------------------------------------|
--------------------------------------------------------|
-000-000-000-0000-0-0-0-0----000-000-000-0000-0-0-0-0---|
-000-000-000-0000-0-0-0-0----000-000-000-0000-0-0-0-0---|
 *** *** *** **** * * * *    *** *** *** **** * * * *

B
--------------------------------------------------------|
--------------------------------------------------------|
--------------------------------------------------------|
--------------------------------------------------------|
-000-000-000-0000-0-0-0-0----000-000-000-0000-0-0-0-0---|
-000-000-000-0000-0-0-0-0----000-000-000-0000-0-0-0-0---|
 *** *** *** **** * * * *    *** *** *** **** * * * *

--------------------------------------------------------|
--------------------------------------------------------|
--------------------------------------------------------|
--------------------------------------------------------|
-000-000-000-0000-0-0-0-0----000-000-000-0000-0-0-0-0---|
-000-000-000-0000-0-0-0-0----000-000-000-0000-0-0-0-0---|
 *** *** *** **** * * * *    *** *** *** **** * * * *



------------------------------------------------------------------|
------------------------------------------------------------------|
------------------------------------------------------------------|
----------------------5------------------------------------^---^--|
-----8-7-5--------------7-8-----------8-7-5-----3---5-----078-035-|
-0-0-------0-0-0-0-0--------0-0-0-0-0-------0-0---0---0-0---------|
 * *       * *   * *        * *   * *       * *   *   * *

------------------------------------------------------------------|
------------------------------------------------------------------|
------------------------------------------------------------------|
----------------------5------------------------------------^---^--|
-----8-7-5--------------7-8-----------8-7-5-----3---5-----078-035-|
-0-0-------0-0-0-0-0--------0-0-0-0-0-------0-0---0---0-0---------|
 * *       * *   * *        * *   * *       * *   *   * *


1:17

L
------------------------------------------------------------------|
------------------------------------------------------------------|
------------------------------------------------------------------|
----------------------5------------------------------------^---^--|
-----8-7-5--------------7-8-----------8-7-5-----3---5-----078-035-|
-0-0-------0-0-0-0-0--------0-0-0-0-0-------0-0---0---0-0---------|
 * *       * *   * *        * *   * *       * *   *   * *
R
----------------------------------------------------------------------|
----------------------------------------------------------------------|
---2-------------------5-----------------2--------------------^---^---|
-----5-3-----------------5-7---------------5-3-------2-3-----057-023--|
----------------------------------------------------------------------|
0-0---------0-0-0-0-0----------0-0-0-0-0---------0-0--0--0-0----------|
* *         * *   * *          * *   * *         * *  *  * *

L
------------------------------------------------------------------|
------------------------------------------------------------------|
------------------------------------------------------------------|
----------------------5------------------------------------^---^--|
-----8-7-5--------------7-8-----------8-7-5-----3---5-----078-035-|
-0-0-------0-0-0-0-0--------0-0-0-0-0-------0-0---0---0-0---------|
 * *       * *   * *        * *   * *       * *   *   * *
R
----------------------------------------------------------------------|
----------------------------------------------------------------------|
---2-------------------5-----------------2--------------------^---^---|
-----5-3-----------------5-7---------------5-3-------2-3-----057-023--|
----------------------------------------------------------------------|
0-0---------0-0-0-0-0----------0-0-0-0-0---------0-0--0--0-0----------|
* *         * *   * *          * *   * *         * *  *  * *


1:27

L
--------------------------------------------------------------------|
-----------------------------------------------------^--------------|
----------------------------------------------------057--^---^------|
----3-2-0---5-3-2-----7-5-3----2-3---------2----3-2-----057-023--^--|
---------------------------------------3-5----------------------035-|
0-0-------0--------0---------0-----0-0-------0----------------------|
* *       *        *         *     * *       *
R
--------------------------------------------------------------------|
-----------------------------------------------------^--------------|
----------------------------------------------------057--^---^------|
----0-2-3---2-3-5-----3-5-7----2-3---------2---3-2------057-023--^--|
---------------------------------------3-5----------------------035-|
0-0-------0--------0---------0-----0-0-------0----------------------|
* *       *        *         *     * *       *


L
--------------------------------------------------------------------|
-----------------------------------------------------^--------------|
----------------------------------------------------057--^---^------|
----3-2-0---5-3-2-----7-5-3----2-3---------2----3-2-----057-023--^--|
---------------------------------------3-5----------------------035-|
0-0-------0--------0---------0-----0-0-------0----------------------|
* *       *        *         *     * *       *
R
--------------------------------------------------------------------|
-----------------------------------------------------^--------------|
----------------------------------------------------057--^---^------|
----0-2-3---2-3-5-----3-5-7----2-3---------2---3-2------057-023--^--|
---------------------------------------3-5----------------------035-|
0-0-------0--------0---------0-----0-0-------0----------------------|
* *       *        *         *     * *       *

1
------------------|
--^---------------|
-057--^---^-------|
-----057-023--^---|
-------------035--|
------------------|
2
------------------|
------------------|
--^---^--------^--|
-057-023--^---023-|
---------035------|
------------------|


-----------------------------------------------|
--------------------------------------PH-------|
--------------------------------------3~~~-----|
-----------------------------------------------|
-0------0--0-0-----0------0--0-0-0-------------|
-0------0--0-0-----0------0--0-0-0-------------|
   |    *  * *     *      *  * * *


1:42

---------------------------------------------------------------------|
---------------------------------------------------------------------|
---------------------------------------------------------------------|
---------------------------------------------------------------------|
-0-----0--0-0----0-----0--0-0-0----0-----0--0-0----0-----0--0-0-0-PH~|
-0-----0--0-0----0-----0--0-0-0----0-----0--0-0----0-----0--0-0-0-3--|
 *     *  * *    *     *  * * *    *     *  * *    *     *  * * *

----------------------------------------------------------------|
----------------------------------------------------------------|
----------------------------------------------------------------|
----------------------------------------------------------------|
-0-----0--0-0----0-----0--0-0-0----0-----0--0-0----0-----0--P---|
-0-----0--0-0----0-----0--0-0-0----0-----0--0-0----0-----0---S\-|
 *     *  * *    *     *  * * *    *     *  * *    *     *


1:58

1
------------------_--------------------------------|
-----------------/ \-------------------------------|
----------------5-7-5---------------------5--------|
-8---8-7--5-7-8-------8-7--7---7-5--3-5-7---7-5-3--|
-5---5-5-------------------3---3-3-----------------|
-5---5-5-------------------3---3-3-----------------|
                                    * * *   * * *
2
---------------------------------------------------|
---------------------------------------------------|
---------------------------------------------------|
-8---8-7-------------------7---7-5-----------------|
-5---5-5-------------------3---3-3-----------------|
-5---5-5-------------------3---3-3-----------------|

1
------------------_--------------------------------|
-----------------/ \-------------------------------|
----------------5-7-5---------------------5--------|
-8---8-7--5-7-8-------8-7--7---7-5--3-5-7---7-5-3--|
-5---5-5-------------------3---3-3-----------------|
-5---5-5-------------------3---3-3-----------------|
                                    * * *   * * *
2
---------------------------------------------------|
---------------------------------------------------|
---------------------------------------------------|
-8---8-7-------------------7---7-5-----------------|
-5---5-5-------------------3---3-3-----------------|
-5---5-5-------------------3---3-3-----------------|


2:10

1
------------------------------------------------------------------------|
------------------------------------------------------------------------|
15---15--15-14--14-14--14-14-14-14---14---14--14-12--12-12--12-12-12-12-|
-X----X---X--X---X--X---X--X--X--X----X----X---X--X---X--X---X--X--X--X-|
13---13--13-12--12-12--12-12-12-12---12---12--12-10--10-10--10-10-10-10-|
------------------------------------------------------------------------|
2
------------------------------------------------------------------------|
------------------------------------------------------------------------|
------------------------------------------------------------------------|
-8----8---8--7---7--7---7--7--7--7----7----7---7--5---5--5----5--5--5--5|
-5----5---5--5---5--5---5--5--5--5----3----3---3--3---3--3----3--3--3--3|
-5----5---5--5---5--5---5--5--5--5----3----3---3--3---3--3----3--3--3--3|

1
------------------------------------------------------------------------|
------------------------------------------------------------------------|
15---15--15-14--14-14--14-14-14-14---14---14--14-12--12-12--12-12-12-12-|
-X----X---X--X---X--X---X--X--X--X----X----X---X--X---X--X---X--X--X--X-|
13---13--13-12--12-12--12-12-12-12---12---12--12-10--10-10--10-10-10-10-|
------------------------------------------------------------------------|
2
------------------------------------------------------------------------|
------------------------------------------------------------------------|
------------------------------------------------------------------------|
-8----8---8--7---7--7---7--7--7--7----7----7---7--5---5--5----5--5--5--5|
-5----5---5--5---5--5---5--5--5--5----3----3---3--3---3--3----3--3--3--3|
-5----5---5--5---5--5---5--5--5--5----3----3---3--3---3--3----3--3--3--3|



2;23


TAP 1
---___________________-------------------------------|
--/                   \-----___________________------|
127127127127127127127127---/                   \-----|
-------------------------127127127127127127127127----|
-----------------------------------------------------|
-----------------------------------------------------|
 T  T  T  T  T  T  T  T   T  T  T  T  T  T  T  T
TAP 2
---____________________--------___________________----|
--/                    \------/                   \---|
-157157157157157157157157---147147147147147147147147--|
------------------------------------------------------|
------------------------------------------------------|
------------------------------------------------------|
  T  T  T  T  T  T  T  T     T  T  T  T  T  T  T  T
RYTHM
------------------------------------------------------|
------------------------------------------------------|
------------------------------------------------------|
------------------------------------------------------|
-5----------------------------------------------------|
-5----------------------------------------------------|
   |

2:26

TAP 1
---__________________________------------------------------------|
--/                          \------__________________________---|
14101410141014101410141014101410---/                          \--|
---------------------------------14101410141014101410141014101410|
-----------------------------------------------------------------|
-----------------------------------------------------------------|
 T   T   T   T   T   T   T   T    T   T   T   T   T   T   T   T
TAP 2
----___________________----------------------------------|
---/                   \-----___________________---------|
-145145145145145145145145---/                   \--------|
--------------------------125125125125125125125125-------|
---------------------------------------------------------|
---------------------------------------------------------|
  T  T  T  T  T  T  T  T   T  T  T  T  T  T  T  T


2:29

TAP 1
---___________________-------------------------------|
--/                   \-----___________________------|
127127127127127127127127---/                   \-----|
-------------------------127127127127127127127127----|
-----------------------------------------------------|
-----------------------------------------------------|
 T  T  T  T  T  T  T  T   T  T  T  T  T  T  T  T
TAP 2
---____________________--------___________________----|
--/                    \------/                   \---|
-157157157157157157157157---147147147147147147147147--|
------------------------------------------------------|
------------------------------------------------------|
------------------------------------------------------|
  T  T  T  T  T  T  T  T     T  T  T  T  T  T  T  T
RYTHM
------------------------------------------------------|
------------------------------------------------------|
------------------------------------------------------|
-8----------------------------7-----------------------|
-5----------------------------5-----------------------|
-5----------------------------5-----------------------|


2:32
TAP 1
---__________________________------------------------------------|
--/                          \------__________________________---|
14101410141014101410141014101410---/                          \--|
---------------------------------14101410141014101410141014101410|
-----------------------------------------------------------------|
-----------------------------------------------------------------|
 T   T   T   T   T   T   T   T    T   T   T   T   T   T   T   T
TAP 2
----___________________----------------------------------|
---/                   \-----___________________---------|
-145145145145145145145145---/                   \--------|
--------------------------125125125125125125125125-------|
---------------------------------------------------------|
---------------------------------------------------------|
  T  T  T  T  T  T  T  T   T  T  T  T  T  T  T  T
RYTHM
---------------------------------------------------------|
---------------------------------------------------------|
---------------------------------------------------------|
--7------------------------5-----------------------------|
--3------------------------3-----------------------------|
--3------------------------3-----------------------------|


2:35

2 TAPPING RIFFS CONT.


---------------------------------------------------------------------|
---------------------------------------------------------------------|
---------------------------------------------------------------------|
-8------8------8----7-----7-----7----7-----7-----7---5-----5-----5---|
---------------------------------------------------------------------|
---5-5----5-5----5----5-5---5-5---5----3-3---3-3---3---3-3---3-3---3-|
   * *    * *    *    * *   * *   *    * *   * *   *   * *   * *   *

---------------------------------------------------------------|
---------------------------------------------------------------|
---------------------------------------------------------------|
-8------8------8----7-----7-----7----7-----7-----7---5-----5---|
---------------------------------------------------------------|
---5-5----5-5----5----5-5---5-5---5----3-3---3-3---3---3-3-----|
   * *    * *    *    * *   * *   *    * *   * *   *   * *


---------------------------------------------------------------------|
---------------------------------------------------------------------|
---------------------------------------------------------------------|
-8------8------8----7-----7-----7----7-----7-----7---5-----5-----5---|
---------------------------------------------------------------------|
---5-5----5-5----5----5-5---5-5---5----3-3---3-3---3---3-3---3-3---3-|
   * *    * *    *    * *   * *   *    * *   * *   *   * *   * *   *
---------------------------------------------------------------------|
---------------------------------------------------------------------|
---------------------------------------------------------------------|
-8------8------8----7-----7-----7----7-----7-----7---5-----5-----5---|
---------------------------------------------------------------------|
---5-5----5-5----5----5-5---5-5---5----3-3---3-3---3---3-3---3-3---3-|
   * *    * *    *    * *   * *   *    * *   * *   *   * *   * *   *


3:00

L
---------------------------------------|
---------------------------------------|
---------------------------------------|
---------------------------------------|
-5-5-5---5-5-5-5-5---5-5-5---5-5-5-5-5-|
-5-5-5---5-5-5-5-5---5-5-5---5-5-5-5-5-|
 * * *   * * * * *   * * *   * * * * *
R
---------------------------------------|
---------------------------------------|
-------2-3-2--------------2-3-2--------|
-5-3-5-------5-3----5-3-5-------5-3----|
---------------------------------------|
---------------------------------------|
 * * * *     * *    * * * *     * *

L
----------------------------------------|
----------------------------------------|
----------------------------------------|
----------------------------------------|
-3-3-3---3-3-3-3-3---3-3-3---3-3-3-3-3--|
-3-3-3---3-3-3-3-3---3-3-3---3-3-3-3-3--|
 * * *   * * * * *   * * *   * * * * *
R
----------------------------------------|
----------------------------------------|
----------2----------------2------------|
-3-2-3-5----5-3-2--3-2-3-5----5-3-2-----|
----------------------------------------|
----------------------------------------|
 * * *      * * *  * * *      * * *

L
---------------------------------------|
---------------------------------------|
---------------------------------------|
---------------------------------------|
-5-5-5---5-5-5-5-5---5-5-5---5-5-5-5-5-|
-5-5-5---5-5-5-5-5---5-5-5---5-5-5-5-5-|
 * * *   * * * * *   * * *   * * * * *
R
---------------------------------------|
---------------------------------------|
-------2-3-2--------------2-3-2--------|
-5-3-5-------5-3----5-3-5-------5-3----|
---------------------------------------|
---------------------------------------|
 * * * *     * *    * * * *     * *



                  PICK OVER NECK P.U.
L                    *
-------------------------|
----------------------)--|
---------------------2---|
---------------------PH--|
-3-3-3---3-3-3-3-3-------|
-3-3-3---3-3-3-3-3-------|
 * * *   * * * * *
                   PICK OVER NECK P.U.
R                    *
----------------------------|
----------------------)-----|
----------2----------3------|
-3-2-3-5----5-3-2----PH-----|
----------------------------|
----------------------------|
 * * *      * * *




---------------------------------------------------------------------------|
---------------------------------------------------------------------------|
----------8------------------8-----------------8------------------8----3-5-|
-1----0---X-----0---1----0---X----1-3-1----0---X-----0---1----0---X----X-X-|
-1-00-0---6--00-0---1-00-0---6-00-1-3-1-00-0---6--00-0---1-00-0---6-00-1-3-|
-1-00-0------00-0---1-00-0-----00-1-3-1-00-0------00-0---1-00-0-----00-----|
   **        **       **       **       **        **       **       **

---------------------------------------------------------------------------|
---------------------------------------------------------------------------|
----------8------------------8------------------8--------------------------|
-1----0---X-----0---1----0---X----3----1----0---X-----0--------------------|
-1-00-0---6--00-0---1-00-0---6-00-3-00-1-00-0---6--00-0---1111111144443333-|
-1-00-0------00-0---1-00-0-----00-3-00-1-00-0------00-0---1111111144443333-|
   **        **       **       **   **   **        **     ****************



-------------------------------------------------------------------------|
-------------------------------------------------------------------------|
-------------------------------------------------------------------------|
-------------------------------------------------------------------------|
-1-0000---1-0000---1-0000---1-0000---1-0000---1-0000---1111111144443333--|
-1-0000---1-0000---1-0000---1-0000---1-0000---1-0000---1111111144443333--|
 * ****   * ****   * ****   * ****   * ****   * ****   ****************

-------------------------------------------------------------------------|
-------------------------------------------------------------------------|
-------------------------------------------------------------------------|
-------------------------------------------------------------------------|
-1-0000---1-0000---1-0000---1-0000---1-0000---1-0000---1111111144443333--|
-1-0000---1-0000---1-0000---1-0000---1-0000---1-0000---1111111144443333--|
 * ****   * ****   * ****   * ****   * ****   * ****   ****************

------------------|
------------------|
------------------|
------------------|
-0------0---------|
-0------0---------|
   |      |
comments
We did not receive enough feedback on this tab! Please rate:
print report bad tab
1 2 3 4 5
I want to post or [tab]
guest
You may want to rate the tab now too:
select rating
Please do not post tabs as comments. Select "correction" instead!