Oops, an error
Loading. Please wait.

Swing Tab

ver1
ver1

Whole song

Interactive

More versions @911Tabs.com
5,265 views 30 this week
5 commentsread comments
1 2 3 4 5
excellent!
x 5
Autoscroll
+/-
esc
set tempo
stop
Contributor
Hey! There's an official Ultimate Guitar app which is ideal
for learning songs when you're away from computer. Get the app
WARNING: You are trying to view
                                    content from Ultimate-Guitar.com
                                    in an unauthorized application,
                                    which is prohibited.

                                    Please use an official Ultimate
                                    Guitar Tabs application for iPhone,
                                    iPad or Android to access legitimate
                                    chords, guitar, bass, and drum tabs
                                    from Ultimate-Guitar.com database.

                                    Type "ultimate guitar tabs" in Apple
                                    App Store's or Android Market's
                                    search to find the application.
PARKWAY DRIVE

SWING

B-F#-B-E-G#-C#



TABBED BY andherembrace



L
-----------------------------------------------------------------|
-----------------------------------------------------------------|
---_-----------------_--------_------------------_---------------|
--/ \---------------/ \------/ \--------/\------/ \--------------|
-5-8-5-------------5-8-5----5-8-5------7-10----5-8-5-------------|
-------000000000000-----0000------0000------00-------000000000000|
       ************     ****      ****      **       ************
R
---------------------------------------------------------------|
---------------------------------------------------------------|
---------------------------------------------------------------|
---------------------------------------------------------------|
-0-----------------0-------0----------0---------0--------------|
-0---|-------------0--|----0--|-------0--|------0----|---------|


0:06
L                    /
-----------------------------5-7-8--|
--------------------5-6-8-10--------|
-------------5-7--9-----------------|
-------5-7-8------------------------|
-5-7-8------------------------------|
------------------------------------|
R
---------------------------------------10-12-13--|
----------------------------10-11-13-15----------|
-------------------10-12-14----------------------|
----------10-12-13-------------------------------|
-10-12-13----------------------------------------|
-------------------------------------------------|

L
----------------------------------------------------------------------|
----------------------------------------------------------------------|
--_-------------------------------------------------------------------|
-/ \------------------------------------------------------------------|
5-8-5------------------1010--88--77--3-------------5-------5----------|
-----000000000000-12128----8---8---8-3----88757753-5--3578---88757753-|
     ************  * ** * ** *** ***      ********    ****   ********
R
----------------------------------------------------------------------|
----------------------------------------------------------------------|
----------------------------------------------------------------------|
----------------------------------------------------------------------|
-0--------------------1010--88--77--3--------------5--------5---------|
-0--|------------12128----8---8---8-3-----88757753-5---3578---88757753|
                  * ** * ** *** ***       ********     ****  ********


0:13

B
-------------------------------------|
-------------------------------------|
-------------------------------------|
-------------------------------------|
-------------------------------------|
-0-0000-0-00-0-00000000-0-5788757753-|
   ****   **   ********   **********                    

------------------------------------------|
------------------------------------------|
------------------------------------------|
------------------------------------------|
-------------------------5----------7-----|
-0-0000-0-00-0-0000-3578---87557810--1087-|
   ****   **   **** ****   ****** *   ***

--------------------------------------|
--------------------------------------|
--------------------------------------|
--------------------------------------|
--------------------------------------|
-0-0000-0-00-0-00000000-0-5788757753--|
   ****   **   ********   **********  

---------------------------------|
---------------------------------|
---------------------------------|
---------------------------------|
-3-----------5------5------------|
-3--88757753-5-3578---88757753---|
    ********   ****   ********


0:23

--------------------------------------------------------------------|
--------------------------------------------------------------------|
---_-----------------_--------_----------_----------_---------------|
--/ \---------------/ \------/ \--------/ \--------/ \--------------|
-5-8-5-------------5-8-5----5-8-5------7--10------5-8-5-------------|
-------000000000000-----0000------0000--------00-------000000000000-|
       ************     ****      ****        **       ************

L
-----------------------------5-7-8--|
--------------------5-6-8-10--------|
-------------5-7--9-----------------|
-------5-7-8------------------------|
-5-7-8------------------------------|
------------------------------------|
R
----------------------------------------10-12-13--|
-----------------------------10-11-13-15----------|
-------------------10-12--14----------------------|
----------10-12-13--------------------------------|
-10-12-13-----------------------------------------|
--------------------------------------------------|


---------------------------------------------------------------------|
---------------------------------------------------------------------|
--_------------------------------------------------------------------|
-/ \-----------------------------------------------------------------|
5-8-5------------------1010--88--77--3-------------5------5----------|
-----000000000000-12128----8---8---8-3----88757753-5--3578--88757753-|
     ************  * ** * ** *** ***      ********    ****  ********




0:34

---------------------------------------------------------------|
---------------------------------------------------------------|
---------------------------------------------------------------|
---------------------------------------------------------------|
---------------------------------------------------------------|
-0--0----0-|--0-00-00-0-00--00-0-0-0-00-0-0-0-000-000-00-0-0-0-|
              * ** ** * **  ** * * * ** * * * *** *** ** * * *

---------------------------------------------------------------|
---------------------------------------------------------------|
---------------------------------------------------------------|
---------------------------------------------------------------|
---------------------------------------------------------------|
-0--0----0-|--0-00-00-0-00--00-0-0-0-00-0-0-0-000-000-00-0-0-0-|
              * ** ** * **  ** * * * ** * * * *** *** ** * * *


0:47

L
------------------------------------------------------------------------|
------------------------------------------------------------------------|
------------------------------------------------------------------------|
-7-0-3-0-5-0-3-0-7-0-33-0-5-0-33-0-55---22--33--2-2----55--22--33--2-2--|
--------------------------------------3---3---3-----3----3---3---3-----3|
------------------------------------------------------------------------|
 * * * * * * * * * * ** ** *  ** * *************************************
R
---------------------------------------------------------------|
---------------------------------------------------------------|
---------------------------------------------------------------|
---------------------------------------------------------------|
---------------------------------------------------------------|
-0--0----0-|--0-00-00-0-00--00-0-0-0-00-0-0-0-000-000-00-0-0-0-|
              * ** ** * **  ** * * * ** * * * *** *** ** * * *

L
------------------------------------------------------------------------|
------------------------------------------------------------------------|
------------------------------------------------------------------------|
-7-0-3-0-5-0-3-0-7-0-33-0-5-0-33-0-55---22--33--2-2----55--22--33--2-2--|
--------------------------------------3---3---3-----3----3---3---3-----3|
------------------------------------------------------------------------|
 * * * * * * * * * * ** ** *  ** * *************************************
R
---------------------------------------------------------------|
---------------------------------------------------------------|
---------------------------------------------------------------|
---------------------------------------------------------------|
---------------------------------------------------------------|
-0--0----0-|--0-00-00-0-00--00-0-0-0-00-0-0-0-000-000-00-0-0-0-|
              * ** ** * **  ** * * * ** * * * *** *** ** * * *


1:00

L  0  VIBRATO=DEPRESS STRING IN FRONT OF NUT
------------------------------------------------------------------|
----------------------------------------^--------^-------^--------|
-----------------------------)--(------5-4------5-4-----5-4-------|
---------^--5---^-----2-----5----5~~~~-----7-5------7-5-----7-5---|
--5~~~~-7-8----8-7-3-----0----------------------------------------|
------------------------------------------------------------------|
R
------------------------------------------------------------------|
------------------------------------------------------------------|
------------------------------------------------------------------|
-5------------------7----3--------5-------------------------------|
-5------------------7----3--------5-------------------------------|
-5------------------7----3--------5-------------------------------|



1:10

  
L 
---_------------------------_---------------------------|
--/ \----------------------/ \--------------------------|
-79797-----^--------------79797------^------------------|
------10--9-10-10----7-9--------10--9-10-10----7-9------|
------------------10------------------------10----------|
--------------------------------------------------------|
R
--------------------------------------------------------|
--------------------------------------------------------|
--------------------------------------------------------|
--7-------------------------3---------------------------|
--7-------------------------3------PS-\-----------------|
--7-------------------------3---------\-----------------|



1:14

-------------------------------------------------------------------|
-------------------------------------------------------------------|
---_-----------------_--------_--------------------_---------------|
--/ \---------------/ \------/ \--------/\--------/ \--------------|
-5-8-5-------------5-8-5----5-8-5------7-10------5-8-5-------------|
-------000000000000-----0000------0000--------00-------000000000000|
       ************     ****      ****        **       ************

L
-----------------------------5-7-8--|
--------------------5-6-8-10--------|
-------------5-7--9-----------------|
-------5-7-8------------------------|
-5-7-8------------------------------|
------------------------------------|
R
----------------------------------------10-12-13--|
-----------------------------10-11-13-15----------|
-------------------10-12--14----------------------|
----------10-12-13--------------------------------|
-10-12-13-----------------------------------------|
--------------------------------------------------|



---------------------------------------------------------------------|
---------------------------------------------------------------------|
--_------------------------------------------------------------------|
-/ \-----------------------------------------------------------------|
5-8-5------------------1010--88--77--3-------------5------5----------|
-----000000000000-12128----8---8---8-3----88757753-5-3578---88757753-|
     ************  * ** * ** *** ***      ********   ****   ********

-------------------------------------|
-------------------------------------|
-------------------------------------|
-------------------------------------|
-------------------------------------|
-0-0000-0-00-0-00000000-0-5788757753-|
   ****   **   ********   **********                    

--------------------------------------------|
--------------------------------------------|
--------------------------------------------|
--------------------------------------------|
-------------------------5----------7-------|
-0-0000-0-00-0-0000-3578---87557810---1087--|
   ****   **   **** ****   ****** *    ***

-------------------------------------|
-------------------------------------|
-------------------------------------|
-------------------------------------|
-------------------------------------|
-0-0000-0-00-0-00000000-0-5788757753-|
   ****   **   ********   **********  

---------------------------------|
---------------------------------|
---------------------------------|
---------------------------------|
-3------------5------5-----------|
-3---88757753-5-3578---88757753--|
     ********   ****   ********


1:35

---------------------------------------------------------------|
---------------------------------------------------------------|
---------------------------------------------------------------|
---------------------------------------------------------------|
---------------------------------------------------------------|
-0--0----0-|--0-00-00-0-00--00-0-0-0-00-0-0-0-000-000-00-0-0-0-|
              * ** ** * **  ** * * * ** * * * *** *** ** * * *

---------------------------------------------------------------|
---------------------------------------------------------------|
---------------------------------------------------------------|
---------------------------------------------------------------|
---------------------------------------------------------------|
-0--0----0-|--0-00-00-0-00--00-0-0-0-00-0-0-0-000-000-00-0-0-0-|
              * ** ** * **  ** * * * ** * * * *** *** ** * * *


L
------------------------------------------------------------------------|
------------------------------------------------------------------------|
------------------------------------------------------------------------|
-7-0-3-0-5-0-3-0-7-0-33-0-5-0-33-0-55---22--33--2-2----55--22--33--2-2--|
--------------------------------------3---3---3-----3----3---3---3-----3|
------------------------------------------------------------------------|
 * * * * * * * * * * ** ** *  ** * *************************************
R
---------------------------------------------------------------|
---------------------------------------------------------------|
---------------------------------------------------------------|
---------------------------------------------------------------|
---------------------------------------------------------------|
-0--0----0-|--0-00-00-0-00--00-0-0-0-00-0-0-0-000-000-00-0-0-0-|
              * ** ** * **  ** * * * ** * * * *** *** ** * * *

L
------------------------------------------------------------------|
------------------------------------------------------------------|
------------------------------------------------------------------|
-7-0-3-0-5-0-3-0-7-0-33-0-5-0-33-0--55--22--33--2-2----1-1-1-1-0--|
--------------------------------------3---3---3-----3--0-0-0-0-0--|
-------------------------------------------------------1-1-1-1-0--|
 * * * * * * * * * * ** * * * ** *  *** *** *** * * *  * * * *
R
---------------------------------------------------------------|
---------------------------------------------------------------|
---------------------------------------------------------------|
---------------------------------------------------1-1-1-1-0---|
---------------------------------------------------0-0-0-0-0---|
-0--0----0-|--0-00-00-0-00--00-0-0-0-00-0-0-0------1-1-1-1-0---|
              * ** ** * **  ** * * * ** * * *      * * * *


2:08

B
---------------------------------------------------------------|
---------------------------------------------------------------|
---------------------------------------------------------------|
--0------------------------------------------------------------|
--0------------------------------------------------------------|
--0------------------------------------------------------------|


---------------------------------------------------------------|
---------------------------------------------------------------|
---------------------------------------------------------------|
--0------------------------------------------------------------|
--0------------------------------------------------------------|
--0------------------------------------------------------------|


2:27

L
----------------------------------------------------------------|
----------------------------------------------------------------|
----------------------------------------------------------------|
-0--------------------------------------------------------------|
-0--------------------------------------------------------------|
-0--------------------------------------------------------------|

R W/OVER DUBBED 6TH STRING 12TH FRET HARMONICS
-----------------------------------------------------------------|
-----------------------------------------------------------------|
-----------------------------------------------------------------|
-----------------------------------------------------------------|
-----------------------------------------------------------------|
-000-0-0-000-000-0-0-000-000-0-0-000-0-0-000-000-0-0-000-000-0-0-|
 *** * * *** *** * * *** *** * * *** * * *** *** * * *** *** * *

B
-----------------------------------------------------------------|
-----------------------------------------------------------------|
-----------------------------------------------------------------|
-----------------------------------------------------------------|
-----------------------------------------------------------------|
-000-0-0-000-000-0-0-000-000-0-0-000-0-0-000-000-0-0-000-000-0-0-|
 *** * * *** *** * * *** *** * * *** * * *** *** * * *** *** * *



2:37

L
----------------------------------------------------------------------|
----------------------------------------------------------------------|
----------------------------------------------------------------------|
-----------------------------------------------------------_----------|
------/\--5------------/\--7------------/\---8------------/ \---12--10|
-0-0-0357---0-0-0-0-0-0578---0-0-0-0-0-07810---0-0-0-0-0-081012---0---|
 * *        * * * * *        * * * * *         * * * * *          *
R
----------------------------------------------------------------|
----------------------------------------------------------------|
----------------------------------------------------------------|
-0--------------------------------------------------------------|
-0--------------------------------------------------------------|
-0--------------------------------------------------------------|

L
----------------------------------------------------------------------|
----------------------------------------------------------------------|
----------------------------------------------------------------------|
-----------------------------------------------------------_----------|
------/\--5------------/\--7------------/\---8------------/ \---12--10|
-0-0-0357---0-0-0-0-0-0578---0-0-0-0-0-07810---0-0-0-0-0-081012---0---|
 * *        * * * * *        * * * * *         * * * * *          *
R
----------------------------------------------------------------|
----------------------------------------------------------------|
----------------------------------------------------------------|
----------------------------------------------------------------|
----------------------------------------------------------------|
----------------------------------------------------------------|



2:48
B
-----------------------------------------------------------------|
-----------------------------------------------------------------|
-----------------------------------------------------------------|
-----------------------------------------------------------------|
-----------------------------------------------------------------|
-000-0-000-000-0-0-000-000-0-0-0-000-0-000-000-0-0-000-000-0-0-0-|
 *** * *** *** * * *** *** * * * *** * *** *** * * *** *** * * *

-------------------------------------------------------------------|
-------------------------------------------------------------------|
-------------------------------------------------------------------|
-------------------------------------------------------------------|
-------------------------------------------------------------------|
-000-0-000-000-0-0-000-000-0-0-0-000-0-000-000-0-0-000-000-000-000-|
 *** * *** *** * * *** *** * * * *** * *** *** * * *** *** *** ***


2:58

----------------------------------------------------------------------|
----------------------------------------------------------------------|
----------------------------------------------------------------------|
-----------------------------------------------------------_----------|
------/\--5------------/\--7------------/\---8------------/ \---12--10|
-0-0-0357---0-0-0-0-0-0578---0-0-0-0-0-07810---0-0-0-0-0-081012---0---|
 * *        * * * * *        * * * * *         * * * * *          *

----------------------------------------------------------------------|
----------------------------------------------------------------------|
----------------------------------------------------------------------|
-----------------------------------------------------------_----------|
------/\--5------------/\--7------------/\---8------------/ \---12--10|
-0-0-0357---0-0-0-0-0-0578---0-0-0-0-0-07810---0-0-0-0-0-081012---0---|
 * *        * * * * *        * * * * *         * * * * *          *

3:08

L
-----------------------------------------------------------------------|
-----------------------------------------------------------------------|
-----------------------------------------------------------------------|
----------------------------------------_------------------__----------|
-----/\--5------------/\--7------------/ \---8------------/  \---12--10|
0-0-0357---0-0-0-0-0-0578---0-0-0-0-0-081012---0-0-0-0-0-0101213---0---|
* *        * * * * *        * * * * *          * * * * *           *
R
----------------------------------------------------------------------|
----------------------------------------------------------------------|
----------------------------------------------------------------------|
----------------------------------------------------------------------|
---------------------------------------------------------------8---7--|
-000-000---------000-000----------000-000----------000-000-------0----|
 *** ***         *** ***          *** ***          *** ***       *


L
-----------------------------------------------------------------------|
-----------------------------------------------------------------------|
-----------------------------------------------------------------------|
----------------------------------------_------------------__----------|
-----/\--5------------/\--7------------/ \---8------------/  \---12--10|
0-0-0357---0-0-0-0-0-0578---0-0-0-0-0-081012---0-0-0-0-0-0101213---0---|
* *        * * * * *        * * * * *          * * * * *           *
R
----------------------------------------------------------------------|
----------------------------------------------------------------------|
----------------------------------------------------------------------|
----------------------------------------------------------------------|
----------------------------------------------------------------8---7-|
-000-000-------0-0-000-000-------0-0-000-000-------0 0-000-000----0---|
 *** ***       * * *** ***       * * *** ***       * * *** ***    *


B
-----------------------------------------------------------------|
-----------------------------------------------------------------|
-----------------------------------------------------------------|
-----------------------------------------------------------------|
-----------------------------------------------------------------|
-000-0-0-000-000-0-0-000-000-0-0-000-0-0-000-000-0-0-000-000-0-0-|
 *** * * *** *** * * *** *** * * *** * * *** *** * * *** *** * *

-----------------------------------------------------------|
-----------------------------------------------------------|
-----------------------------------------------------------|
-------------------------------------------------1-1-1-1-0-|
-------------------------------------------------0-0-0-0-0-|
-000-0-0-000-000-0-0-000-000-0-0-000-0-000-000-0-1-1-1-1-0-|
 *** * * *** *** * * *** *** * * *** * *** *** * * * * *  
comments
print report bad tab
5 comments total. Showing first comments.
0 reply
DanielHsv0 wrote on October 29 2012, 04:26 am

Just a question. Can you actually play this on guitar?

0 reply
andherembrace wrote on October 29 2012, 08:43 am

@Danielhsv0 that melodic run up still gives me trouble :)the rest i got down pretty good,i usually add a link to a cover after i learn a song into my tabs either in the tab itself or in the comments section so that people can see that what i type is accurate, i have wild eyes,the river,old ghost newregrets and snake oil and holy water done if you want to check them out,if i ever get through this one ill post a link to it :)

0 reply
prikaze wrote on December 11 2012, 08:11 pm

Yeah, I was gonna ask about fingering that 5-6-8-10 part on the B string (tuned to G# here). That's physically impossible to do that way. (Not to b*tch, or anything, just saying/wondering.)

I want to post or [tab]
guest
You may want to rate the tab now too:
select rating
Please do not post tabs as comments. Select "correction" instead!