Oops, an error
Loading. Please wait.

The Slow Surrender Tab

ver1
ver1

Whole song

Interactive

More versions @911Tabs.com
6,446 views 51 this week
4 commentsread comments
1 2 3 4 5
excellent!
x 5
Autoscroll
+/-
esc
set tempo
stop
Contributor
WARNING: You are trying to view
                                    content from Ultimate-Guitar.com
                                    in an unauthorized application,
                                    which is prohibited.

                                    Please use an official Ultimate
                                    Guitar Tabs application for iPhone,
                                    iPad or Android to access legitimate
                                    chords, guitar, bass, and drum tabs
                                    from Ultimate-Guitar.com database.

                                    Type "ultimate guitar tabs" in Apple
                                    App Store's or Android Market's
                                    search to find the application.
PARKWAY DRIVE

THE SLOW SURRENDER

B-F#-B-E-G#-C#


TABBED BY andherembrace




intro is played on bass

0:07
---------------------------------------------------------------|
---------------------------------------------------------------|
--7------------------------------------------------------------|
--5------------------------------------------------------------|
--5------------------------------------------------------------|
---------------------------------------------------------------|


0:15
 B                       L           R          L      R     B
----------------------------------------------------------------------|
----------------------------------------------------------------------|
----------------------------------------------------------------------|
----------------------------------------------------------------------|
-5-1---------------------5-1---7-3---3-5---5-0---5-1---7-3------------|
-5-1---------------------5-1---7-3---3-5---5-0---5-1---7-3---3-5~-3-5~|



0:30

---------------------------------------------------------|
---------------------------------------------------------|
---------------------------------------------------------|
---------------------------------------------------------|
-5-1---7-3---3-5---5-0---5-1---7-3-----------------------|
-5-1---7-3---3-5---5-0---5-1---7-3---3-5~-3-5~-3-5~------|


---------------------------------------------------------|
---------------------------------------------------------|
--7------------------------------------------------------|
--5------------------------------------------------------|
--5------------------------------------------------------|
---------------------------------------------------------|


---------------------------------------------------------|
---------------------------------------------------------|
---------------------------------------------------------|
---------------------------------------------------------|
-5-1---7-3---3-5---5-0-----------------------------------|
-5-1---7-3---3-5---5-0---5-1-1-1-7-3-3-3--3-5~-3-5~-3-5~-|
                         * * * * * * * * 



0:52

1
--------------------------------------------------------------|
---------------------------------3----------------------------|
-2-0-2-3-5-3-2-3-5-3-2-0-2-0-2-3---3-2-3-5-3-2-0--------------|
--------------------------------------------------------------|
--------------------------------------------------------------|
--------------------------------------------------------------|
2
--------------------------------------------------------------|
--------------------------------------------------------------|
----------------------------------------------------7---------|
-5--------------------------------------------------X---------|
-5--------------------------------------------------5---------|
-5------------------------------------------------------------|


1
--------------------------------------------------------------|
---------------------------------3----------------------------|
-2-0-2-3-5-3-2-3-5-3-2-0-2-0-2-3---3-2-3-5-3-2-0--------------|
--------------------------------------------------------------|
--------------------------------------------------------------|
--------------------------------------------------------------|
2
----------------------------------------------------------|
----------------------------------------------------------|
---------------------------------------------------8--7---|
-3-------------------------------------------------X--X---|
-3-------------------------------------------------6--5---|
-3--------------------------------------------------------|


1
--------------------------------------------------------------|
---------------------------------3----------------------------|
-2-0-2-3-5-3-2-3-5-3-2-0-2-0-2-3---3-2-3-5-3-2-0--------------|
--------------------------------------------------------------|
--------------------------------------------------------------|
--------------------------------------------------------------|
2
------------------------------------------------------_----|
-----------------------------------------------------/ \---|
----------------------------------------------------7-810--|
-5--------------------------------------------------X-X-X--|
-5--------------------------------------------------5/6/8--|
-5---------------------------------------------------------|

1
-----------------------------------------------------------------|
---------------------------------3-------------------------------|
-2-0-2-3-5-3-2-3-5-3-2-0-2-0-2-3---3-2-3-5-3-2-0-5-3-2-3-5-3-2-0-|
-----------------------------------------------------------------|
-----------------------------------------------------------------|
-----------------------------------------------------------------|
2
--------------------------------------------------------------------|
--------------------------------------------------------------------|
--------------------------------------------------------------------|
-3------------------------------------------------------------------|
-3---------------------------------------------------3--------------|
-3-----------------------------------5-5-5-5-8-5-5-5---5-5-5-3-5-5-5|
                                     * * * * * * * * * * * * * * * *


1:06


1
------------------------------------------------------------------|
11-)---11-------11-)---11-------11-)---11-----------------^-------|
14---14--14-12--14---14--14-12--14---14--14-12-14-12-10-10-12-10--|
----------------------------------------------------------------12|
------------------------------------------------------------------|
------------------------------------------------------------------|
2
--------3-3-3----------3-3-3------------------------------------|
--------3-3-3----------3-3-3---------8-8-8----8--8--8--8--8-----|
-------------------------------------7-7-7---10-10-10-10-10-----|
----------------------------------------------8--8--8--8--8-----|
-1--------------3----------------5---------8--------------------|
-1--------------3----------------5---------8--------------------|

1
-----------------------------------------------------PB-PB-----|
-11-)---11-------11-)---11-------11-)---11-------15)-15-15-----|
-14---14--14-12--14---14--14-12--14---14--14-12--18--18-18-17--|
-------------------------------------------------------------17|
---------------------------------------------------------------|
---------------------------------------------------------------|
2
--------3-3-3----------3-3-3------------------------------------|
--------3-3-3----------3-3-3---------8-8-8----8--8--8--8--8-----|
-------------------------------------7-7-7---10-10-10-10-10-----|
----------------------------------------------8--8--8--8--8-----|
-1--------------3----------------5---------8--------------------|
-1--------------3----------------5---------8--------------------|


1
----------------------------------------------------------^-------|
11-)---11-------11-)---11-------11-)---11---------------10-12-10--|
14---14--14-12--14---14--14-12--14---14--14-12-14-12-10-10-12-10--|
----------------------------------------------------------------12|
------------------------------------------------------------------|
------------------------------------------------------------------|
2
--------3-3-3----------3-3-3------------------------------------|
--------3-3-3----------3-3-3---------8-8-8----8--8--8--8--8-----|
-------------------------------------7-7-7---10-10-10-10-10-----|
----------------------------------------------8--8--8--8--8-----|
-1--------------3----------------5---------8--------------------|
-1--------------3----------------5---------8--------------------|

1
------------------------------------------------------PB-PB-PB-PB-|
-11-)----11-------11-)---11-------11-)---11-------15)-15-15-15-15-|
-14----14--14-12--14---14--14-12--14---14--14-12--18--18-18-18-18-|
------------------------------------------------------------------|
------------------------------------------------------------------|
------------------------------------------------------------------|
2
--------3-3-3----------3-3-3-----------------------------------|
--------3-3-3----------3-3-3---------8-8-8----8--8--8--8--8----|
-------------------------------------7-7-7---10-10-10-10-10----|
----------------------------------------------8--8--8--8--8----|
-1--------------3----------------5---------8-------------------|
-1--------------3----------------5---------8-------------------|



1:29


---------------------------------------------------------------|
---------------------------------------------------------------|
---------------------------------------------------------------|
---------------------------------------------------------------|
------------------3-3-3-3-3-3-3--------------------------------|
-3-5-5--5~--3-5---7-7-7-7-7-7-7--3-5-5--5~--3-5--3-5-7-8-7-5-3-|
                  * * * * * * *                  * * * * * * *

---------------------------------------------------------------|
---------------------------------------------------------------|
---------------------------------------------------------------|
---------------------------------------------------------------|
------------------3-3-3-3-3-3-3--------------------------------|
-3-5-5--5~--3-5---7-7-7-7-7-7-7--3-5-5--5~--3-5--3-5-7-8-7-5-3-|
                  * * * * * * *                  * * * * * * *



1:43


----------------------------------------------------------|
----------------------------------------------------------|
----------------------------------------------------------|
------------------------------------------------------ph--|
----------------------------------------000-100--55-3-3~~-|
-3-5-5--5~-\------------3-5-5--5~-\-----------------------|
                                        *** ***  ** *



1:51
1
--------------------------------------------------------------|
---------------------------------3----------------------------|
-2-0-2-3-5-3-2-3-5-3-2-0-2-0-2-3---3-2-3-5-3-2-0--------------|
--------------------------------------------------------------|
--------------------------------------------------------------|
--------------------------------------------------------------|
2
--------------------------------------------------------------|
--------------------------------------------------------------|
----------------------------------------------------7---------|
-5--------------------------------------------------X---------|
-5--------------------------------------------------5---------|
-5------------------------------------------------------------|


1
--------------------------------------------------------------|
---------------------------------3----------------------------|
-2-0-2-3-5-3-2-3-5-3-2-0-2-0-2-3---3-2-3-5-3-2-0--------------|
--------------------------------------------------------------|
--------------------------------------------------------------|
--------------------------------------------------------------|
2
----------------------------------------------------------|
----------------------------------------------------------|
---------------------------------------------------8--7---|
-3-------------------------------------------------X--X---|
-3-------------------------------------------------6--5---|
-3--------------------------------------------------------|


1
--------------------------------------------------------------|
---------------------------------3----------------------------|
-2-0-2-3-5-3-2-3-5-3-2-0-2-0-2-3---3-2-3-5-3-2-0--------------|
--------------------------------------------------------------|
--------------------------------------------------------------|
--------------------------------------------------------------|
2
------------------------------------------------------_----|
-----------------------------------------------------/ \---|
----------------------------------------------------7-810--|
-5--------------------------------------------------X-X-X--|
-5--------------------------------------------------5/6/8--|
-5---------------------------------------------------------|

1
--------------------------------------------------------|
--------------------------------------------------------|
--2-0-2-3-5-3-2-3-5-3-2-0-2-0-2-3-----------------------|
--------------------------------------------------------|
---------------------------------------4-3-1------------|
---------------------------------------4-3-1-3-1-3------|
2                                      * * *
--------------------------------------------------------|
--------------------------------------------------------|
--------------------------------------------------------|
-3------------------------------------------------------|
-3-------------------------------------4-3-1------------|
-3-------------------------------------4-3-1-3-1-3------|
                                       * * *


2:07

B
-------------------------------------------------------------|
-------------------------------------------------------------|
-------------------------------------------------------------|
-------------------------------------------------------------|
-00-000000-000000-0000-111-333-00-000000-0000-4-3-1----------|
-00-000000-000000-0000-111-333-00-000000-0000-4-3-1-3-1-3----|
 ** ****** ****** **** *** *** ** ****** **** * * *
-------------------------------------------------------------|
-------------------------------------------------------------|
-------------------------------------------------------------|
-------------------------------------------------------------|
-00-000000-000000-0000-111-333-00-000000-0000-4-3-1----------|
-00-000000-000000-0000-111-333-00-000000-0000-4-3-1-3-1-3----|
 ** ****** ****** **** *** *** ** ****** **** * * *


----------------------------------------------------------|
----------------------------------------------------------|
----------------------------------------------------------|
----------------------------------------------------------|
-00-000000-000000-000000-000000-000000-0000-4-3-1-3-1-3---|
-00-000000-000000-000000-000000-000000-0000-4-3-1-3-1-3---|
 ** ****** ****** ****** ****** ****** **** 
--------------------------------------------------------|
--------------------------------------------------------|
--------------------------------------------------------|
--------------------------------------------------------|
-00-000000-000000-000000-000000-000000-0000-------------|
-00-000000-000000-000000-000000-000000-0000-3-5-3-5~-\--|
 ** ****** ****** ****** ****** ****** **** 



---------------------------------------------------------------|
---------------------------------------------------------------|
--7------------------------------------------------------------|
--5------------------------------------------------------------|
--5------------------------------------------------------------|
------------------------------------------3-5~-3-5~-3-5~-------|



2:47

--------------------------------------------------------|
--------------------------------------------------------|
-12------15-------15-14--15-14-10-12--------------------|
--X-------X--------X--X---X--X--X--X--------------------|
-10------13-------13\12--13\12--8/10--------------------|
----------------------------------------3-5~-3-5~-3-5~--|


-----------------------------------------------------|
-----------------------------------------------------|
-12------15-------15-14--15-14-10-12-----------------|
--X-------X--------X--X---X--X--X--X-----------------|
-10------13-------13\12--13\12--8/10----5-5-5-5------|
----------------------------------------5-5-5-5\-----|



3:02

---------------------------------------------------------------|
--11)--------10)---------11)--------10)------------------------|
--14---------13----------14---------13-------------------------|
---------------------------------------------------------------|
---------------------------------------------------------------|
---------------------------------------------------------------|
2
--------------------------------------------------------------------|
------------------------------------------------------------HHHHHHHH|
------------------------------------------------------------55555555|
------------------------------------------------------------55555555|
-5-----------3-----------5-----------3--3-3-3-3-3-3-3-3-3-3-HHHHHHHH|
-5-----------3-----------5-----------3--3-3-3-3-3-3-3-3-3-3---------|
                                        * * * * * * * * * * 


3:17

1
-------------------------------------------------------------------|
11-)----11-------11-)---11-------11-)---11-----------------^-------|
14----14--14-12--14---14--14-12--14---14--14-12-14-12-10-10-12-10--|
-----------------------------------------------------------------12|
-------------------------------------------------------------------|
-------------------------------------------------------------------|
2
--------3-3-3----------3-3-3------------------------------------|
--------3-3-3----------3-3-3---------8-8-8----8--8--8--8--8-----|
-------------------------------------7-7-7---10-10-10-10-10-----|
----------------------------------------------8--8--8--8--8-----|
-1--------------3----------------5---------8--------------------|
-1--------------3----------------5---------8--------------------|

1
----------------------------------------------------------PB-PB-|
-11-)----11-------11-)---11-------11-)---11-------15)-15-15-----|
-14----14--14-12--14---14--14-12--14---14--14-12--18--18-18-17--|
--------------------------------------------------------------17|
----------------------------------------------------------------|
----------------------------------------------------------------|
2
--------3-3-3----------3-3-3------------------------------------|
--------3-3-3----------3-3-3---------8-8-8----8--8--8--8--8-----|
-------------------------------------7-7-7---10-10-10-10-10-----|
----------------------------------------------8--8--8--8--8-----|
-1--------------3----------------5---------8--------------------|
-1--------------3----------------5---------8--------------------|



1
----------------------------------------------------------^-------|
11-)---11-------11-)---11-------11-)---11---------------10-12-10--|
14---14--14-12--14---14--14-12--14---14--14-12-14-12-10-10-12-10--|
----------------------------------------------------------------12|
------------------------------------------------------------------|
------------------------------------------------------------------|
2
--------3-3-3----------3-3-3------------------------------------|
--------3-3-3----------3-3-3---------8-8-8----8--8--8--8--8-----|
-------------------------------------7-7-7---10-10-10-10-10-----|
----------------------------------------------8--8--8--8--8-----|
-1--------------3----------------5---------8--------------------|
-1--------------3----------------5---------8--------------------|

1                                                )  ) ) ) ) )
-----------------------------------------------15)1515151515|
11-)---11-------11-)---11-------11-)---11------18-----------|
14---14--14-12--14---14--14-12--14---14--14-12--------------|
------------------------------------------------------------|
------------------------------------------------------------|
------------------------------------------------------------|
2
--------3-3-3----------3-3-3--------------------------------|
--------3-3-3----------3-3-3---------8-8-8----8--8--8--8--8-|
-------------------------------------7-7-7---10-10-10-10-10-|
----------------------------------------------8--8--8--8--8-|
-1--------------3----------------5---------8----------------|
-1--------------3----------------5---------8----------------|


3:39

---------------------------------------------------------|
---------------------------------------------------------|
---------------------------------------------------------|
---------------------------------------------------------|
-5-1---7-3---3-5---5-0---5-1---7-3-----------------------|
-5-1---7-3---3-5---5-0---5-1---7-3---3-5~-3-5~-3-5~------|

---------------------------------------------------------|
---------------------------------------------------------|
---------------------------------------------------------|
---------------------------------------------------------|
-5-1---7-3---3-5---5-0-----------------------------------|
-5-1---7-3---3-5---5-0---5-1-1-1-7-3-3-3--3-5~-3-5~-3-5~-|
                         * * * * * * * * 



3:55
----------------------------------------------------------------------|
----------------------------------------------------------------------|
----------------------------------------------------------------------|
----------------------------------------------------------------------|
--------------------------------------------------------------3-------|
5-1-11-1-7-3-33-3-3-5-55-5-5-0-00-0-5-1-11-1-7-3-33-3-55558555-5553555|
    **       **       **       **       **       **   ****************


L
---------------------------------------------------------------------|
---------------------------------------------------------------------|
---------------------------------------------------------------------|
---------------------------------------------------------------------|
--------------------------------------5-1-1-1-7-3-3-3----------------|
-5-1-11-1-7-3-33-3-3-5-55-5-5-0-00-0--5-1-1-1-7-3-3-3--3-5~-3-5~-----|
     **       **       **       **    * * * * * * * * 

R
-------------------------------------------------------------------|
-------------------------------------------------------------------|
-------------------------------------------------------------------|
-------------------------------------------------------------------|
-5-1------7-3-----3-5------5-0---------5-1-1-1-7-3-3-3-------------|
-5-1------7-3-----3-5------5-0---------5-1-1-1-7-3-3-3--7-8~-7-8~--|
                                       * * * * * * * *
comments
print report bad tab
4 comments total. Showing first comments.
0 reply
DanielHsv0 wrote on October 29 2012, 04:14 am

Seems Legit!

0 reply
Alpha_Wolf wrote on December 8 2012, 09:16 pm

I'm pretty sure the intro is actually clean guitar with effects, not bass. Not trying to attack you, just my opinion. The tab looks great though!

0 reply
andherembrace wrote on February 1 2013, 06:24 pm

need to fix a few things,use this tab until i get around to it
https://docs.google.com/folder/d/0B1AHRImLJJTYMHNFZ1c4UmJJdGc/edit?pli=1

I want to post or [tab]
guest
You may want to rate the tab now too:
select rating
Please do not post tabs as comments. Select "correction" instead!