Oops, an error
Loading. Please wait.

Feather On The Clyde Tab

ver2
ver2

Whole song

Video

More versions @911Tabs.com
19,672 views 154 this week
11 commentsread comments
1 2 3 4 5
excellent!
x 21
Autoscroll
+/-
esc
set tempo
stop
Contributor
Difficulty
intermediate
Hey! There's an official Ultimate Guitar app which is ideal
for learning songs when you're away from computer. Get the app
WARNING: You are trying to view
                                    content from Ultimate-Guitar.com
                                    in an unauthorized application,
                                    which is prohibited.

                                    Please use an official Ultimate
                                    Guitar Tabs application for iPhone,
                                    iPad or Android to access legitimate
                                    chords, guitar, bass, and drum tabs
                                    from Ultimate-Guitar.com database.

                                    Type "ultimate guitar tabs" in Apple
                                    App Store's or Android Market's
                                    search to find the application.
-------------------------------------------------------------------------------
                          FEATHER ON THE CLYDE - Passenger
-------------------------------------------------------------------------------
Tabbed by: SergioRoche

Tuning: Standard
Capo on 8

Note that the D chord is played as three different patterns through this song:
        D**  D*   D
e|--------------------------|
B|------7----3----3---------|
G|------0----0----2---------|
D|------7----4----0---------|
A|------5----5--------------|
E|--------------------------|


Intro
             C                                   D**
e|---------------------------------------------------------------------------|
B|-------------5-----5-----5-----5-----5-----5-----7-----7-------------------|
G|---------------0-----0-----0-----0-----0-----0-----0-----0-----------------|
D|-----------------5-----5-----5-----------5-----------7---------------------|
A|-----------3-----------------------3-----------5---------------------------|
E|---------------------------------------------------------------------------|

             Em                      G
e|---------------------------------------------------------------------------|
B|-------------0-----0-----0-----0-----0-----0-----0-----0-------------------|
G|---------------0-----0-----0-----0-----0-----0-----0-----0-----------------|
D|-----------------2-----2-----2-----------0-----0-----0---------------------|
A|---------------------------------------------------------------------------|
E|-----------0-----------------------3---------------------------------------|

             C                                   D*
e|---------------------------------------------------------------------------|
B|-------------5-----5-----5-----5-----5-----5-----3-----3-------------------|
G|---------------0-----0-----0-----0-----0-----0-----0-----0-----------------|
D|-----------------5-----5-----5-----------5-----------4---------------------|
A|-----------3-----------------------3-----------5---------------------------|
E|---------------------------------------------------------------------------|

             Em                      G
e|---------------------------------------------------------------------------|
B|-------------0-----0-----0-----0-----0-----0-----0-----0-------------------|
G|---------------0-----0-----0-----0-----0-----0-----0-----0-----------------|
D|-----------------2-----2-----2-----------0-----0-----0---------------------|
A|---------------------------------------------------------------------------|
E|-----------0-----------------------3---------------------------------------|


Verse I
C                   C                       G        G
    Well there's a river that runs through Glasgow
    Em                              C                  G      G
And makes her but it breaks her and takes her into the parks
       C            C                D*        Em     G
           And her current just like my blood flows
               C                   D*                   G       G  
Down from the hills, round aching bones to my restless heart

             C                       C
e|---------------------------------------------------------------------------|
B|-------------1-----1-----1-----1-----1-----1-----1-----1-------------------|
G|---------------0-----0-----0-----0-----0-----0-----0-----0-----------------|
D|-----------------2-----2-----2-----------2-----2-----2---------------------|
A|-----------3-----------------------3---------------------------------------|
E|---------------------------------------------------------------------------|

             G                       G
e|---------------------------------------------------------------------------|
B|-------------0-----0-----0-----0-----0-----0-----0-----0-------------------|
G|---------------0-----0-----0-----0-----0-----0-----0-----0-----------------|
D|-----------------0-----0-----0-----------0-----0-----0---------------------|
A|---------------------------------------------------------------------------|
E|-----------3-----------------------3---------------------------------------|

             Em                      C
e|---------------------------------------------------------------------------|
B|-------------0-----0-----0-----0-----1-----1-----1-----1-------------------|
G|---------------0-----0-----0-----0-----0-----0-----0-----0-----------------|
D|-----------------2-----2-----2-----------2-----2-----2---------------------|
A|-----------------------------------3---------------------------------------|
E|-----------0---------------------------------------------------------------|

             G                       G
e|---------------------------------------------------------------------------|
B|-------------0-----0-----1-----1-----0-----0-----0-----0-------------------|
G|---------------0-----0-----0-----0-----0-----0-----0-----0-----------------|
D|-----------------0-----------2-----------0-----0-----0---------------------|
A|-----------------------3---------------------------------------------------|
E|-----------3-----------------------3---------------------------------------|

             C                       C           D*
e|---------------------------------------------------------------------------|
B|-------------1-----1-----1-----1-----1-----1-----3-----3-------------------|
G|---------------0-----0-----0-----0-----0-----0-----0-----0-----------------|
D|-----------------2-----2-----2-----------2-----------4---------------------|
A|-----------3-----------------------3-----------5---------------------------|
E|---------------------------------------------------------------------------|

             Em                      G
e|---------------------------------------------------------------------------|
B|-------------0-----0-----0-----0-----0-----0-----0-----0-------------------|
G|---------------0-----0-----0-----0-----0-----0-----0-----0-----------------|
D|-----------------2-----2-----2-----------0-----0-----0---------------------|
A|---------------------------------------------------------------------------|
E|-----------0-----------------------3---------------------------------------|

             C                       D*
e|---------------------------------------------------------------------------|
B|-------------1-----1-----1-----1-----3-----3-----3-----3-------------------|
G|---------------0-----0-----0-----0-----0-----0-----0-----0-----------------|
D|-----------------2-----2-----2-----------4-----4-----4---------------------|
A|-----------3-----------------------5---------------------------------------|
E|---------------------------------------------------------------------------|

             G           C           G
e|---------------------------------------------------------------------------|
B|-------------0-----0-----1-----1-----0-----0-----0-----0-------------------|
G|---------------0-----0-----0-----0-----0-----0-----0-----0-----------------|
D|-----------------0-----------2-----------0-----0-----0---------------------|
A|-----------------------3---------------------------------------------------|
E|-----------3-----------------------3---------------------------------------|


Chorus I
C                           G           D
 Well I would swim but the river is so wide
       C                G             D
And I'm scared I won't make it to the other side
    C                G             D               G     G
Well God knows I've failed but He knows that I've tried
C                             G        D
 I long for something that's safe and warm
C                  G            D
 But all I have is all that is gone
C                        G             D              G     G
 I'm as helpless and as hopeless as a feather on the Clyde

             C                       G           D
e|---------------------------------------------------------------------------|
B|-------------1-----1-----1-----1-----0-----0-----3-----3-------------------|
G|---------------0-----0-----0-----0-----0-----0-----2-----2-----------------|
D|-----------------2-----2-----2-----------0-----0-----0---------------------|
A|-----------3---------------------------------------------------------------|
E|-----------------------------------3---------------------------------------|

             C                       G           D
e|---------------------------------------------------------------------------|
B|-------------1-----1-----1-----1-----0-----0-----3-----3-------------------|
G|---------------0-----0-----0-----0-----0-----0-----2-----2-----------------|
D|-----------------2-----2-----2-----------0-----0-----0---------------------|
A|-----------3---------------------------------------------------------------|
E|-----------------------------------3---------------------------------------|

             C                       G           D
e|---------------------------------------------------------------------------|
B|-------------1-----1-----1-----1-----0-----0-----3-----3-------------------|
G|---------------0-----0-----0-----0-----0-----0-----2-----2-----------------|
D|-----------------2-----2-----2-----------0-----0-----0---------------------|
A|-----------3---------------------------------------------------------------|
E|-----------------------------------3---------------------------------------|

             G                       G
e|---------------------------------------------------------------------------|
B|-------------0-----0-----0-----0-----0-----0-----0-----0-------------------|
G|---------------0-----0-----0-----0-----0-----0-----0-----0-----------------|
D|-----------------0-----0-----0-----------0-----0-----0---------------------|
A|---------------------------------------------------------------------------|
E|-----------3-----------------------3---------------------------------------|

Repeat the first three lines, but then use this alternate ending:
             G           C           G
e|---------------------------------------------------------------------------|
B|-------------0-----0-----1-----1-----0-----0-----0-----0-------------------|
G|---------------0-----0-----0-----0-----0-----0-----0-----0-----------------|
D|-----------------0-----------2-----------0-----0-----0---------------------|
A|-----------------------3---------------------------------------------------|
E|-----------3-----------------------3---------------------------------------|


Play this before the next verse; slightly different than the intro
             C                                   D*
e|---------------------------------------------------------------------------|
B|-------------1-----1-----1-----1-----1-----1-----3-----3-------------------|
G|---------------0-----0-----0-----0-----0-----0-----0-----0-----------------|
D|-----------------2-----2-----2-----------2-----------4---------------------|
A|-----------3-----------------------3-----------5---------------------------|
E|---------------------------------------------------------------------------|

             Em                      G
e|---------------------------------------------------------------------------|
B|-------------0-----0-----0-----0-----0-----0-----0-----0-------------------|
G|---------------0-----0-----0-----0-----0-----0-----0-----0-----------------|
D|-----------------2-----2-----2-----------0-----0-----0---------------------|
A|---------------------------------------------------------------------------|
E|-----------0-----------------------3---------------------------------------|

             C                                   D*
e|---------------------------------------------------------------------------|
B|-------------1-----1-----1-----1-----1-----1-----3-----3-------------------|
G|---------------0-----0-----0-----0-----0-----0-----0-----0-----------------|
D|-----------------2-----2-----2-----------2-----------4---------------------|
A|-----------3-----------------------3-----------5---------------------------|
E|---------------------------------------------------------------------------|

             Em                      G
e|---------------------------------------------------------------------------|
B|-------------0-----0-----0-----0-----0-----0-----0-----0-------------------|
G|---------------0-----0-----0-----0-----0-----0-----0-----0-----------------|
D|-----------------2-----2-----2-----------0-----0-----0---------------------|
A|---------------------------------------------------------------------------|
E|-----------0-----------------------3---------------------------------------|


Verse II
C          C                        G        G
   Well on one side all the lights glow
         Em                                   C                       G      G
And the folks know and the kids go where the music and the drinking starts
C          C                D*       Em     G
    On the other side where no cars go
           C                 D*                    G       G  
Up to the hills that stand alone like my restless heart

             C                       C
e|---------------------------------------------------------------------------|
B|-------------1-----1-----1-----1-----1-----1-----1-----1-------------------|
G|---------------0-----0-----0-----0-----0-----0-----0-----0-----------------|
D|-----------------2-----2-----2-----------2-----2-----2---------------------|
A|-----------3-----------------------3---------------------------------------|
E|---------------------------------------------------------------------------|

             G                       G
e|---------------------------------------------------------------------------|
B|-------------0-----0-----1-----1-----0-----0-----0-----0-------------------|
G|---------------0-----0-----0-----0-----0-----0-----0-----0-----------------|
D|-----------------0-----------2-----------0-----0-----0---------------------|
A|-----------------------3---------------------------------------------------|
E|-----------3-----------------------3---------------------------------------|

             Em                      C
e|---------------------------------------------------------------------------|
B|-------------0-----0-----0-----0-----1-----1-----1-----1-------------------|
G|---------------0-----0-----0-----0-----0-----0-----0-----0-----------------|
D|-----------------2-----2-----2-----------2-----2-----2---------------------|
A|-----------------------------------3---------------------------------------|
E|-----------0---------------------------------------------------------------|

             G                       G
e|---------------------------------------------------------------------------|
B|-------------0-----0-----0-----0-----0-----0-----0-----0-------------------|
G|---------------0-----0-----0-----0-----0-----0-----0-----0-----------------|
D|-----------------0-----0-----0-----------0-----0-----0---------------------|
A|---------------------------------------------------------------------------|
E|-----------3-----------------------3---------------------------------------|

             C                       C           D*
e|---------------------------------------------------------------------------|
B|-------------1-----1-----1-----1-----1-----1-----3-----3-------------------|
G|---------------0-----0-----0-----0-----0-----0-----0-----0-----------------|
D|-----------------2-----2-----2-----------2-----------4---------------------|
A|-----------3-----------------------3-----------5---------------------------|
E|---------------------------------------------------------------------------|

             Em                      G
e|---------------------------------------------------------------------------|
B|-------------0-----0-----0-----0-----0-----0-----0-----0-------------------|
G|---------------0-----0-----0-----0-----0-----0-----0-----0-----------------|
D|-----------------2-----2-----2-----------0-----0-----0---------------------|
A|---------------------------------------------------------------------------|
E|-----------0-----------------------3---------------------------------------|

             C                       D*
e|---------------------------------------------------------------------------|
B|-------------1-----1-----1-----1-----3-----3-----3-----3-------------------|
G|---------------0-----0-----0-----0-----0-----0-----0-----0-----------------|
D|-----------------2-----2-----2-----------4-----4-----4---------------------|
A|-----------3-----------------------5---------------------------------------|
E|---------------------------------------------------------------------------|

             G                       G
e|---------------------------------------------------------------------------|
B|-------------0-----0-----0-----0-----0-----0-----0-----0-------------------|
G|---------------0-----0-----0-----0-----0-----0-----0-----0-----------------|
D|-----------------0-----0-----0-----------0-----0-----0---------------------|
A|---------------------------------------------------------------------------|
E|-----------3-----------------------3---------------------------------------|


Chorus
C                           G           D
 Well i would swim but the river is so wide
       C                G             D
And I'm scared I won't make it to the other side
    C                G             D               G     G
Well God knows I've failed but He knows that I've tried
C                             G        D
 I long for something that's safe and warm
C                  G            D
 But all I have is all that is gone
C                        G             D              G     G
 I'm as helpless and as hopeless as a feather on the Clyde

             C                       G           D
e|---------------------------------------------------------------------------|
B|-------------1-----1-----1-----1-----0-----0-----3-----3-------------------|
G|---------------0-----0-----0-----0-----0-----0-----2-----2-----------------|
D|-----------------2-----2-----2-----------0-----0-----0---------------------|
A|-----------3---------------------------------------------------------------|
E|-----------------------------------3---------------------------------------|

             C                       G           D
e|---------------------------------------------------------------------------|
B|-------------1-----1-----1-----1-----0-----0-----3-----3-------------------|
G|---------------0-----0-----0-----0-----0-----0-----2-----2-----------------|
D|-----------------2-----2-----2-----------0-----0-----0---------------------|
A|-----------3---------------------------------------------------------------|
E|-----------------------------------3---------------------------------------|

             C                       G           D
e|---------------------------------------------------------------------------|
B|-------------1-----1-----1-----1-----0-----0-----3-----3-------------------|
G|---------------0-----0-----0-----0-----0-----0-----2-----2-----------------|
D|-----------------2-----2-----2-----------0-----0-----0---------------------|
A|-----------3---------------------------------------------------------------|
E|-----------------------------------3---------------------------------------|

             G                       G                         Repeat all (x2)
e|---------------------------------------------------------------------------|
B|-------------0-----0-----1-----1-----0-----0-----0-----0-------------------|
G|---------------0-----0-----0-----0-----0-----0-----0-----0-----------------|
D|-----------------0-----------2-----------0-----0-----0---------------------|
A|-----------------------3---------------------------------------------------|
E|-----------3-----------------------3---------------------------------------|


Bridge
             Em          D           C           G                  <---- (x3)
e|---------------------------------------------------------------------------|
B|-------------0-----0-----3-----3-----1-----1-----0---1p0-------------------|
G|---------------0-----0-----2-----2-----0-----0-----0-----0-----------------|
D|-----------------2-----0-----0-----------2-----------2p0-------------------|
A|-----------------------------------3---------------------------------------|
E|-----------0-----------------------------------3---------------------------|

             Am7                     D                              <---- (x1)
e|---------------------------------------------------------------------------|
B|-------------1-----1-----1-----1-----3-----3-----3-----3-------------------|
G|---------------0-----0-----0-----0-----2-----2-----2-----2-----------------|
D|-----------------2-----2-----2-----0-----0-----0-----0---------------------|
A|---------------------------------------------------------------------------|
E|-----------0---------------------------------------------------------------|
   
             Em          D           C           G                  <---- (x3)
e|---------------------------------------------------------------------------|
B|-------------0-----0-----3-----3-----1-----1-----0---1p0-------------------|
G|---------------0-----0-----2-----2-----0-----0-----0-----0-----------------|
D|-----------------2-----0-----0-----------2-----------2p0-------------------|
A|-----------------------------------3---------------------------------------|
E|-----------0-----------------------------------3---------------------------|

             Am7                     D                              <---- (x1)
e|---------------------------------------------------------------------------|
B|-------------1-----1-----1-----1-----3-----3-----3-----3-------------------|
G|---------------0-----0-----0-----0-----2-----2-----2-----2-----------------|
D|-----------------2-----2-----2-----0-----0-----0-----0---------------------|
A|---------------------------------------------------------------------------|
E|-----------0---------------------------------------------------------------|


Verse 3
C             C                G        G
    Well the sun sets late in Glasgow
Em            C                    G       G
     And the daylight and the city part
C             C       D*     Em       G
      And I think of you in Glasgow
                       C                       D*                  
Cos you're all that's safe, you're all that's warm in my restless heart

             C                       C
e|---------------------------------------------------------------------------|
B|-------------1-----1-----1-----1-----1-----1-----1-----1-------------------|
G|---------------0-----0-----0-----0-----0-----0-----0-----0-----------------|
D|-----------------2-----2-----2-----------2-----2-----2---------------------|
A|-----------3-----------------------3---------------------------------------|
E|---------------------------------------------------------------------------|

             G                       G
e|---------------------------------------------------------------------------|
B|-------------0-----0-----0-----0-----0-----0-----0-----0-------------------|
G|---------------0-----0-----0-----0-----0-----0-----0-----0-----------------|
D|-----------------0-----0-----0-----------0-----0-----0---------------------|
A|---------------------------------------------------------------------------|
E|-----------3-----------------------3---------------------------------------|

             Em                      C
e|---------------------------------------------------------------------------|
B|-------------0-----0-----0-----0-----1-----1-----1-----1-------------------|
G|---------------0-----0-----0-----0-----0-----0-----0-----0-----------------|
D|-----------------2-----2-----2-----------2-----2-----2---------------------|
A|-----------------------------------3---------------------------------------|
E|-----------0---------------------------------------------------------------|

             G                       G
e|---------------------------------------------------------------------------|
B|-------------0-----0-----1-----1-----0-----0-----0-----0-------------------|
G|---------------0-----0-----0-----0-----0-----0-----0-----0-----------------|
D|-----------------0-----0-----2-----------0-----0-----0---------------------|
A|---------------------------------------------------------------------------|
E|-----------3-----------------------3---------------------------------------|

             C                       C           D*
e|---------------------------------------------------------------------------|
B|-------------1-----1-----1-----1-----1-----1-----3-----3-------------------|
G|---------------0-----0-----0-----0-----0-----0-----0-----0-----------------|
D|-----------------2-----2-----2-----------2-----------4---------------------|
A|-----------3-----------------------3-----------5---------------------------|
E|---------------------------------------------------------------------------|

             Em                      G
e|---------------------------------------------------------------------------|
B|-------------0-----0-----0-----0-----0-----0-----0-----0-------------------|
G|---------------0-----0-----0-----0-----0-----0-----0-----0-----------------|
D|-----------------2-----2-----2-----------0-----0-----0---------------------|
A|---------------------------------------------------------------------------|
E|-----------0-----------------------3---------------------------------------|

             C                       D*
e|---------------------------------------------------------------------------|
B|-------------1-----1-----1-----1-----3-----3-------------------------------|
G|---------------0-----0-----0-----0-----0-----0-----------------------------|
D|-----------------2-----2-----2-----------4-----4---------------------------|
A|-----------3-----------------------5---------------------------------------|
E|---------------------------------------------------------------------------|








************************************

| p   pull-off

************************************

comments
print report bad tab
11 comments total. Showing first comments.
+5 reply
Pillendreher wrote on January 19 2013, 12:20 pm

Excellent tab! Top notch!

+1 reply
SergioRoche wrote on January 20 2013, 07:12 am

Thanks! Then it was time well spent.

+1 reply
qwb11151 wrote on March 8 2013, 10:02 am

i gave a thumbs down to pillendreher's comment by mistake, it was supposed to be a thumbs up! :D

great job, thanks a lot :)

I want to post or [tab]
guest
You may want to rate the tab now too:
select rating
Please do not post tabs as comments. Select "correction" instead!