Oops, an error
Loading. Please wait.

A Map Of The World Tab

ver1
ver1

Intro

Whole song

Interactive

More versions @911Tabs.com
4,252 views 18 this week
no commentswrite comment
1 2 3 4 5
excellent!
x 1
Autoscroll
+/-
esc
set tempo
stop
Contributor
Difficulty
advanced
WARNING: You are trying to view
                                    content from Ultimate-Guitar.com
                                    in an unauthorized application,
                                    which is prohibited.

                                    Please use an official Ultimate
                                    Guitar Tabs application for iPhone,
                                    iPad or Android to access legitimate
                                    chords, guitar, bass, and drum tabs
                                    from Ultimate-Guitar.com database.

                                    Type "ultimate guitar tabs" in Apple
                                    App Store's or Android Market's
                                    search to find the application.
                              A Map of the World                                


Pat Metheny

                                                  >   
      E  E  E  Q    E  E  E     E  E  H        E  E   
E||---5--------5----------5--|--L--------------------|
B||------8----------8--------|-----8-----------------|
G||---------7----------7-----|--------7--------L-----|
D||---5----------------------|--------------------5--|
A||--------------------------|-----------------------|
E||--------------------------|-----------------------|


  E  E  E  E  E  E  E  E     W                   E  E  E  Q    E  E  E   
--5-----------5-----------|--5----------------|--5--------5----------7--|
-----8-----------8--------|-------------------|-----8----------8--------|
--------7-----------7-----|-------------------|--------7----------7-----|
--5--------5-----------5--|-------------------|--5----------------------|
--------------------------|-------------------|-------------------------|
--------------------------|-------------------|-------------------------|


                      >                                                     >   
  E  E  E  E  Q    E  E     E  E  E  E  E  E  E  E     E  E  E  E  E  E  E  E   
--5----------------------|--5-----------5-----------|--5-----------------------|
-----8--------8----------|-----8-----------8--------|-----8--------8-----------|
--------7----------7-----|--------7-----------7-----|--------7--------7--------|
-----------5----------5--|--5--------5--5--------5--|-----------5--------5--4--|
-------------------------|--------------------------|--------------------------|
-------------------------|--------------------------|--------------------------|


                       >                                                      
  E  E  E  E  E  E  E  E     Q.     E  Q    E  E     E  E  E  E  E  E  E  E   
--------------------------|-----------------------|--------3--2--------0-----|
--------------------------|-----------------------|--------------3--------3--|
-----0-----0--2-----5--4--|--2---------2----0--2--|--4--0-----------0--------|
--2-----4--------0--3-----|--0------0-------------|--5-----2-----------------|
--3-----------------0-----|-----------------------|--------------3-----------|
--0-----------2-----------|--2--------------------|--------------------2-----|


                       >                              
  E  E  E  E  E  E  E  E     E  E  E  E  E  E  E  E   
--------0-----------------|--------------------------|
-----5--------5-----5-----|--5-----5-----5-----5-----|
--4--------4-----4-----4--|-----4-----4-----4-----4--|
--2--------------------0--|--2--------------------0--|
--------------------------|--------------------------|
--------------------------|--------------------------|


  E  E  E  E  E  E  E  E     E  E  E  E  E  E  E  E   
-----------0--------------|--------------------------|
--5-----5-----5-----5-----|--5-----5-----5-----5-----|
-----4-----------4-----4--|-----4-----4-----4--------|
--2--------------------0--|--2--------0--2--------2--|
--------------------------|--------------------------|
--------------------------|--------------------------|


  E  E  E  E  E  E  E  E     E  E    E  E  E  E  E  E   
-----------------------5--|--3----------3-----3--5--7--|
-----------1--3-----6-----|--3-----<>3-----------------|
--------4--------0--3-----|--5-------------4-----------|
-----3--------------0-----|-----5----------------------|
--0-----------2-----------|----------------------------|
--------------------------|--3-------------------------|


  E  E  E  E  E  E  E   E      E  E   E  E  E  E  E  E   
--8-----------------7--10--|--12---------0--------0-----|
--------6--5-----8---------|----------------------------|
-----5--------7------------|------0------------0-----0--|
---------------------------|---------10-----------------|
--0------------------------|----------------------------|
--------------7------------|---8------------8-----------|


  E  E   E  E  E  E   E  E      E  E   E  E   E  E  E  E   
--0---------0------------0--|--12---------0--12-----0-----|
-----0------------0---------|-----------------------------|
----------------------------|------0-------------0-----0--|
--------10-----------10-----|---------10------------------|
----------------------------|-----------------------------|
--8------------8------------|---8-------------8-----------|


  E  E  E  E  E   E  E   E      E   E   E   E  E   E  E   E   
--------0---------------12--|--12----------12---------0------|
--------------0-------------|----------------------------10--|
-----0----------------------|----------10---------10---------|
-----------------10---------|------10------------------------|
----------------------------|---0--------------0-------------|
--8--------8---------8------|--------------------------------|


  E  E  E  E  E  E   E  E     E  E  E  E  E  E  E  E     E  E  E  E  Q    Q     
------------------------7--|--8-----------8--------0--|--------3----------3----|
--8--------8--------10-----|-----------6--------------|--3-----------3---------|
--------7------------------|--------5-----------5-----|------------------------|
-----9-----------9---------|-----7-----------7--------|-----5-----5------------|
---------------------------|--------------------------|--5---------------------|
--7-----------7------------|--8-----------8-----------|------------------------|


  E  E  E  E  E   E  E   E      E  E  E  E   Q    E   E   
--------------0------9--12--|--10--------7--10----8--10--|
-----------2-----10---------|---------7------------------|
--------4-------------------|------0---------------------|
-----2----------------------|----------------------------|
--0-------------------------|----------------------------|
----------------------------|---0------------------------|


   E  E   E   E   Q    E   E     E   E   E  E  E   E   E  E   
--12--8----------------0------|-------------0-------------0--|
---------10-------------------|------------------------------|
-----------------10-----------|---------10------------10-----|
-------------10-----------10--|-----10------------10---------|
---8--------------------------|--8-------------8-------------|
------------------------------|------------------------------|


  E  E  E  E  Q.     S  S    E  E  E  E  E  E  E  E   
--7--------7--0------8p-7-|--5-----------5-----5--7--|
--------8-----------------|-----------5--------------|
--------------------------|--------7-----------------|
-----9--------------------|-----7-----------7--------|
--------------------------|--5-----------------------|
--0-----------------------|--------------------------|


                                                  >   
  E  E  E  E  E  E  E  E     E  E  E  E  E  E  E  E   
--8--7--5--3--0-----------|--------0-----------0-----|
-----------------3--1-----|-----1-----------1--------|
--9--7--5--4--0-----------|--4-----------4-----------|
-----------------------3--|-----------3--------------|
--------------------------|--------------------------|
--------------------------|-----------------------3--|


  E  E  E  E  E   E  E   E      E  E  E  E   Q    E   E   
--------------0------9--12--|--10--------7--10----8--10--|
-----------2-----10---------|---------7------------------|
--------4-------------------|------0---------------------|
-----2----------------------|----------------------------|
--0-------------------------|----------------------------|
----------------------------|---0------------------------|


   E  E   E   E   Q     E  E     E   E  E   E   E   E  Q     
--12--8-----------0--------0--|---------0--------------0----|
---------10------10-----------|----------------10-----------|
-------------10--------10-----|-----10-----10------10-------|
---0--------------------------|--0--------------------------|
------------------------------|-----------------------------|
------------------------------|-----------------------------|


  E  E  E  E  Q    E   E     E  E  E  E  E  E  E  E   
--7--------7--0----8p--7--|--5-----------5-----------|
--------8-----------------|-----------5-----------8--|
-----0--------------------|--------5-----------5-----|
--------------------------|-----7-----------7--------|
--------------------------|--8-----------8-----------|
--0-----------------------|--------------------------|


                                                  >                            
  E  E  E  S  S E  E  E  E     E  E  E  E  Q.     E     E  E  E  E  Q.     E   
--5--------5h-7-5-----------|--0-----------0---------|--0------------------0--|
--7----------------------8--|--------3------------3--|--------------1---------|
--7-----7-------------7-----|-----2-----2------------|--------0--2------------|
--5--5-------------5--------|--0---------------------|-----3------------------|
----------------------------|------------------------|------------------------|
--0-------------0-----------|------------------------|--1---------------------|


  E  E  E  E  H           E  E  E  E  E   E  E   E   
--3-----3--------------|--0-----------0------9--12--|
-----3--------3--------|-----------2-----10---------|
-----------------------|--------4-------------------|
-----------5-----------|-----2----------------------|
-----------------------|--0-------------------------|
--3--------------------|----------------------------|


   E   E  E   E   Q    Q       E  E  E  E  E   E  E   E   
--14-------------10---------|--0-----------0------9--12--|
----------------------------|-----------2-----10---------|
----------0------------0----|--------4-------------------|
------10-----10-------------|-----2----------------------|
----------------------------|--0-------------------------|
---8------------------------|----------------------------|


   E   E   E   E   Q     Q       E  E  E  E  E   E  E   E   
--15--------------12----------|--0-----------0------9--12--|
------------------------------|-----------2-----10---------|
----------14------------------|--------4-------------------|
------15------15--------15----|-----2----------------------|
------------------------------|--0-------------------------|
--13--------------------------|----------------------------|


    E  E  E  E  H           E  E  E  E  E   E  Q       E  E  Q    E  E  E  E   
--<>5--------------------|--2--------2--5p--4-------|--3----------------5--7--|
----------------5--------|--------3------------5----|-----7-------5-----------|
----------7--5-----------|-----2--------------------|--------7----------------|
-------8-----------------|--0-----------------------|----------------7--------|
----0--------------------|--------------------------|--3----------5-----------|
-------------------------|--------------0-----------|-------------------------|


  E  E  E  E   E  E  E   E      E   E   E   E   Q     Q     
--8--------8--10--------10--|--13----------13--15----15----|
--------5------------8------|----------11------------------|
----------------------------|------------------------------|
-----7------------9---------|------12----------------------|
--8-----------10------------|--13--------------15----15----|
----------------------------|------------------------------|


   Q     E   Q     E   E   E      E   E   E   E   H           
--17--------------------------|-----------------------------||
------------15--------15------|--15------15------15---------||
--------14--------14------14--|------14------14--14---------||
---0--------------------------|-----------------------------||
------------------------------|-----------------------------||
------------------------------|-----------------------------||


   E  E  E  E  E   E  Q       E  E  Q    E  E  E  E   
---2--------2--5p--4-------|--3----------------5--7--|
---------3------------5----|-----7-------5-----------|
------2--------------------|--------7----------------|
---0-----------------------|----------------7--------|
---------------------------|--3----------5-----------|
---------------0-----------|-------------------------|


  E   E   E   S   S  E   E   E   E      E   E   Q     Q     Q       
--8----------10s-12-10--------------|--13--12--------10-----------||
----------------------------12------|----------13----------12-----||
---------10---------------------12--|-----------------------------||
-----10-----------------12----------|-----------------------------||
--8-----------------10--------------|--13-------------0-----------||
------------------------------------|-----------------------------||


   E   E   Q     Q     Q        W                   E  E  E  Q    E  E  E   
--13--12--------15----12----|--17----------------|-----------5-------------|
----------13----13----------|--15----------------|-----8----------8--------|
----------------12----------|--14----------------|--------7----------7-----|
----------------------------|---0----------------|--5--------5----------5--|
--13-------------0----------|--------------------|-------------------------|
----------------------------|--------------------|-------------------------|


                                                                |--3--|   
  E  E  Q    H           E  E  E  Q    E  E  E     H.           E  E  E   
--5-------------------|--5--------5-------------|--5------------------5--|
-----8----------------|-----8----------8--------|------------------------|
--------7----L--------|--------7----------7-----|------------------7-----|
--5-------------------|--5--------5----------5--|--5------------5--------|
----------------------|-------------------------|------------------------|
----------------------|-------------------------|------------------------|


                                                       ^                  
  E  E  E  Q    E  E  E     E  E  E  E  E  E  E  E     W                  
--5--------5-------------|--5-----------5-----------|-------------------||
-----8----------8--------|-----8-----------8--------|--8----------------||
--------7----------7-----|--------7-----------7-----|--7----------------||
--5--------5----------5--|--5--------5--5--------5--|--5----------------||
-------------------------|--------------------------|-------------------||
-------------------------|--------------------------|-------------------||




Duration Legend
---------------
W - whole
H - half
Q - quarter
E - 8th
S - 16th
T - 32nd
X - 64th
. - note dotted
|-n-|  - n-tuplets


Tablature Legend
----------------
L - tied note
x - dead note
g - grace note
(n) - ghost note
> - accentuded note
NH - natural harmonic
AH - artificial harmonic
TH - tapped harmonic
SH - semi harmonic
PH - pitch harmonic
h - hammer on
p - pull off
b - bend
br - bendRelease
pb - preBend
pbr - preBendRelease
brb - bendReleaseBend
\n/ - tremolo bar dip
\n - tremolo bar dive
-/n - tremolo bar Release up
/n\ - tremolo bar inverted dip
/n - tremolo bar return
-\n - tremolo bar Release down
S - shift slide
s - legato slide
/ -  slide into from below or out of upwards
\ -  slide into from above or out of downwards
~ - vibrato
W - wide vibrato
tr - trill
TP - tremolo picking
T - tapping
S - slap
P - pop
< - fade in
^ - brush up
v - brush down
comments
We did not receive enough feedback on this tab! Please rate:
print report bad tab
1 2 3 4 5
I want to post or [tab]
guest
You may want to rate the tab now too:
select rating
Please do not post tabs as comments. Select "correction" instead!