Oops, an error
Loading. Please wait.

Dont Know Why Tab

ver1
ver1

Whole song

Interactive

More versions @911Tabs.com
6,078 views 6 this week
no commentswrite comment
1 2 3 4 5
excellent!
x 1
Autoscroll
+/-
esc
set tempo
stop
Contributor
Difficulty
advanced
Hey! There's an official Ultimate Guitar app which is ideal
for learning songs when you're away from computer. Get the app
WARNING: You are trying to view
                                    content from Ultimate-Guitar.com
                                    in an unauthorized application,
                                    which is prohibited.

                                    Please use an official Ultimate
                                    Guitar Tabs application for iPhone,
                                    iPad or Android to access legitimate
                                    chords, guitar, bass, and drum tabs
                                    from Ultimate-Guitar.com database.

                                    Type "ultimate guitar tabs" in Apple
                                    App Store's or Android Market's
                                    search to find the application.
                                Don't Know Why                                  


Pat Metheny
Track 1



     E  E  E  E  E  E  E  E     E  E  E  E  E  S  S  E  E   
A||--------------------------|--0-----5--------------------|
E||--------0--0--L-----0-----|--1--------------------------|
C||--------0--0--L-----0-----|-----0-----------2S-3S-2--0--|
G||-----4--4--3--L--3--------|-----------1-----------------|
D||--------------------------|--3--L--L--2-----L--L--L-----|
A||--3--L--L--L-----3--L--3--|-----------------------------|


  E  E  E  E  E  E  E     Q    E  E  E  E   E  E     E  Q    E  E  E  E  E   
-----2-----------0-----|--7----7--7-----5S--3--5--|--L--3----3--L--3--------|
--------3--2--------8--|--8----8--8-----7S--5--7--|--L--5----5--L--5--------|
-----------0-----------|--9----9--9-----7S--5--7--|--L--5----5--L--5--------|
-----------------------|--0----L--L-----0---L--L--|-----0----0-----0-----L--|
-----------0-----L--L--|--------------------------|-------------------------|
--0--L--L--L-----------|--------------------------|-------------------------|


  E   E   E   E  E  E  E  E     E  E  E  E  E  E  E   
-----14--10--10--L--7--L--7--|--L--3--3--L--3--------|
-----10---7---6--L--6--L--5--|--L--5--4--L-----4--L--|
--0---L---L---L-----0--L--0--|-----0--0-----L--L--0--|
-----------------------------|-----------------------|
-----------------------------|-----------------------|
-----------------------------|-----------------------|


  E  E  E  E  E  E  E  E     S  S E  E  E  E  E  E  E   
--3-----7--5--L--------0--|--3----7--L-----------------|
--3--------2--L--2--L-----|--1----------0--L-----0-----|
--0--L--L--L--L--0-----L--|--0h-2-------0--L-----0-----|
--0-----------------------|----------0--L-----0--L--0--|
--------------------------|----------------------------|
--------------------------|----------------------------|


  E   E   E   E  E  E  E  E     E  E  E  E  E  E  E  E   
-----14--10--10--L--7--L--7--|--L--3--3--L--3--------3--|
-----10---7---6--L--6--L--5--|--L--5--4--L-----4--L-----|
--0---L---L---L-----0--L--L--|-----0--0-----L--L--0--L--|
-----------------------------|--------------------------|
-----------------------------|--------------------------|
-----------------------------|--------------------------|


  E  E  E  E  E  E  E  E     S  S E  E  E  E  E  E  E   
--3--7--L--5--L--------0--|--3S-5-7--L--L-----7--7-----|
--3--------2--L-----2-----|--1-------------0-----------|
--0--L-----L--L--0-----L--|--0----------0-----------0--|
--------------------------|----------------------------|
--------------------------|----------------------------|
--------------------------|----------------------------|


                                                         NH  
  E  E  E  E  E  E  E  E      S  S  E  E  E   E  E  E    E   
-----3--7--5--L--------0--|---------------------------------|
-----3-----2--L--2--L-----|-----10---------------------<>7--|
-----0-----0--L--0--L-----|---0-----0--L------------0-------|
--------------------------|--10----10--L---------0----------|
--------------0--L--L--L--|---------------0--10-------------|
--0--L--L--L--------------|--10-----------------------------|


   E   E   E   E   E   S   S  E   E      E  E  E   E  E   E   E  E   
------14------10-------------10--12--|------------11---------11-----|
-------0------10--13--10h-12---------|--12--------10-----10--10-----|
-------0------10------10-------------|---------0---0----------0-----|
----------12-------------------------|------0-----------------------|
--10---L------10---L---L---L--L---L--|------------------------------|
-------------------------------------|---8--L--L---L--7---L---L--7--|


  E  E   E  E  E  E  E  E     E   E  E  E   E  E  E  E   
------------7--5-----------|---------7------------------|
-----7S--8-----7-----------|------------7---------7-----|
-----6S--7-----6-----------|--5---------0------0--------|
---------------------5--2--|--5h--7---------------------|
------------------0--L--L--|--5---L--L--L--10--L--L--0--|
--0--L---L--L--L-----------|----------------------------|


                                                 NH                    
   E   E   E   E   E   S   S  E   E      E  E    E   E  E   E   E  E   
------14------10-------------10--12--|--------------11---------11-----|
-------0------10--13--10h-12---------|--12-----<>7--10-----10---------|
-------0------10------10-------------|---------------0-------------0--|
----------12-------------------------|------0-------------------------|
--10---L------10---L---L---L--L---L--|--------------------------------|
-------------------------------------|---8--L----L---L--7---L---L--L--|


  E  E  E  E  E  E  E  E      E   E   E   E   E  E  E  E   
-----7--7-----------------|-------------------------------|
-----8-----5--L--------5--|------10-----------------------|
-----7-----6--L-----------|---0-------0-------------0-----|
-----------7--L--5--L-----|--10------10----------0--------|
--------------0--L-----L--|--------------10--10--L--L--L--|
--0--L--L--L--------------|--10---L---L---L------------0--|


  Q    E  E  E  E  E  E      E   E  E   E  E  E  E  S   S  
----------7--5--L--3--0--|--------------------------------|
-------3-----2--L--------|------10---------------8--8S-12-|
-------0-----0--L--------|---0------0---------0-----------|
-------------------------|--10-------------0--------------|
----------------0--L--L--|-------------10--L--L--L--L-----|
--0-------L--L-----------|--10---L--L-------------------0-|


   E   E  E  E  E  E   S   S E      E   E   E  E   E    E   E    E   
------15--------------15--------|--14-------------14-----------/10--|
--12------------------11S-12----|--10------10--L---9S--10S--L----7--|
---0---------0-----0---------0--|--(0)--0---------------------------|
----------0---------------------|-----------------------------------|
--------------------------------|---0---L---L--0---L----L---L----L--|
---L------L--L--0--L---L---L-L--|-----------------------------------|


  E   E  E  E  E   E  E  E     E  E  E  E  E  E   E  E   
--L--10-----8-----10--8-----|--5-----------5------------|
--L---------5------7--5-----|--3--3--5--3--3--3\--L-----|
----------------------------|---------------------------|
----------------------------|--------------0--L---L-----|
--0---L--0--L--0---L--L--0--|--L--L--L--L---------------|
----------------------------|------------------------0--|


  E   E  E   E  E  E   E   E      Q     E   E  E   S   E   S   E   
-----15--L--15--L-----12--15--|--17----17--17-----13S-14--13S-12--|
-----12--L--12--L-------------|--14-----L--14-----13S-14--13S-12--|
------------------------------|---0-----L---0-----13S-14--13S-12--|
-------------------0---L---L--|-----------------------------------|
------------------------------|---0-----L---L--0---L---L---L---L--|
--0---L--L---L--0-------------|-----------------------------------|


   Q     E  E  Q    E  E     S  S E  E  E  E  E  S  S E   
--10-----------8----------|--6S-7-L-----5--L-------------|
--10-----------8----------|--6S-7-L-----5--L-------------|
--11----11----------9-----|--6S-7-L--7--5--L----------0--|
---0-----L--0--0----L--0--|--0--L-L--L--L--0--0--0h-2----|
--------------------------|------------------------------|
--------------------------|------------------------------|


                                                        NH     
  E   E  S  S  S  S E  E  E  E     E  E  E  E  E   E    E  E   
--------------------------------|--0--------7-----------------|
--3-----------------0-----1--3--|-----------------10--<>8-----|
--2h--4--2h-3p-2p-0-0-----------|--------0--8---------<>8-----|
--------------------3--3--------|-----2-----------------------|
--------------------------------|--3--L--L--------------------|
--3---L--L--L--L--L-3--L--L--L--|-----------7--7---L----L--7--|


  E  E  E  E  E  E  E  E     S  S  E  E  E  E  E  E  E   
-----5--3--2--0--0--2--3--|--7S-8S-7--5--3-----------3--|
-----7--5--3--2--2--3--5--|--7S-8S-7--5--3--------3-----|
--------------------------|--------------------0--------|
--------------------------|-----------------------------|
--------------0--L--L--L--|--5--L--L--L--L--------------|
--0--L--L--L--------------|-----------------3--L--L--L--|


   S   S  E   E  E   E    E   E   E     E  E  E  E  E  E  E  S  S  
--11S-12-15--10--------------10--12--|-----------------------6S-7-|
--11S-12-----10-----11S--12----------|--------------8-----8-------|
--11S-12-----10------9S--10----------|--0-----0-----8--0--8-------|
---0---L--L---L--0---L----L---L---L--|-----0----------------------|
-------------------------------------|----------------------------|
-------------------------------------|--8--L--L--8--7--L--L--L--L-|


  E  E  E  E  E  E  E  E     E  E  E  E  E  E   E  E   
-----3--0--------0--3--5--|--7--5--3--3---------------|
-----------3--2-----------|--5-----3--3-----5p--3--x--|
--------------0-----------|--5-----4--4-----5p--4--7--|
--------------------------|--0--L--L--L--0--L---L--L--|
--------------0--L--L--L--|---------------------------|
--0--L--L--L--------------|---------------------------|


  E  E  E  E  E  E  E  E     E  E  E  S  S E  E  E  E   
--------------------------|----------------------------|
-----5--3-----0--L-----0--|--1-----1--0h-1-------0-----|
-----5--4-----0-----0-----|--0--------2--L----2--------|
--0--L--L--------3--------|-----0-----1--L-1--------1--|
--------------------------|--3--L--L--2--L-L--L--L-----|
-----------3--3--L--L--L--|----------------------------|


  E  E  E  E  E  E  E  E     E  E  E  E  E  E   E  E   
--------------------------|---------------------------|
-----0--------0-----------|--------0--0---------------|
-----0--------0-----------|--------0--0-----4p--0-----|
-----4--3--2--1--0-----2--|-----2---------------------|
--------------------4--L--|--3--L--L--5------------0--|
--0--L--L--L--L--L--------|--------------3--3---L-----|


  E  E  E  E   E  E  E  E     E  E  E  E  E  E  E  E   
---------------------------|--0--0--------0--2--3-----|
--0-----1--2S--3--3-----0--|--1-----1-----------------|
--0-----0--0---L--0--0--0--|-----------2-----------2--|
-----0--2--2S--3--3-----0--|-----------1--------------|
---------------------------|--3--L--L--2--L--L--L--L--|
--3--L--L--L---L--L--L--L--|--------------------------|


  E  E  E  E  E  E  E  E     E  E  E  E  E  E  E   E   
-----3--------------0-----|--------------------3\-----|
-----------0--2-----------|--5--------3-----3---------|
--4-----0--------0--------|--5-----5--0-----0---------|
--------------------------|--5--5--5-----0------------|
--------------0--L--L-----|--5--L--L------------------|
--0--L--L--L-----------0--|-----------3--L--L--L---L--|


  E   E  E   E  E  E   E   E      E   E  E   E  E   E    E  E   
-----15--L--15--L---------15--|--14--14--L--14--L--13p--12-----|
-----12--L--12--L-----12------|--11---L-----11--L--------------|
------0--L---0--L--0----------|---0---L------0--L--------------|
------------------------------|-----------------------------0--|
------------------------------|---0---L------L--0---L----L-----|
--0------L---L--0--L---L---L--|--------------------------------|


   E  E   E  E  E   E  E  E     E  E  E  E  E  E  E  E   
--10--L--10--L--L--10--L--L--|--7--L--L--7--L--5--L--L--|
--11--L--10--L--L---9--L--L--|--8--L--L--6--L--6--L--L--|
--10--L---9--L--L---8--L--L--|--7--L--L--5--L--5--L--L--|
---L--0---L--0--0---L--0--0--|--L--0--0-----0--L--0--L--|
-----------------------------|--------------------------|
-----------------------------|-----------------------0--|


   E   Q    E  E  E  E  E     E  E  E  E  E  E  E  E   
---------------------3-----|--------------------------|
------------------------5--|--------3-----2-----------|
---0---L-------4--------0--|-----0--L--L--0--L--0--L--|
------------0--------------|--------------------------|
---------------L-----------|--0--L--L--0--L--0--L--0--|
--(0)--0----L--L--0--L--L--|--------------------------|


  E   Q    E  E  Q    E     E  Q    E  E  Q    E     Q     E  E  E  E  E  E   
-----10----L--L--8----L--|-----7----L--L--5----L--|-------11--7--7-----------|
-----10----L--L--9----L--|-----7----L--L--3----L--|--------0--0--0-----9--L--|
-----11----L--L--8----L--|-----8----L--L--3----L--|-------11--8--8-----7--L--|
--0---L----0--0--L----0--|--0--L----0--0--L----0--|--------9--6--6-----7--L--|
-------------------------|------------------------|--------------------------|
-------------------------|------------------------|--0-----L--L--L--0--L--0--|


                       ^                               
  E  E  E  E  E  E  E  E     E  E  E   E  E  E  E  E   
--4--4-----0--L--------0--|-----0--2S--4--2-----0-----|
--5-----5--5--L--5-----4--|---------------3--------2--|
--6--------5--L--5-----4--|---------------3-----------|
-----------------4--4-----|------------------0--L--L--|
-----------0--L-----------|--4--L--L---L--------------|
--6--L--L--------4--L--L--|---------------2--L--------|


  E   E  E  E  E  E  E  E     E  E  E  E  E  S  S E  E   
--0h--2--4--L--L--L-----4--|-----6--L--7--7-------7--L--|
---------------------4-----|-----0--L--7--7--7h-9-------|
--2------------------5-----|-----8--L--7--7--7----------|
---------------------------|-----5--L--7--7-------------|
---------------------------|----------------------------|
--2---L--L--L--L--0--L--L--|--0--L--L--L--L--L--L-L-----|


  E  E  E  E  E  E  E  S S    E  E  E   E  E  E  E  E   
--4--4-----0-----------0---|-----0--2S--4--2-----0-----|
--5-----5--0-----0---------|------------------------2--|
-----------5-----5-------4-|---------------3--3--------|
--------------5--4--4------|---------------------------|
---------------------------|--4--L--L---L--------------|
--6--L--L--5--L--4--L--L-L-|---------------3--L--L--L--|


  E   E  E  E  E  E  E  E     E  S  S S  E  E  E  E  S  E   
--0h--2--0--0--------0--0--|--L-------0h-4--2--0-----------|
------------------0-----0--|--L--0h-4-------0--------0h-2--|
--2---------1-----4-----1--|--L----------------2-----------|
---------------2--4--------|----------------------0--------|
------------------------0--|--L--L--L-L--L--3--------------|
--2---L--L--0--L--4--L--L--|-------------------3--L--L--L--|


  E  E   E  S  S E  E  E  E     E  E   E   E  E  E  S  S E   
--0--2p--0--2S-4-L--0--L-----|---------------------------0--|
--0-----------------0--L-----|-------------------0--0h-2----|
--2---------2S-4-L-----------|--4--6S--8p--6--1-------------|
-----------------------------|----------------2-------------|
-----------------------4-----|--4--L---L---L----------------|
--2--L---L--0--L-L--4-----0--|----------------2--L--L--L-L--|


  v                          v                  
  E  E  E  E  E  E  E  E     W                  
-----------0--2--0--L--L--|--0----------------||
--2--L--L-----------------|--0----------------||
--2--L--L-----------------|--4----------------||
--2--L--L-----------------|--4----------------||
--2-----------------------|-------------------||
--------------------------|--0----------------||




Duration Legend
---------------
W - whole
H - half
Q - quarter
E - 8th
S - 16th
T - 32nd
X - 64th
. - note dotted
|-n-|  - n-tuplets


Tablature Legend
----------------
L - tied note
x - dead note
g - grace note
(n) - ghost note
> - accentuded note
NH - natural harmonic
AH - artificial harmonic
TH - tapped harmonic
SH - semi harmonic
PH - pitch harmonic
h - hammer on
p - pull off
b - bend
br - bendRelease
pb - preBend
pbr - preBendRelease
brb - bendReleaseBend
\n/ - tremolo bar dip
\n - tremolo bar dive
-/n - tremolo bar Release up
/n\ - tremolo bar inverted dip
/n - tremolo bar return
-\n - tremolo bar Release down
S - shift slide
s - legato slide
/ -  slide into from below or out of upwards
\ -  slide into from above or out of downwards
~ - vibrato
W - wide vibrato
tr - trill
TP - tremolo picking
T - tapping
S - slap
P - pop
< - fade in
^ - brush up
v - brush down
comments
We did not receive enough feedback on this tab! Please rate:
print report bad tab
1 2 3 4 5
I want to post or [tab]
guest
You may want to rate the tab now too:
select rating
Please do not post tabs as comments. Select "correction" instead!