Oops, an error
Loading. Please wait.

Last Train Home Tab

ver2
ver2

Whole song

More versions @911Tabs.com
14,336 views 30 this week
no commentswrite comment
1 2 3 4 5
accurate
x 4
Autoscroll
+/-
esc
set tempo
stop
Contributor
Hey! There's an official Ultimate Guitar app which is ideal
for learning songs when you're away from computer. Get the app
WARNING: You are trying to view
                                    content from Ultimate-Guitar.com
                                    in an unauthorized application,
                                    which is prohibited.

                                    Please use an official Ultimate
                                    Guitar Tabs application for iPhone,
                                    iPad or Android to access legitimate
                                    chords, guitar, bass, and drum tabs
                                    from Ultimate-Guitar.com database.

                                    Type "ultimate guitar tabs" in Apple
                                    App Store's or Android Market's
                                    search to find the application.
Last Train Home
Still Life (Talking)
Pat Metheny

Sounds very nice on a good accoustic
Listen to the recording for the solo section, some
parts are tricky >=D


Melody
E|---------------------------------------------------|
B|-----3---3-----2p1--------1------------------------|
G|-3--------------------3-------3----3---0---3-------|
D|---------------------------------------------------|
A|---------------------------------------------------|
E|---------------------------------------------------|
       
                                           
E|--------------------------------------------------------------------|
B|-----3---6-----5h6--------3--\1-------------------------------------|
G|-3--------------------3------------3----------------------0---3---5-|
D|---------------------------------------5---6p5---3----3-------------|
A|--------------------------------------------------------------------|
E|--------------------------------------------------------------------|


E|------------------3----------------5----------------3-----------6---|
B|-------------3-------------------------6---3------------6---3-------|
G|---6p5---3-------------------------------------3--------------------|
D|--------------------------------------------------------------------|
A|--------------------------------------------------------------------|
E|--------------------------------------------------------------------|


E|-3---1-------1----1-----------3----1---------------|
B|-3---1---3---1----1---3-------3----1---3-----------|
G|---------2------------3----------------2---3-------|
D|---------------------------------------------------|
A|---------------------------------------------------|
E|---------------------------------------------------|



Fill
E|-----5---6---5----6---5---------------------------------------------|
B|--------------------------6--------2---1----------------------------|
G|-------------------------------------------3------------------------|
D|--------------------------------------------------------------------|
A|--------------------------------------------------------------------|
E|--------------------------------------------------------------------|



Melody
E|--------------------------------------------------------------------|
B|-----3---3-----2p1--------1-----------------------------3---6---5h6-|
G|-3--------------------3-------3----3---0---3--------3---------------|
D|--------------------------------------------------------------------|
A|--------------------------------------------------------------------|
E|--------------------------------------------------------------------|
         
                                             
E|-------------------------------------------------------------------3-|
B|---------3--\1--------------------------------------------------3----|
G|-----3------------3---0----------------0---3---5-----6p5----3--------|
D|--------------------------3--------3---------------------------------|
A|---------------------------------------------------------------------|
E|---------------------------------------------------------------------|
       
                                  
E|------------------5----------------3-----------6--------------------|
B|----------------------6---3------------6---3------------------------|
G|------------------------------3-------------------------------------|
D|--------------------------------------------------------------------|
A|--------------------------------------------------------------------|
E|--------------------------------------------------------------------|
      
                                  
E|-3---1-------1----1-----------3----1--------------------------------|
B|-3---1---3---1----1---3-------3----1---3----------------------------|
G|---------2------------3----------------2---3------------------------|
D|--------------------------------------------------------------------|
A|--------------------------------------------------------------------|
E|--------------------------------------------------------------------|

                   

Metheny's Solo                    
E|-----------------------------------------------1----3-------1-------|
B|-------------------------------------------3------------3-----------|
G|--------------------------3---3----5---3----------------------------|
D|-0---3---3---3----5---3---------------------------------------------|
A|--------------------------------------------------------------------|
E|--------------------------------------------------------------------|

                                                          
E|--------------------------5---3-------------------------3---1-------|
B|------------------3---6------------1---3---4---3----4-----------3---|
G|--------------------------------------------------------------------|
D|--------------------------------------------------------------------|
A|--------------------------------------------------------------------|
E|--------------------------------------------------------------------|

                                                          
E|--------------------------1---3----1----------------1---------------|
B|------------------3---4----------------4---3---1--------3---2p1-----|
G|--------------------------------------------------------------------|
D|--------------------------------------------------------------------|
A|--------------------------------------------------------------------|
E|--------------------------------------------------------------------|

                                                       
E|--------------------------------------------------------------------|
B|-----1---------------------------------4---3---1--------1-----------|
G|-3-------0---3---------------------3----------------3---------------|
D|--------------------------------------------------------------------|
A|--------------------------------------------------------------------|
E|--------------------------------------------------------------------|

                                                          
E|--------------------------------------------------------------------|
B|------------------3---4---6--/3----------------3--------------------|
G|-----------------------------------5---3---5------------5---3---5---|
D|--------------------------------------------------------------------|
A|--------------------------------------------------------------------|
E|--------------------------------------------------------------------|

                                                       
E|--------------------------------------------------------------------|
B|---------3----------------------------------------------------------|
G|-3---5------------6p5-----3---5----0---3------------0---------------|
D|--------------------------------------------------------3---1---0---|
A|--------------------------------------------------------------------|
E|--------------------------------------------------------------------|

                                                      
E|-----------------------------------------------------------------1-1-|
B|---------------------------------------1----------------1----3-------|
G|---------------------------------0--2------3---2----3----------------|
D|--------------------------0------------------------------------------|
A|-3---1----------------1----------------------------------------------|
E|---------3--------3--------------------------------------------------|

                                
E|-3---1------------6-5-3--1------------------------------------------|
B|---------3--1---------------3------------------------3--------------|
G|---------------3---------------------3---3---0---3-------0---3------|
D|--------------------------------------------------------------------|
A|--------------------------------------------------------------------|
E|--------------------------------------------------------------------|


E|------------------------------------1---3-------1---3--|
B|---------------------------------3----------3----------|
G|---------------2---3---3---3-3-------------------------|
D|-------0---3-------------------------------------------|
A|---1---------------------------------------------------|
E|-------------------------------------------------------|

                                                  
E|-------------------------------------------------|
B|-----2---1--------------------------3------------|
G|--------------3---0----3---3---3-----------------|
D|-----------------------------------------3-------|
A|-------------------------------------------------|
E|-------------------------------------------------|


E|----------------------------------------------------------------15--|
B|-------------3----3---6---6---8----10--11--11--11---11--13--15------|
G|-3---3---3----------------------------------------------------------|
D|--------------------------------------------------------------------|
A|--------------------------------------------------------------------|
E|--------------------------------------------------------------------|

                                                      
E|-----13-------------------10--8----8---10--11--10---8---------------|
B|-15------15--13---11--11--------------------------------8---6-------|
G|--------------------------------------------------------------------|
D|--------------------------------------------------------------------|
A|--------------------------------------------------------------------|
E|--------------------------------------------------------------------|

                                     
E|--------------------------10--13---15--17--15--13---10--------------|
B|------------------11--11--------------------------------13--11--10--|
G|--------------------------------------------------------------------|
D|--------------------------------------------------------------------|
A|--------------------------------------------------------------------|
E|--------------------------------------------------------------------|

                                                  
E|----------------------------------------------------------------|
B|-------------------------------------------------10h11--10--8---|
G|-12--10---------------------------------------------------------|
D|---------12----------------10--12--13--12---13------------------|
A|-------------13-------------------------------------------------|
E|----------------------------------------------------------------|

                                                       
E|--------------------------------------------------------------------|
B|-6----------------6---6---4---4----3---3----------------------------|
G|-------------------------------------------5---5----3---3---5---3---|
D|--------------------------------------------------------------------|
A|--------------------------------------------------------------------|
E|--------------------------------------------------------------------|

                                                 
E|-----------------------------------------------3--------------------|
B|-3---3---3---3----4---3------------3---3---3--------3-------3-------|
G|--------------------------5---3-------------------------5-------3---|
D|--------------------------------------------------------------------|
A|--------------------------------------------------------------------|
E|--------------------------------------------------------------------|

                                            
E|--------------------------------------------------------------------|
B|------------------11--10--8--------8---10--11-----------------------|
G|------------------------------10------------------------------------|
D|-----------------------------------------------8--------------------|
A|--------------------------------------------------------------------|
E|--------------------------------------------------------------------|

                                        
E|------------------------------8----10--11--10-----------------------|
B|-11--10--8--------8---10--11----------------------------------------|
G|-------------10-----------------------------------------------------|
D|--------------------------------------------------------------------|
A|--------------------------------------------------------------------|
E|--------------------------------------------------------------------|

                                                          
E|-----8/10\8-----------------------------------------3-------1---3---|
B|-------------11---8-------11--11------------------------3-----------|
G|----------------------10--------------------------------------------|
D|--------------------------------------------------------------------|
A|--------------------------------------------------------------------|
E|--------------------------------------------------------------------|

                                                   
E|-----1------------3-------1---3--------1--------------------3---3---|
B|-3--------------------3------------3----------------6---6-----------|
G|--------------------------------------------------------------------|
D|--------------------------------------------------------------------|
A|--------------------------------------------------------------------|
E|--------------------------------------------------------------------|

End of Solo
E|-5---5--------------------------------------------------------------|
B|--------------------------------------------------------------------|
G|--------------------------------------------------------------------|
D|--------------------------------------------------------------------|
A|--------------------------------------------------------------------|
E|--------------------------------------------------------------------|


Sung, or played along with                                                           
E|------------------------------------3---6---5---5--------------3---5---3---|
B|-6---4---3--------3--------------------------------6-----------------------|
G|-------------5--------5---5---3-----------------------------3--------------|
D|---------------------------------------------------------------------------|
A|---------------------------------------------------------------------------|
E|---------------------------------------------------------------------------|

                                                   
E|---------6----------------------------------------------------------|
B|------------------3---4---3---1--------1----------------------------|
G|-7---5-----------------------------3-------3---0----3---------------|
D|--------------------------------------------------------------------|
A|--------------------------------------------------------------------|
E|--------------------------------------------------------------------|


Melody                                                      
E|--------------------------------------------------------------------|
B|-----3---3p2----1----------1-----------------------------3---6---5--|
G|-3--------------------3-------3----3---0---3--------3---------------|
D|--------------------------------------------------------------------|
A|--------------------------------------------------------------------|
E|--------------------------------------------------------------------|

                                                      
E|------------------------------------------------------------------3-|
B|-6-------3\1--------------------------------------------------3-----|
G|-----3------------3---0----------------0---3---5----6---5---3-------|
D|--------------------------3--------3--------------------------------|
A|--------------------------------------------------------------------|
E|--------------------------------------------------------------------|

                                     
E|------------------5----------------3-----------6--------------------|
B|----------------------6---3------------6---3------------------------|
G|------------------------------3-------------------------------------|
D|--------------------------------------------------------------------|
A|--------------------------------------------------------------------|
E|--------------------------------------------------------------------|


                                                      Outro Solo Fills
E|-3---1-------1----1-----------3----1----------------6---5---6---5---|
B|-3---1---3---1----1---3-------3----1---3----------------------------|
G|---------2------------3----------------2---3------------------------|
D|--------------------------------------------------------------------|
A|--------------------------------------------------------------------|
E|--------------------------------------------------------------------|

                                                          
E|-6---5-----------------------------3---5---6---8----6---8---8---10--|
B|---------6----------------------------------------------------------|
G|--------------------------------------------------------------------|
D|--------------------------------------------------------------------|
A|--------------------------------------------------------------------|
E|--------------------------------------------------------------------|

                                            
E|------------------13--13--13--13---13--11--10-------13--13--13--13--|
B|--------------------------------------------------------------------|
G|--------------------------------------------------------------------|
D|--------------------------------------------------------------------|
A|--------------------------------------------------------------------|
E|--------------------------------------------------------------------|

                                                 
E|-13--15--17--18---13---------------10--10--10--10--/13--------------|
B|--------------------------------------------------------13--11------|
G|--------------------------------------------------------------------|
D|--------------------------------------------------------------------|
A|--------------------------------------------------------------------|
E|--------------------------------------------------------------------|

                                                          
E|---------11--10-----------------------------------------------------|
B|-11--13-----------11----------------------------------------11--13--|
G|----------------------12--10------------------------10--12----------|
D|--------------------------------------------------------------------|
A|--------------------------------------------------------------------|
E|--------------------------------------------------------------------|

                                      
E|-----------------------------------11--11--11--10-------------------|
B|-11-----------------------------------------------------------------|
G|--------------------------------------------------------------------|
D|--------------------------------------------------------------------|
A|--------------------------------------------------------------------|
E|--------------------------------------------------------------------|

                                     
E|-10--10--10-/13--------------------------------13---10--------------|
B|-----------------------------------13--13--13-----------------------|
G|--------------------------------------------------------------------|
D|--------------------------------------------------------------------|
A|--------------------------------------------------------------------|
E|--------------------------------------------------------------------|

                                                    
E|------------------------------17---13---------------13--13--13--15--|
B|------------------15--15--15----------------------------------------|
G|--------------------------------------------------------------------|
D|--------------------------------------------------------------------|
A|--------------------------------------------------------------------|
E|--------------------------------------------------------------------|

                                     Let Ring and Fade Out
E|-17--18--13----------------------------13------13-------13------13--|
B|-----------------------------------11------11-------11------11------|
G|--------------------------------------------------------------------|
D|--------------------------------------------------------------------|
A|--------------------------------------------------------------------|
E|--------------------------------------------------------------------|
comments
print report bad tab
I want to post or [tab]
guest
You may want to rate the tab now too:
select rating
Please do not post tabs as comments. Select "correction" instead!