Oops, an error
Loading. Please wait.

The Heat Of The Day Tab

1,929 views 6 this week
no commentswrite comment
1 2 3 4 5
excellent!
x 1
add to favorites launch autoscroll
font size
0
reset
Autoscroll
+/-
esc
set tempo
stop
Contributor
Difficulty
advanced
WARNING: You are trying to view
                                    content from Ultimate-Guitar.com
                                    in an unauthorized application,
                                    which is prohibited.

                                    Please use an official Ultimate
                                    Guitar Tabs application for iPhone,
                                    iPad or Android to access legitimate
                                    chords, guitar, bass, and drum tabs
                                    from Ultimate-Guitar.com database.

                                    Type "ultimate guitar tabs" in Apple
                                    App Store's or Android Market's
                                    search to find the application.
The Heat of the Day
Imaginary Day
Pat Metheny
Tabbed By: Peter Irwin

(0:07)
e--------------------------------------------------------|
b--5-5-5-6-5---5-8--5-5-5-5-6-5-5-5-5-5----5-5-5-6-5-5-5-|
g------------7--------------------------7----------------|
d--------------------------------------------------------|
a--------------------------------------------------------|
e--------------------------------------------------------|

e-----------------------------------------------|
b-5-5-5-6-5-5-5-6-5-5-5--5-5-5-6-5-5-5----------|
g-----------------------------------------------|
d-----------------------------------------------|
a-----------------------------------------------|
e-----------------------------------------------|

(0:13)
e--------------------------------------------------------|
b--5-5-5-6-5---5-8--5-5-5-5-6-5-5-5-5-5----5-5-5-6-5-5-5-|
g------------7--------------------------7----------------|
d--------------------------------------------------------|
a--------------------------------------------------------|
e--------------------------------------------------------|

e----------------------------------------|
b-5-5-5-6-5-5-5-6-5-5-5--5-5-5-6-5-5-5---|
g----------------------------------------|
d----------------------------------------|
a----------------------------------------|
e----------------------------------------|

(piano enters)
(0:20)
e--------------------------------------------------------|
b--5-5-5-6-5---5-8--5-5-5-5-6-5-5-5-5-5----5-5-5-6-5-5-5-|
g------------7--------------------------7----------------|
d--------------------------------------------------------|
a--------------------------------------------------------|
e--------------------------------------------------------|

e--------------------------------------|
b-5-5-5-6-5-5-5-6-5-5-5--5-5-5-6-5-5-5-|
g--------------------------------------|
d--------------------------------------|
a--------------------------------------|
e--------------------------------------|

e----------5-6-5-----------------------------|
b--5-5-6-8-------8-6-5---5-6-5---------------|
g----------------------7---------------------|
d--------------------------------------------|
a--------------------------------------------|
e--------------------------------------------|

(0:28)
e-----------------------------------------------------------|
b--5-5-5-6-5---5-8--5-5-5-5-6-5-5-5-5-5----5-5-5-6-5-5-5--5-|
g------------7--------------------------7-------------------|
d-----------------------------------------------------------|
a-----------------------------------------------------------|
e-----------------------------------------------------------|

e--------------------------------------------|
b-5-5-5-6-5-5-5-6-5-5-5--5-5-5-6-5-5-5-------|
g--------------------------------------------|
d--------------------------------------------|
a--------------------------------------------|
e--------------------------------------------|

(0:34)
e--------------------------------------------------------|
b--5-5-5-6-5---5-8--5-5-5-5-6-5-5-5-5-5----5-5-5-6-5-5-5-|
g------------7--------------------------7----------------|
d--------------------------------------------------------|
a--------------------------------------------------------|
e--------------------------------------------------------|

e------------------------------------------|
b-5-5-5-6-5-8-5-5-5-6-5-5-5--5-5-5-6-5-5-5-|
g------------------------------------------|
d------------------------------------------|
a------------------------------------------|
e------------------------------------------|

e----------5-5-6-8-10-11-10-8-6-5---5-6-5--|
b--5-5-6-8------------------------8--------|
g------------------------------------------|
d------------------------------------------|
a------------------------------------------|
e------------------------------------------|

(0:42)
e---------------------------------------------------|
b--5-5-5-6-5-5---5-6-5-5-5-6-5-5-5-6-5-5-5-8-5-5-5--|
g--------------7------------------------------------|
d---------------------------------------------------|
a---------------------------------------------------|
e---------------------------------------------------|

(0:46)
e--------------------------------------------------------------------|
b-------------------------7-------7----------9-----------------------|
g--8-8-6-8-9-8----8-8-6-8---8-6-8----8-8-6-8----8-8-6-8--8-6-8-9-8---|
d--------------6---------------------------------------------------6-|
a--------------------------------------------------------------------|
e--------------------------------------------------------------------|

e-----------------------------------------------|
b-9-9-10-11-12-13-12-10-8-7-6-5-5-6-5-----------|
g-------------------------------------7-5-------|
d-----------------------------------------9-8-7-|
a-----------------------------------------------|
e-----------------------------------------------|

(0:52)
e-------------------------------------------------------------------|
b--------------------------------7----------9-----------------------|
g--8-8-6-8-9-8----8-8-6-8--8-6-8----8-8-6-8----8-8-6-8--8-6-8-9-8---|
d--------------6--------------------------------------------------6-|
a-------------------------------------------------------------------|
e-------------------------------------------------------------------|

e-------------------------------------------|
b-----------------------------------7-6-7-8-|
g-------------------7-7-6-7-9-9-8-9---------|
d-------------------------------------------|
a-9-9-7-10--10-9-10-------------------------|
e-------------------------------------------|

(1:00)
e---------------------------------7----------9------------------------|
b--9-9-7-9-10-9----9-9-7-9--9-7-9----9-9-7-9----9-9-7-9--9-7-9-10-9---|
g---------------6---------------------------------------------------6-|
d---------------------------------------------------------------------|
a---------------------------------------------------------------------|
e---------------------------------------------------------------------|

e---------------------------------|
b-5-5---7--5--7--5-5--7--5--7-----|
g-----7---------------------------|
d---------------------------------|
a---------------------------------|
e---------------------------------|

e---------------------------------7----------9------------------------|
b--9-9-7-9-10-9----9-9-7-9--9-7-9----9-9-7-9----9-9-7-9--9-7-9-10-9---|
g---------------6---------------------------------------------------6-|
d---------------------------------------------------------------------|
a---------------------------------------------------------------------|
e---------------------------------------------------------------------|

e-9-10-11-12-13-13-12-10-8-8-7-5----------|
b--------------------------------8-8-6-5--|
g-----------------------------------------|
d-----------------------------------------|
a-----------------------------------------|
e-----------------------------------------|

(1:14)
e-------------------------------------------------------------------|
b--------------------------------7----------9-----------------------|
g--8-8-6-8-9-8----8-8-6-8--8-6-8----8-8-6-8----8-8-6-8--8-6-8-9-8---|
d--------------6--------------------------------------------------6-|
a-------------------------------------------------------------------|
e-------------------------------------------------------------------|

e------------------------------------|
b----------------------------9----11-|
g-----------8----9----11--10---12----|
d-6-6-7-8-9---11---13----------------|
a------------------------------------|
e------------------------------------|

e-------------10------11----|
b-----12---11-----13--------|
g--13-----------------------|
d---------------------------|
a---------------------------|
e---------------------------|

(1:20)
e--------------------------------------------------------|
b--5-5-5-6-5---5-8--5-5-5-5-6-5-5-5-5-5----5-5-5-6-5-5-5-|
g------------7--------------------------7----------------|
d--------------------------------------------------------|
a--------------------------------------------------------|
e--------------------------------------------------------|

e--------------------------------------|
b-5-5-5-6-5-5-5-6-5-5-5--5-5-5-6-5-5-5-|
g--------------------------------------|
d--------------------------------------|
a--------------------------------------|
e--------------------------------------|

e--------------------------------------------------------|
b--5-5-5-6-5---5-8--5-5-5-5-6-5-5-5-5-5----5-5-5-6-5-5-5-|
g------------7--------------------------7----------------|
d--------------------------------------------------------|
a--------------------------------------------------------|
e--------------------------------------------------------|

e-----------7----------------------------------|
b-5-5-5-6-5---5-6-5-5-5-6-5-5-5--5-5-5-6-5-5-5-|
g----------------------------------------------|
d----------------------------------------------|
a----------------------------------------------|
e----------------------------------------------|

e--------------------------------------------------------|
b--5-5-5-6-5---5-8--5-5-5-5-6-5-5-5-5-5----5-5-5-6-5-5-5-|
g------------7--------------------------7----------------|
d--------------------------------------------------------|
a--------------------------------------------------------|
e--------------------------------------------------------|

e--------------------------------------|
b-5-5-5-6-5-5-5-6-5-5-5--5-5-5-6-5-5-5-|
g--------------------------------------|
d--------------------------------------|
a--------------------------------------|
e--------------------------------------|

e--------------------------------------------------------|
b--5-5-5-6-5---5-8--5-5-5-5-6-5-5-5-5-5----5-5-5-6-5-5-5-|
g------------7--------------------------7----------------|
d--------------------------------------------------------|
a--------------------------------------------------------|
e--------------------------------------------------------|

e-----------7-----------------------------------|
b-5-5-5-6-5---5-8-5-6-5---5-6-5-5-5--5-5-5-6-5--|
g-----------------------7-----------------------|
d-----------------------------------------------|
a-----------------------------------------------|
e-----------------------------------------------|

e---------------------------------|
b--5-5-6-5-5-5-6-5-5-5-6-5-5-5----|
g---------------------------------|
d---------------------------------|
a---------------------------------|
e---------------------------------|

(1:47)
e--8---7--5--5/7--5--3--3/5--3--1--0-|
b------------------------------------|
g------------------------------------|
d------------------------------------|
a------------------------------------|
e------------------------------------|

e-13--12--10--10/12--10--8--8/10--8--6--5---|
b-------------------------------------------|
g-------------------------------------------|
d-------------------------------------------|
a-------------------------------------------|
e-------------------------------------------|
comments
We did not receive enough feedback on this tab! Please rate:
print report bad tab
1 2 3 4 5
I want to post or [tab]
guest
You may want to rate the tab now too:
select rating
Please do not post tabs as comments. Select "correction" instead!