Oops, an error
Loading. Please wait.

Mon Amant De Saint-jean Chords

106 views 30 this week
no commentswrite comment
1 2 3 4 5
please rate
add to favorites launch autoscroll
font size
0
reset
transpose
0
reset
highlight chords
display chords
Autoscroll
+/-
esc
set tempo
stop
Contributor
WARNING: You are trying to view
                                    content from Ultimate-Guitar.com
                                    in an unauthorized application,
                                    which is prohibited.

                                    Please use an official Ultimate
                                    Guitar Tabs application for iPhone,
                                    iPad or Android to access legitimate
                                    chords, guitar, bass, and drum tabs
                                    from Ultimate-Guitar.com database.

                                    Type "ultimate guitar tabs" in Apple
                                    App Store's or Android Market's
                                    search to find the application.
-------------------------------------------------------------------------------
               MON AMANT DE SAINT JEAN - Patrick Bruel
-------------------------------------------------------------------------------
Tabbed by: Meggane GRAND 

Capo 2

Tuning:

Verse :
          Em               Am              B7              Em
e|----------------------------------------------------------------------------------|
B|----0-0-----0-0------3-3-----3-3------0-0-----0-0------0-0-----0-0----------------|
G|----0-0-----0-0------2-2-----2-2------2-2-----2-2------0-0-----0-0----------------|
D|----2-2-----2-2------2-2-----2-2------1-1-----1-1------2-2-----2-2----------------|    
A|-------------------0-------0--------2-------2-------------------------------------|
E|-0-------0-------------------------------------------0-------0--------------------|


Chorus :

          Em               Am              B7                G
e|----------------------------------------------------------------------------------|
B|----0-0-----0-0------3-3-----3-3------0-0-----0-0------0-0-----0-0----------------|
G|----0-0-----0-0------2-2-----2-2------2-2-----2-2------0-0-----0-0----------------|
D|----2-2-----2-2------2-2-----2-2------1-1-----1-1------0-0-----0-0----------------|    
A|-------------------0-------0--------2-------2-------------------------------------|
E|-0-------0-------------------------------------------1-------1--------------------|

          Em               Am              B7              Em
e|----------------------------------------------------------------------------------|
B|----0-0-----0-0------3-3-----3-3------0-0-----0-0------0-0-----0-0----------------|
G|----0-0-----0-0------2-2-----2-2------2-2-----2-2------0-0-----0-0----------------|
D|----2-2-----2-2------2-2-----2-2------1-1-----1-1------2-2-----2-2----------------|    
A|-------------------0-------0--------2-------2-------------------------------------|
E|-0-------0-------------------------------------------0-------0--------------------|


- Verse 1 : 
       Em                          Am
Je ne sais pourquoi elle allait danser
         B7          Em
à Saint Jean au musette
           Em                      Am
mais quand ce gars lui a pris un baiser
            B7              Em
elle frissonnait, était chipée


- Pre-Chorus : Em - Am - B7 - Em

Comment ne pas perdre la tête
serré par des bras audacieux
car l'on croit toujours
aux doux mots d'amour
quand ils sont dits avec les yeux

- Chorus : 
Em                 Am
Elle qui l'aimait tant
             B7                         G
elle le trouvait le plus beau de Saint Jean
Em              Am
elle restait grisée
          B7
sans volonté
            Em
sous ses baisers


- Verse 2 : Em - Am - B7 - Em

Sans plus réfléchir, elle lui donnait
le meilleur de son être
beau parleur chaque fois
qu'il mentait
elle le savait, mais elle l'aimait

- Pre-Chorus : Em - Am - B7 - Em

Comment ne pas perdre la tête
serré par des bras audacieux
car l'on croit toujours
aux doux mots d'amour
quand ils sont dits avec les yeux

- Chorus : Em - Am - B7 - G - Em - Am - B7 - Em

Elle qui l'aimait tant
elle le trouvait le plus beau
de Saint Jean
elle restait grisée
sans volonté
sous ses baisers
Mais hélas,
à Saint Jean comme ailleurs
un serment n'est qu'un leurre
elle était folle de croire au bonheur
et de vouloir garder son cœur

- Pre-Chorus : Em - Am - B7 - Em

Comment ne pas perdre la tête
serré par des bras audacieux
car l'on croit toujours
aux doux mots d'amour
quand ils sont dits avec les yeux

- Chorus :  Em - Am - B7 - G - Em - Am - B7 - Em

Elle qui l'aimait tant,
elle le trouvait
le plus beau de Saint Jean,
elle restait grisée
sans volonté
sous ses baisers
Elle qui l'aimait tant...
Il ne l'aime plus
c'est du passé
n'en parlons plus
comments
We did not receive enough feedback on this tab! Please rate:
print report bad tab
1 2 3 4 5
I want to post or [tab]
guest
You may want to rate the tab now too:
select rating
Please do not post tabs as comments. Select "correction" instead!