Oops, an error
Loading. Please wait.

Crazy Tab

ver1
ver1

Whole song

Interactive

More versions @911Tabs.com
22,248 views 40 this week
1 commentread comment
1 2 3 4 5
worth learning
x 2
Autoscroll
+/-
esc
set tempo
stop
Hey! There's an official Ultimate Guitar app which is ideal
for learning songs when you're away from computer. Get the app
WARNING: You are trying to view
                                    content from Ultimate-Guitar.com
                                    in an unauthorized application,
                                    which is prohibited.

                                    Please use an official Ultimate
                                    Guitar Tabs application for iPhone,
                                    iPad or Android to access legitimate
                                    chords, guitar, bass, and drum tabs
                                    from Ultimate-Guitar.com database.

                                    Type "ultimate guitar tabs" in Apple
                                    App Store's or Android Market's
                                    search to find the application.
Song: Crazy
Band/Artist: Patsy Cline



GUITAR



                                   |--3--|  |--3--|                          
     W                   Q    Q    E  E  E  E  E  E     Q    Q    Q    Q     
E||-------------------|---------------1--2--3--4--5--|--6-------------------|
B||-------------------|-------3----------------------|-------4---------4----|
G||-------------------|-------3----------------------|-------3----3----3----|
D||-------------------|-------3----3-----------------|-------5---------5----|
A||-------------------|--1---------------------------|--6-------------------|
E||-------------------|------------------------------|----------------------|


  Q    Q    Q    Q       Q    Q    Q    Q       Q    Q    Q    Q     
----------------------|----------------------|----------------------|
-------4---------3----|-------1---------1----|-------3---------3----|
-------3---------2----|-------0---------2----|-------3---------1----|
--1----5----0----3----|-------1---------3----|-------3---------3----|
----------------------|--3-------------------|--1---------1---------|
----------------------|------------1---------|-----------------4----|


  Q    Q    Q    Q       Q    Q    Q    Q       Q    Q    Q    Q     
----------------------|----------------------|----------------------|
-------3---------3----|-------4---------4----|-------4---------4----|
-------4---------4----|-------5---------5----|-------5---------5----|
-------5----0----5----|-------5----5----5----|-------5----5----5----|
----------------------|--3-------------------|--3-------------------|
--3-------------------|----------------------|----------------------|


  Q    Q    Q    Q       Q    Q    Q    Q       Q    Q    Q    Q     
-------1---------1----|-------1---------1----|-------1---------1----|
-------1---------1----|-------1---------2----|-------3---------3----|
-------2---------2----|-------2---------2----|-------3---------4----|
----------------------|----------------------|----------------------|
------------3---------|------------3---------|--1---------2---------|
--1-------------------|--1-------------------|----------------------|


  Q    Q    Q    Q       Q    Q    Q    Q       Q    Q    Q    Q     
----------------------|----------------------|----------------------|
-------4---------1----|-------3---------3----|-------3---------3----|
-------5---------2----|-------3---------3----|-------4---------4----|
-------5---------3----|-------3---------3----|-------5----0----5----|
--3-------------------|--1---------1---------|----------------------|
------------1---------|-----------------4----|--3-------------------|


  Q    Q    Q    Q       Q    Q    Q    Q       Q    Q    Q    Q     
----------------------|----------------------|-------1---------1----|
-------4---------4----|-------4---------4----|-------1---------1----|
-------5---------5----|-------5---------5----|-------2---------2----|
-------5---------5----|-------5----5----5----|----------------------|
--3-------------------|--3-------------------|------------3---------|
------------3---------|----------------------|--1-------------------|


  Q    Q    Q    Q       Q    Q    Q    Q       Q    Q    Q    Q     
-------1---------1----|----------------------|-------0---------1----|
-------1---------1----|-------3---------4----|-------2---------3----|
-------2---------2----|-------3---------5----|-------3---------3----|
----------------------|-------3---------5----|------------0---------|
------------3---------|--1---------3---------|--4-------------------|
--1-------------------|----------------------|----------------------|


  Q    Q    Q    Q       Q    Q    Q    Q       Q    Q    Q    Q     
----------------------|-----------------0----|----------------------|
-------4---------4----|-------4--------------|-------3---------3----|
-------3---------3----|-------3---------3----|-------3---------3----|
--1----5---------5----|--1----5----2----5----|-------3---------3----|
------------1---------|----------------------|--1-------------------|
----------------------|----------------------|------------1---------|


  Q    Q    Q    Q       Q    Q    Q    Q       Q    Q    Q    Q     
----------------------|-------0---------0----|-------0---------0----|
-------2----3----4----|-------1---------1----|-------1---------1----|
----------------------|-------0---------0----|-------0---------0----|
----------------------|----------------------|----------------------|
--1----0----1----2----|--3-------------------|--3-------------------|
----------------------|------------3---------|------------3---------|


  Q    Q    Q    Q       Q    Q    Q    Q       Q    Q    Q    Q     
-------1---------1----|-------1---------1----|----------------------|
-------1---------1----|-------1---------1----|-------3---------3----|
-------2---------2----|-------2---------2----|-------3---------3----|
----------------------|----------------------|-------3---------3----|
------------3---------|------------3---------|--1---------1---------|
--1-------------------|--1-------------------|-----------------4----|


  Q    Q    Q    Q       Q    Q    Q    Q       Q    Q    Q    Q     
----------------------|----------------------|----------------------|
-------3---------3----|-------4---------4----|-------4---------4----|
-------4---------4----|-------5---------5----|-------5---------5----|
-------5----0----5----|-------5---------5----|-------5---------5----|
----------------------|--3-------------------|--3-------------------|
--3-------------------|------------3---------|------------3---------|


  Q    Q    Q    Q       Q    Q    Q    Q       Q    Q    Q    Q     
----------------------|----------------------|-----------------1----|
-------4---------3----|-------1---------0----|-------4---------1----|
-------3---------2----|-------0--------------|-------3---------2----|
-------5----0----3----|-------1---------3----|-------5--------------|
--6-------------------|--3---------2----5----|--3-------------------|
----------------------|----------------------|------------1---------|


                 |--3--|                                                 
  Q    Q    Q    E  E  E     Q    Q    Q    Q       Q    Q    Q    Q     
--------------------------|----------------------|----------------------|
-------3------------------|-------4---------4----|-------4---------4----|
-------3------------------|-------4---------4----|-------5---------5----|
-------3------------------|-------4---------4----|-------6---------6----|
--1--------------------1--|--2---------2----0----|------------6---------|
------------2----2--4-----|----------------------|--4-------------------|


  Q    Q    Q    Q       Q    Q    Q    Q       Q    Q    Q    Q     
-------0---------0----|-------0---------0----|-------0--------------|
----------------------|----------------------|-------0---------4----|
-------6---------6----|-------6---------6----|-----------------3----|
-------6---------6----|-------6---------6----|-------6---------4----|
--4-------------------|--4-------------------|--7---------6---------|
------------4---------|------------4---------|----------------------|


  Q    Q    Q    Q       W                   W                 
----------------------|-------------------|-------------------|
-------2--------------|--5----------------|--2----------------|
-------1---------5----|--6----------------|--3----------------|
-------2---------4----|--6----------------|--4----------------|
--4---------3----6----|--4----------------|-------------------|
----------------------|-------------------|--2----------------|


  W                   Q    Q    Q    Q       Q    Q    Q    Q     
-------------------|----------------------|-------0---------0----|
-------------------|-------4---------4----|-------0---------0----|
-------------------|-------4---------4----|-------1---------1----|
-------------------|-------4---------4----|--2-------------------|
-------------------|--2-------------------|------------2---------|
-------------------|------------2---------|----------------------|


  W                   H        H          
--2----------------|--L-----------------||
--4----------------|--L-----------------||
--4----------------|--L-----------------||
-------------------|--------------------||
--2----------------|--L-----------------||
-------------------|--------------------||










MUTE GUITAR



                                  |--3--|  |--3--|  3  3  
     W                   Q.     T E  E  E  E  E  E  E  X  
E||-------------------|----------------------------------|
B||-------------------|----------------------------------|
G||-------------------|----------------------------------|
D||-------------------|-----------0--3--------------0--1-|
A||-------------------|--1------L-------1--2--3--4-------|
E||-------------------|----------------------------------|


         3   3       3  3    3    3               3  3    3  
  Q.     T T E  Q    E  E  S X    X H        Q    E  E  S X  
-------------------------------|----------------------------|
---------------------1---------|----------------------------|
-------------0--3-------3--0-L-|--L---------------2---------|
--L------L---------------------|----1--------0-------3--0-L-|
-------------------------------|----------------------------|
-------------------------------|----------------------------|


  3          3       |--3--|              3            3  
  X Q.     T E  Q    E  E  E     Q.     T E  Q    Q    X  
------------------------------|--------------------------|
------------------------------|--------------------------|
-------------0----------------|--------------------------|
--L-------------3-------------|-----------0--3-----------|
----3------L---------------0--|--1------L----------------|
---------------------1--3-----|-------------------4----3-|


         3   3       3      3    3          3       |--3--|   
  Q.     T T E  Q    Q    S X    X Q.     T E  Q    E  E  E   
------------------------------|------------------------------|
------------------------------|------------------------------|
------------------------------|----------------0----------0--|
----------------0---------0-L-|--L----------1-------1--L-----|
-------------2-------2--------|----3------L------------------|
--L------L--------------------|------------------------------|


           3            3    3           3       3      3  
  Q.     T E  Q    Q    X    H        S. E  Q    Q    S X  
--------------------------|-------------------------------|
--------------------------|-------------------------------|
--------------0-----------|-------------------------------|
--------------------------|-------------------------------|
--3------L-3--------------|--------------0--3----0----3-L-|
-------------------3----1-|--L----------------------------|


  3          3       |--3--|              3               3  
  X Q.     T E  Q    E  E  E     Q.     T E  Q.     T T S X  
------------------------------|-----------------------------|
------------------------------|-----------------------------|
------------------------------|-----------------------------|
------------------------------|-----------------------------|
--L----------0--3----0--L--3--|--1------L-1--2------L---2-L-|
----1------L------------------|-----------------------------|


  3          3       |--3--|              3            3  
  X Q.     T E  Q    E  E  E     Q.     T E  Q    Q    X  
------------------------------|--------------------------|
------------------------------|--------------------------|
-------------0----------------|--------------------------|
----------------3-------------|-----------0--3-----------|
--L-3------L---------------0--|--1------L----------------|
---------------------1--3-----|-------------------4----3-|


         3   3       3      3    3          3       |--3--|   
  Q.     T T E  Q    Q    S X    X Q.     T E  Q    E  E  E   
------------------------------|------------------------------|
------------------------------|------------------------------|
------------------------------|----------------0----------0--|
----------------0---------0-L-|--L----------1-------1--L-----|
-------------2-------2--------|----3------L------------------|
--L------L--------------------|------------------------------|


           3            3    3           3       3      3  
  Q.     T E  Q    Q    X    H        S. E  Q    Q    S X  
--------------------------|-------------------------------|
--------------------------|-------------------------------|
--------------0-----------|-------------------------------|
--------------------------|-------------------------------|
--3------L-3--------------|--------------0--3----0----3-L-|
-------------------3----1-|--L----------------------------|


  3          3       |--3--|              3               3  
  X Q.     T E  Q    E  E  E     Q.     T E  Q.     T T S X  
------------------------------|-----------------------------|
------------------------------|-----------------------------|
------------------------------|-----------------------------|
------------------------------|-----------------------------|
--L----------0--3----0--L--3--|--1------L-1--3------L---3-L-|
----1------L------------------|-----------------------------|


  3          3       |--3--|          |--3--|       |--3--|   
  X Q.     T E  Q    E  E  E     Q    E  E  E  Q    E  E  E   
------------------------------|------------------------------|
------------------------------|-------------1----------------|
------------------------------|-------0--L-----3----0--L--3--|
----------------0----------0--|--1---------------------------|
--L-4------L-4-------1--3-----|------------------------------|
------------------------------|------------------------------|


       |--3--|                    |--3--|       |--3--|   
  Q    E  E  E  Q    Q       Q    E  E  E  Q    E  E  E   
--------------------------|------------------------------|
-------------1------------|------------------------------|
-------0--L----------0----|-------------0----------------|
--1-------------2---------|-------0--L-----3----0--L--3--|
--------------------------|--1---------------------------|
--------------------------|------------------------------|


                              |--3--|       |--3--|   
  Q    Q    Q    Q       Q    E  E  E  Q    E  E  E   
----------------------|------------------------------|
----------------------|------------------------------|
----------------------|-------------2--0----------0--|
----------------------|-------2--L----------2--L-----|
--1----0----1----2----|--3---------------------------|
----------------------|------------------------------|


       |--3--|       |--3--|          |--3--|       |--3--|   
  Q    E  E  E  Q    E  E  E     Q    E  E  E  Q    E  E  E   
------------------------------|------------------------------|
------------------------------|------------------------------|
-------------2--0----------0--|------------------------------|
-------2--L----------2--L-----|-------------0----------------|
--3---------------------------|-------0--L-----3----0--L--3--|
------------------------------|--1---------------------------|


       |--3--|       |--3--|              3            3  
  Q    E  E  E  Q    E  E  E     Q.     T E  Q    Q    X  
------------------------------|--------------------------|
------------------------------|--------------------------|
------------------------------|--------------------------|
-------------0----------------|-----------0--3-----------|
-------0--L-----3----------0--|--1------L----------------|
--1------------------1--3-----|-------------------4----3-|


         3   3       3      3    3          3       |--3--|   
  Q.     T T E  Q    Q    S X    X Q.     T E  Q    E  E  E   
------------------------------|------------------------------|
------------------------------|------------------------------|
------------------------------|----------------0----------0--|
----------------0---------0-L-|--L----------1-------1--L-----|
-------------2-------2--------|----3------L------------------|
--L------L--------------------|------------------------------|


           3       |--3--|  3           3   3           3   
  Q.     T E  Q    E  E  E  X    Q.     T T E  Q.     T E   
------------------------------|----------------------------|
------------------------------|----------------------------|
--------------0---------------|----------------------------|
-----------1-------------0--1-|--L------L---1--0------L-0--|
--3------L---------1--3-------|----------------------------|
------------------------------|----------------------------|


           3            3           3   3                 
  Q.     T E  Q    Q    X    Q.     T T E  Q    E.  T. X  
--------------------------|------------------------------|
--------------------------|------------------------------|
--------------------------|-------------0----------------|
-------------------0------|----------------3-------------|
--3------L-3--2---------3-|--L------L--------------------|
--------------------------|---------------------1---L--L-|


  3 3        3  3       3  3    3    3          3             
  X H        E  E  Q    E  E  S X    X Q.     T E  Q    Q     
----------------------------------|--------------------------|
----------------------------------|--------------------------|
----------------------------------|--------------------------|
-------------0--3--4--------------|-------------1--4---------|
----1-------------------------1-L-|--L-2------L---------0----|
------------------------2--4------|--------------------------|


           3       |--3--|  3           3   3       3      3  
  Q.     T E  Q    E  E  E  X    Q.     T T E  Q    Q    S X  
------------------------------|------------------------------|
------------------------------|------------------------------|
------------------------------|----------------1---------1-L-|
--------------1----------1----|-------------2-------2--------|
-----------3-------3--L-----4-|--L------L--------------------|
--4------L--------------------|------------------------------|


  3          3       |--3--|              3               3  
  X Q.     T E  Q    E  E  E     Q.     T E  Q.     T T S X  
------------------------------|-----------------------------|
------------------------------|-----------------------------|
--L-------------1-------------|-----------------------------|
-------------2-------------1--|--2------L-2--1------L---1-L-|
----4------L---------2--4-----|-----------------------------|
------------------------------|-----------------------------|


  3          3                                                     
  X Q.     T E  Q    Q       W                   W                 
--------------------------|-------------------|-------------------|
--------------------------|-------------------|-------------------|
--------------------------|-------------------|-------------------|
--L------------------1----|-------------------|-------------------|
----4------L-4--3---------|--4----------------|-------------------|
--------------------------|-------------------|--2----------------|


                           |--3--|  |--3--|  |--3--|   
  W                   Q    E  E  E  E  E  E  E  E  E   
-------------------|----------------------------------|
-------------------|----------------------------------|
-------------------|-------------1--------------------|
-------------------|-------1--L-----4-----------0--1--|
-------------------|--2----------------2--3--4--------|
-------------------|----------------------------------|


       |--3--|                                                           
  Q    E  E  E  Q    Q       H        S. Q    E  T    W                  
--------------------------|------------------------|-------------------||
-------------2--0---------|------------------------|-------------------||
-------1--L---------------|------------------------|-------------------||
--2------------------2----|------------------------|-------------------||
--------------------------|--2--------L------------|-------------------||
--------------------------|------------------------|-------------------||




Duration Legend
---------------
W - whole
H - half
Q - quarter
E - 8th
S - 16th
T - 32nd
X - 64th
. - note dotted
|-n-|  - n-tuplets


Tablature Legend
----------------
L - tied note
x - dead note
g - grace note
(n) - ghost note
> - accentuded note
NH - natural harmonic
AH - artificial harmonic
TH - tapped harmonic
SH - semi harmonic
PH - pitch harmonic
h - hammer on
p - pull off
b - bend
br - bendRelease
pb - preBend
pbr - preBendRelease
brb - bendReleaseBend
\n/ - tremolo bar dip
\n - tremolo bar dive
-/n - tremolo bar Release up
/n\ - tremolo bar inverted dip
/n - tremolo bar return
-\n - tremolo bar Release down
S - shift slide
s - legato slide
/ -  slide into from below or out of upwards
\ -  slide into from above or out of downwards
~ - vibrato
W - wide vibrato
tr - trill
TP - tremolo picking
T - tapping
S - slap
P - pop
< - fade in
^ - brush up
v - brush down
comments
We did not receive enough feedback on this tab! Please rate:
print report bad tab
1 2 3 4 5
1 comment total.
0 reply
FL_Bob2002 wrote on January 1 2014, 05:01 pm

This is alright if you know what your doing, but its hard to figure out how you are playing it.

I want to post or [tab]
guest
You may want to rate the tab now too:
select rating
Please do not post tabs as comments. Select "correction" instead!