Oops, an error
Loading. Please wait.

Bach Partita In Dm Tab

1,914 views 54 this week
no commentswrite comment
1 2 3 4 5
excellent!
x 3
add to favorites launch autoscroll
font size
0
reset
Autoscroll
+/-
esc
set tempo
stop
Contributor
Difficulty
advanced
WARNING: You are trying to view
                                    content from Ultimate-Guitar.com
                                    in an unauthorized application,
                                    which is prohibited.

                                    Please use an official Ultimate
                                    Guitar Tabs application for iPhone,
                                    iPad or Android to access legitimate
                                    chords, guitar, bass, and drum tabs
                                    from Ultimate-Guitar.com database.

                                    Type "ultimate guitar tabs" in Apple
                                    App Store's or Android Market's
                                    search to find the application.
-------------------------------------------------------------------------------
                     BACH PARTITA IN Dm - Paul Gilbert
-------------------------------------------------------------------------------

Tabbed by: JackMule
E-mail: PlayingSongs@hotmail.com

Editor Notes: Vibratos and palm mutes are not shown. Some hammer-ons and pull-offs might
              be missing or put in where they shouldn't be. It's difficult to decide
              whether Paul is doing them or not at some points in the song. Do whatever
              feels easiest, although for the most part this tab is accurate.

Tuning: Standard


Intro:


e|-0----------------|------------------|-----------------0--0--0-------------|
B|-0----------------|------------------|-----------------0--0--0-------------|
G|-1----------------|------------------|-----------------1--1--1-------------|
D|-2----------------|------------------|-----------------2--2--2-------------|
A|-2----------------|------------------|-----------------2--2--2-------------|
E|-0----------------|------------------|--------------0--0--0--0-------------|


Chorus:


{(Second time through has less of a pause in between the larger gaps of notes.)
e|-------------------------13------15-13-------------------------------------|
B|-----------------15--17------17--------17-15-14----------------------17----|
G|-14----------14----------------------------------14--------------14--------|
D|---------15------------------------------------------14------14------------|
A|-----17--------------------------------------------------16----------------|
E|---------------------------------------------------------------------------|

e|-15--13--17-15-13----------------------------------------------------------|
B|------------------17-15----------------------------------------18-17-15-18-|
G|--------------------------14-----------------------------------------------|
D|-------------------------------15------------------------------------------|
A|------------------------------------17-------------------------------------|
E|---------------------------------------------------------------------------|

e|-18-17-15----------------------------17-15-13------------------------------|
B|----------18-17-15-13-15-17-15-13-17----------17-15-13-11-13-15-13-11-15---|
G|---------------------------------------------------------------------------|
D|---------------------------------------------------------------------------|
A|---------------------------------------------------------------------------|
E|---------------------------------------------------------------------------|

e|-15-13-12-------------------------12---------------------------------------|
B|----------15-14-12----12-14----14----15-14-12------------------------------|
G|-------------------14-------14----------------14-12----14-12---------------|
D|----------------------------------------------------15-------15-14-12------|
A|----------------------------------------------------------------------12---|
E|---------------------------------------------------------------------------|

e|---------------------------------------------------------------------12-13-|
B|-15--14--------------------------------------------------------13-15-------|
G|------------------------------------------------------12-14-15-------------|
D|---------12-------------------------------------14-15----------------------|
A|---------------------------------------------------------------------------|
E|---------------------------------------------------------------------------|

e|-15p12-------------------------------------------------------12-13-15------|
B|-------13----------13----------------------------------13-15---------------|
G|----------12----12----12----------12-14-12----12-14-15---------------------|
D|-------------14----------14----14----------15------------------------------|
A|----------------------------15---------------------------------------------|
E|---------------------------------------------------------------------------|

e|-17-18-17-18-22----15-17-15-17-20----13-15-13-15-18----12-13-12-13-17-15---|
B|----------------17----------------15----------------13---------------------|
G|---------------------------------------------------------------------------|
D|---------------------------------------------------------------------------|
A|---------------------------------------------------------------------------|
E|---------------------------------------------------------------------------|

e|-13----------13----------------------------------13------------------------|
B|----17-15-17----17-15-13----13-15-13----------13----13---------------------|
G|-------------------------15----------15-14-15----------14-------14-17p14---|
D|----------------------------------------------------------15h17------------|
A|---------------------------------------------------------------------------|
E|---------------------------------------------------------------------------|

e|----------------------------------------------------------15-18p15---------|
B|-------------------------------------------------------15----------15------|
G|-------------15-------------------------------------15----------------15---|
D|-15-12h13h15----15p12-------12-15p12-------------17----------------------17|
A|----------------------13h15----------13-------17---------------------------|
E|----------------------------------------15h18------------------------------|

e|-------------15-18----------18----18-------------13-17----------17----17---|
B|----------17-------------------------------13-17---------------------------|
G|-------17----------17-15-17----17-------14-------------17-15-17----17------|
D|-14h17-------------------------------15------------------------------------|
A|---------------------------------------------------------------------------|
E|---------------------------------------------------------------------------|

e|-------------15-18----------18----18-------------13-17----------17----17---|
B|----------17-------------------------------13-17---------------------------|
G|-------17----------17-15-17----17-------14-------------17-15-17----17------|
D|-14h17-------------------------------15------------------------------------|
A|---------------------------------------------------------------------------|
E|---------------------------------------------------------------------------|

e|-------------18-22----------22----22-------------17-20----------20----20---|
B|-------18-22-------------------------------17-20---------------------------|
G|----19-------------21-19-21----21-------17-------------19-17-19----19------|
D|-20----------------------------------19------------------------------------|
A|---------------------------------------------------------------------------|
E|---------------------------------------------------------------------------|

e|-------------15-18----------18----18-------------13-17----------17-13------|
B|-------15-18-------------------------------13-17----------------------15---|
G|----15-------------17-15-17----17-------14-------------17-15-17------------|
D|-17----------------------------------15------------------------------------|
A|---------------------------------------------------------------------------|
E|---------------------------------------------------------------------------|

e|---------------------------------------------------------------------------|
B|-------------15----------------------------------------------------17------|
G|-15-14-15-17----15----------14-15-------------------------------17---------|
D|-------------------17-15-17-------17-14----14-15-17-14----14h17------------|
A|----------------------------------------17-------------15------------------|
E|---------------------------------------------------------------------------|

e|----------------------------------------------------------------19-17-19---|
B|----------------------------------------------15-14-15----15-18------------|
G|-15-14-------------------------------------14----------14------------------|
D|-------17-15-14-------------17-14-15----15---------------------------------|
A|----------------17-16-14-------------17------------------------------------|
E|-------------------------17------------------------------------------------|

e|----------------------------------------------17-16-17-19-20----17-20------|
B|-18-17-------------------------------------17----------------21-------18---|
G|-------19-17-16-------------19-16-17----17---------------------------------|
D|----------------19-18-16-------------19------------------------------------|
A|-------------------------19------------------------------------------------|
E|---------------------------------------------------------------------------|

e|----17-------17------------------------------------------------------------|
B|-20----17-18----15-17-18----15-18------------------------------------------|
G|-------------------------18------------------------------------------------|
D|----------------------------------18---------------------------------------|
A|---------------------------------------------------------------------------|
E|---------------------------------------------------------------------------|

e|----------------------19----------------17----------------16---------------|
B|----------15-17-18-15----15-13-15-17-13----13-12-13-15-13----12-13-15-17---|
G|-14-16-17------------------------------------------------------------------|
D|---------------------------------------------------------------------------|
A|---------------------------------------------------------------------------|
E|---------------------------------------------------------------------------|

e|----17----------------19---------------------------------------------------|
B|-13----13-15-17-18-15----15-13-15-17-12-13----12-13-15----12---------------|
G|-------------------------------------------14----------14----13-14---------|
D|---------------------------------------------------------------------------|
A|-----------------------------------------------------------------------16--|
E|--------------------------------------------------------------------17-----|

e|-------------------------------------------------------17-16-17------------|
B|-------------------------------------15-14-15----15-18----------17\14------|
G|----------------------------------14----------14----------------------14---|
D|-14-17----14----------14-15----15------------------------------------------|
A|-------------16----16-------17---------------------------------------------|
E|----------------17---------------------------------------------------------|

e|---------------------------------------------------------------------------|
B|---------------------------------------------------------------------------|
G|---------------------------------------------------------------------------|
D|-14------------------------------------------------------------------------|
A|----16---------------------------------------------------------------------|
E|-------17\-----------------------------------------------------------------|
}X2


Outro:


e|-12----------12------------------------------------------------------------|
B|---------14----------------------------------------------------------------|
G|-----14----------12--14--15------------------------------12-14-15-14-12-15-|
D|-----------------------------11--14-12-11--------11--14--------------------|
A|------------------------------------------14-12----------------------------|
E|---------------------------------------------------------------------------|

e|-12------------------------------------------------------------------------|
B|----15-14-12---------------------------------------------------------------|
G|-------------14-12----------12-14---------------------------------19-17-15-|
D|-------------------15-14-15-------15-12------------------------------------|
A|---------------------------------------------------------------------------|
E|---------------------------------------------------------------------------|

e|-------------------------------------------------------17-15---------------|
B|-------------------16-15-------------------------------------19-17-15------|
G|----17-15----------------17-15----------------------------------------17---|
D|-19-------19-17-16-------------19-17-16-19-17-16---------------------------|
A|-------------------------------------------------19-17---------------------|
E|---------------------------------------------------------------------------|

e|-------------------20-18-17-------------------17-15------------------------|
B|----------------------------20-19-17----17-19-------18-16-15---------------|
G|-15-19-17-15-------------------------19----------------------17-15---------|
D|-------------19-17-------------------------------------------------19-17---|
A|---------------------------------------------------------------------------|
E|---------------------------------------------------------------------------|

e|-------------17-20----------20----20-------------15-18----------18----18---|
B|----------19-------------------------------15-19-------15----15----15------|
G|-------19----------19-17-19----19-------15----------------17---------------|
D|-16-19-------------------------------17------------------------------------|
A|---------------------------------------------------------------------------|
E|---------------------------------------------------------------------------|

e|-------------17-20----------20----20-------------15-18----------18----18---|
B|----------19-------------------------------15-19-------15----15----15------|
G|-------19----------19-17-19----19-------15----------------17---------------|
D|-16-19-------------------------------17------------------------------------|
A|---------------------------------------------------------------------------|
E|---------------------------------------------------------------------------|

e|----------------------------------------------------10-----------10----10--|
B|-------------13-16----------16----16----------10-11------------------------|
G|-------12-15-------------------------------10------------------------------|
D|----13-------------15-13-15----15-------12-------------13-12-13-----13-----|
A|-15----------------------------------13------------------------------------|
E|---------------------------------------------------------------------------|

e|----------------------------------------------------------------------15---|
B|-------------10-13----------13----13-------------------------------15------|
G|----------12----------------------------------------15----------15---------|
D|----10-13----------12-10-12----12-------------16-17-------16-17------------|
A|-12----------------------------------------17----------17------------------|
E|-------------------------------------15-18---------------------------------|

e|-------------15----------------------------------------------------17-20---|
B|-16-15-16-18----16----------15-16-------------------------------19---------|
G|-------------------17-15-17-------17-14----14-15-17-14-------19------------|
D|----------------------------------------17-------------16h19---------------|
A|---------------------------------------------------------------------------|
E|---------------------------------------------------------------------------|

e|-18-17-20-18-17----------------17------------------------------------------|
B|----------------20----20-19-20----19-20----------------------------------17|
G|-------------------19-------------------20-19-17-------------------17-19---|
D|-------------------------------------------------20-19-20-17-19-20---------|
A|---------------------------------------------------------------------------|
E|---------------------------------------------------------------------------|

e|---------------------------------------------------------------------------|
B|-18-20p17----17-------------------------------------------------------14---|
G|----------------------------------------17---------------------------------|
D|----------20----------17-20-19-17-19-20----19----19-------15-19p15---------|
A|-------------------19-------------------------20-------17----------17------|
E|----------------20----------------------------------18---------------------|

e|-------------------------------------------------------------13-17---------|
B|-15-17-14----14-------------------------------15-14-15----15-------13------|
G|-------------------------------------------14----------14-------------15---|
D|----------17----------14-17-15-14-15----15---------------------------------|
A|-------------------16----------------17------------------------------------|
E|----------------17---------------------------------------------------------|

e|-17-15-13----------------13-15-------15-13----------------------13---------|
B|----------17-15-13-15-17-------------------17-15-13----13-15-17------------|
G|-------------------------------15-14----------------15-------------14-12---|
D|---------------------------------------------------------------------------|
A|---------------------------------------------------------------------------|
E|---------------------------------------------------------------------------|

e|-13-12----------------------12----------10----------------------------|
B|-------15-14-12----12-14-15----------10----10----10-------10----------|
G|----------------14-------------12-10----------10-------10----10----10-|
D|----------------------------------------------------12----------12----|
A|----------------------------------------------------------------------|
E|----------------------------------------------------------------------|

e|--------------------------------------------------------18-17-15-----------|
B|-------15-18-17----------15-18-17-----------15-18-17-------------18-17-15--|
G|----------------18----------------18-----------------18--------------------|
D|---------------------------------------------------------------------------|
A|----17----------------17-----------------17--------------------------------|
E|-18----------------17-----------------15-----------------------------------|

e|----------15-17-------------------------------------------------------|
B|----17-18-------17-15----------17-------------------------------------|
G|-18-------------------18-16-14-------------------19----------------17-|
D|----------------------------------17-15-17-19-15----15-14-15-17-14----|
A|----------------------------------------------------------------------|
E|----------------------------------------------------------------------|

e|---------------------------------------------------------------------------|
B|----------------------------------------------------------------------16---|
G|----------------15----------------14----------------12----12-14-15-12------|
D|-14-12-14-15-12----12-10-12-14-10----------------------12------------------|
A|-------------------------------------15-13-15-17-13------------------------|
E|---------------------------------------------------------------------------|

e|----------------------------------------------------------------------19---|
B|----------------------------------14----------------------15-17-18-15------|
G|-12-------------12----12-14-15-12----12-------------19---------------------|
D|----------------------------------------15-17-19-15----19------------------|
A|----12-14-16-12----12------------------------------------------------------|
E|---------------------------------------------------------------------------|

e|-------------------------------------------------------------18------------|
B|-15-------------------18----------------------------18-20-22----17-18-20---|
G|-------------18-19-21----21-19-18-19-------18-19-21------------------------|
D|----18-19-21-------------------------18-19---------------------------------|
A|---------------------------------------------------------------------------|
E|---------------------------------------------------------------------------|

e|-------------------------------17-22-21-22-17------------------------------|
B|-------------------17-18----18-----------------18--------------------------|
G|-18-19----------19-------19------------------------19----------------------|
D|-------------19-----------------------------------------19-----------------|
A|-------17-20--------------------------------------------------20---17\-----|
E|---------------------------------------------------------------------------|



************************************

| /   slide up
| \   slide down
| h   hammer-on
| p   pull-off
| {}X Play {this} X amount of times

************************************
comments
We did not receive enough feedback on this tab! Please rate:
1 2 3 4 5
I want to post or [tab]
guest
You may want to rate the tab now too:
select rating
Please do not post tabs as comments. Select "correction" instead!